ISO-10303-21;
HEADER;
FILE_DESCRIPTION (( 'STEP AP214' ),
    '1' );
FILE_NAME ('Micro_GEC-062-4-010X.STEP',
    '2021-09-03T17:04:28',
    ( '' ),
    ( '' ),
    'SwSTEP 2.0',
    'SolidWorks 2020',
    '' );
FILE_SCHEMA (( 'AUTOMOTIVE_DESIGN' ));
ENDSEC;

DATA;
#1 = CONICAL_SURFACE ( 'NONE', #310, 0.03121875000000000691, 0.1745329251994338915 ) ;
#2 = CARTESIAN_POINT ( 'NONE',  ( 0.0000000000000000000, 0.0000000000000000000, 1.485000000000000764 ) ) ;
#3 = CARTESIAN_POINT ( 'NONE',  ( -0.03121874999999998609, 3.823194226088144458E-18, 0.1880000000000000282 ) ) ;
#4 = CIRCLE ( 'NONE', #197, 0.02121875000000000497 ) ;
#5 = DIRECTION ( 'NONE',  ( -0.1736481776669311916, 2.126576849575783316E-17, 0.9848077530122080203 ) ) ;
#6 = DIMENSIONAL_EXPONENTS ( 1.000000000000000000, 0.0000000000000000000, 0.0000000000000000000, 0.0000000000000000000, 0.0000000000000000000, 0.0000000000000000000, 0.0000000000000000000 ) ;
#7 = VERTEX_POINT ( 'NONE', #114 ) ;
#8 = DIRECTION ( 'NONE',  ( -1.000000000000000000, 0.0000000000000000000, 0.0000000000000000000 ) ) ;
#9 = EDGE_LOOP ( 'NONE', ( #217, #167, #19, #287 ) ) ;
#10 = PRODUCT_DEFINITION_FORMATION_WITH_SPECIFIED_SOURCE ( 'ANY', '', #318, .NOT_KNOWN. ) ;
#11 = CIRCLE ( 'NONE', #203, 0.04750000000000064587 ) ;
#12 = VERTEX_POINT ( 'NONE', #117 ) ;
#13 = SURFACE_STYLE_USAGE ( .BOTH. , #166 ) ;
#14 = ADVANCED_BREP_SHAPE_REPRESENTATION ( 'Micro_GEC-062-4-010X', ( #224, #251 ), #75 ) ;
#15 = ORIENTED_EDGE ( 'NONE', *, *, #158, .F. ) ;
#16 = CARTESIAN_POINT ( 'NONE',  ( 1.224646799147353770E-18, 0.0000000000000000000, 0.01000000000000000021 ) ) ;
#17 =( NAMED_UNIT ( * ) PLANE_ANGLE_UNIT ( ) SI_UNIT ( $, .RADIAN. ) );
#18 = ORIENTED_EDGE ( 'NONE', *, *, #95, .F. ) ;
#19 = ORIENTED_EDGE ( 'NONE', *, *, #260, .T. ) ;
#20 = ADVANCED_FACE ( 'NONE', ( #60 ), #1, .T. ) ;
#21 = DIRECTION ( 'NONE',  ( -1.224646799147353700E-16, -0.0000000000000000000, -1.000000000000000000 ) ) ;
#22 = FACE_OUTER_BOUND ( 'NONE', #66, .T. ) ;
#23 = VECTOR ( 'NONE', #244, 39.37007874015748854 ) ;
#24 = EDGE_CURVE ( 'NONE', #44, #79, #314, .T. ) ;
#25 = DIRECTION ( 'NONE',  ( 0.0000000000000000000, 0.0000000000000000000, 1.000000000000000000 ) ) ;
#26 = CARTESIAN_POINT ( 'NONE',  ( 0.03121875000000000691, 3.823194226088144458E-18, -3.823194226088145998E-18 ) ) ;
#27 = AXIS2_PLACEMENT_3D ( 'NONE', #336, #332, #139 ) ;
#28 = CIRCLE ( 'NONE', #317, 0.03121875000000000691 ) ;
#29 = AXIS2_PLACEMENT_3D ( 'NONE', #320, #102, #172 ) ;
#30 = EDGE_LOOP ( 'NONE', ( #302, #15, #86, #226 ) ) ;
#31 = LINE ( 'NONE', #128, #126 ) ;
#32 = DIRECTION ( 'NONE',  ( 1.000000000000000000, 0.0000000000000000000, 0.0000000000000000000 ) ) ;
#33 = LINE ( 'NONE', #186, #23 ) ;
#34 = DIMENSIONAL_EXPONENTS ( 1.000000000000000000, 0.0000000000000000000, 0.0000000000000000000, 0.0000000000000000000, 0.0000000000000000000, 0.0000000000000000000, 0.0000000000000000000 ) ;
#35 = FACE_OUTER_BOUND ( 'NONE', #9, .T. ) ;
#36 = EDGE_LOOP ( 'NONE', ( #190, #138 ) ) ;
#37 = SHAPE_DEFINITION_REPRESENTATION ( #347, #14 ) ;
#38 = ORIENTED_EDGE ( 'NONE', *, *, #245, .T. ) ;
#39 = ADVANCED_FACE ( 'NONE', ( #223 ), #101, .T. ) ;
#40 = AXIS2_PLACEMENT_3D ( 'NONE', #351, #292, #262 ) ;
#41 = CIRCLE ( 'NONE', #253, 0.03121875000000000691 ) ;
#42 = ORIENTED_EDGE ( 'NONE', *, *, #228, .F. ) ;
#43 = ORIENTED_EDGE ( 'NONE', *, *, #284, .F. ) ;
#44 = VERTEX_POINT ( 'NONE', #256 ) ;
#45 = ADVANCED_FACE ( 'NONE', ( #65 ), #289, .T. ) ;
#46 = ORIENTED_EDGE ( 'NONE', *, *, #257, .F. ) ;
#47 = DIRECTION ( 'NONE',  ( 0.0000000000000000000, 0.0000000000000000000, -1.000000000000000000 ) ) ;
#48 = CARTESIAN_POINT ( 'NONE',  ( -0.02121875000000000497, 2.598547426940790881E-18, 0.01000000000000000021 ) ) ;
#49 = FACE_OUTER_BOUND ( 'NONE', #343, .T. ) ;
#50 = DIRECTION ( 'NONE',  ( -1.000000000000000000, 0.0000000000000000000, 0.0000000000000000000 ) ) ;
#51 = ADVANCED_FACE ( 'NONE', ( #277 ), #155, .T. ) ;
#52 = CIRCLE ( 'NONE', #80, 0.01000000000000000021 ) ;
#53 = LINE ( 'NONE', #188, #183 ) ;
#54 = CYLINDRICAL_SURFACE ( 'NONE', #143, 0.06250000000000002776 ) ;
#55 = FACE_OUTER_BOUND ( 'NONE', #201, .T. ) ;
#56 = DIRECTION ( 'NONE',  ( -1.000000000000000000, 0.0000000000000000000, 1.224646799147353700E-16 ) ) ;
#57 = EDGE_LOOP ( 'NONE', ( #18, #136, #110, #84 ) ) ;
#58 = DIRECTION ( 'NONE',  ( 0.0000000000000000000, 0.0000000000000000000, 1.000000000000000000 ) ) ;
#59 = DIMENSIONAL_EXPONENTS ( 1.000000000000000000, 0.0000000000000000000, 0.0000000000000000000, 0.0000000000000000000, 0.0000000000000000000, 0.0000000000000000000, 0.0000000000000000000 ) ;
#60 = FACE_OUTER_BOUND ( 'NONE', #30, .T. ) ;
#61 = EDGE_CURVE ( 'NONE', #159, #79, #151, .T. ) ;
#62 = AXIS2_PLACEMENT_3D ( 'NONE', #149, #182, #216 ) ;
#63 = CARTESIAN_POINT ( 'NONE',  ( -0.02121875000000000497, 3.210870826514467669E-18, 0.0000000000000000000 ) ) ;
#64 = ORIENTED_EDGE ( 'NONE', *, *, #160, .F. ) ;
#65 = FACE_OUTER_BOUND ( 'NONE', #152, .T. ) ;
#66 = EDGE_LOOP ( 'NONE', ( #196, #225, #42, #305 ) ) ;
#67 = CARTESIAN_POINT ( 'NONE',  ( 0.0000000000000000000, 0.0000000000000000000, 0.0000000000000000000 ) ) ;
#68 = ADVANCED_FACE ( 'NONE', ( #22 ), #125, .T. ) ;
#69 = CARTESIAN_POINT ( 'NONE',  ( 0.0000000000000000000, 0.0000000000000000000, 1.485000000000000764 ) ) ;
#70 = CARTESIAN_POINT ( 'NONE',  ( -0.06249999999999997918, 0.0000000000000000000, 0.3654047844199155848 ) ) ;
#71 = CYLINDRICAL_SURFACE ( 'NONE', #184, 0.06250000000000002776 ) ;
#72 = CARTESIAN_POINT ( 'NONE',  ( -0.03121874999999998609, 5.738618360379552157E-18, 0.1880000000000000282 ) ) ;
#73 = ADVANCED_FACE ( 'NONE', ( #321 ), #82, .T. ) ;
#74 = CARTESIAN_POINT ( 'NONE',  ( 0.0000000000000000000, 0.0000000000000000000, 1.500000000000000222 ) ) ;
#75 =( GEOMETRIC_REPRESENTATION_CONTEXT ( 3 ) GLOBAL_UNCERTAINTY_ASSIGNED_CONTEXT ( ( #233 ) ) GLOBAL_UNIT_ASSIGNED_CONTEXT ( ( #286, #221, #88 ) ) REPRESENTATION_CONTEXT ( 'NONE', 'WORKASPACE' ) );
#76 = DIRECTION ( 'NONE',  ( 1.000000000000000000, 0.0000000000000000000, 0.0000000000000000000 ) ) ;
#77 = CARTESIAN_POINT ( 'NONE',  ( 0.03121875000000002773, 0.0000000000000000000, 0.1880000000000000282 ) ) ;
#78 = CARTESIAN_POINT ( 'NONE',  ( -0.06250000000000002776, 0.0000000000000000000, 1.500000000000000222 ) ) ;
#79 = VERTEX_POINT ( 'NONE', #179 ) ;
#80 = AXIS2_PLACEMENT_3D ( 'NONE', #48, #92, #142 ) ;
#81 =( NAMED_UNIT ( * ) SI_UNIT ( $, .STERADIAN. ) SOLID_ANGLE_UNIT ( ) );
#82 = TOROIDAL_SURFACE ( 'NONE', #171, 0.02121875000000000497, 0.01000000000000000021 ) ;
#83 = ORIENTED_EDGE ( 'NONE', *, *, #322, .F. ) ;
#84 = ORIENTED_EDGE ( 'NONE', *, *, #326, .F. ) ;
#85 = PRODUCT_CONTEXT ( 'NONE', #312, 'mechanical' ) ;
#86 = ORIENTED_EDGE ( 'NONE', *, *, #326, .T. ) ;
#87 = ORIENTED_EDGE ( 'NONE', *, *, #274, .F. ) ;
#88 =( NAMED_UNIT ( * ) SI_UNIT ( $, .STERADIAN. ) SOLID_ANGLE_UNIT ( ) );
#89 = ORIENTED_EDGE ( 'NONE', *, *, #98, .T. ) ;
#90 = ORIENTED_EDGE ( 'NONE', *, *, #187, .T. ) ;
#91 = STYLED_ITEM ( 'NONE', ( #265 ), #224 ) ;
#92 = DIRECTION ( 'NONE',  ( 1.224646799147353207E-16, 1.000000000000000000, -0.0000000000000000000 ) ) ;
#93 = AXIS2_PLACEMENT_3D ( 'NONE', #67, #209, #232 ) ;
#94 = PRESENTATION_LAYER_ASSIGNMENT (  '', '', ( #91 ) ) ;
#95 = EDGE_CURVE ( 'NONE', #252, #278, #28, .T. ) ;
#96 = SURFACE_SIDE_STYLE ('',( #348 ) ) ;
#97 = CARTESIAN_POINT ( 'NONE',  ( 4.474917996329784544E-17, 0.0000000000000000000, 0.3654047844199155848 ) ) ;
#98 = EDGE_CURVE ( 'NONE', #12, #342, #11, .T. ) ;
#99 = DIRECTION ( 'NONE',  ( 1.000000000000000000, 0.0000000000000000000, 0.0000000000000000000 ) ) ;
#100 = UNCERTAINTY_MEASURE_WITH_UNIT (LENGTH_MEASURE( 1.000000000000000082E-05 ), #306, 'distance_accuracy_value', 'NONE');
#101 = TOROIDAL_SURFACE ( 'NONE', #270, 0.02121875000000000497, 0.01000000000000000021 ) ;
#102 = DIRECTION ( 'NONE',  ( 0.0000000000000000000, 0.0000000000000000000, -1.000000000000000000 ) ) ;
#103 = LENGTH_MEASURE_WITH_UNIT ( LENGTH_MEASURE( 0.02539999999999999897 ), #301 );
#104 = CARTESIAN_POINT ( 'NONE',  ( 4.474917996329784544E-17, 0.0000000000000000000, 0.3654047844199155848 ) ) ;
#105 = MECHANICAL_DESIGN_GEOMETRIC_PRESENTATION_REPRESENTATION (  '', ( #331 ), #150 ) ;
#106 = APPLICATION_CONTEXT ( 'automotive_design' ) ;
#107 = DIRECTION ( 'NONE',  ( 1.000000000000000000, 0.0000000000000000000, 0.0000000000000000000 ) ) ;
#108 = EDGE_LOOP ( 'NONE', ( #165, #281, #130, #309 ) ) ;
#109 = ADVANCED_FACE ( 'NONE', ( #122 ), #208, .F. ) ;
#110 = ORIENTED_EDGE ( 'NONE', *, *, #61, .T. ) ;
#111 = MECHANICAL_DESIGN_GEOMETRIC_PRESENTATION_REPRESENTATION (  '', ( #91 ), #234 ) ;
#112 = ORIENTED_EDGE ( 'NONE', *, *, #274, .T. ) ;
#113 = DIRECTION ( 'NONE',  ( 1.000000000000000000, 0.0000000000000000000, 0.0000000000000000000 ) ) ;
#114 = CARTESIAN_POINT ( 'NONE',  ( 0.02121875000000000497, 0.0000000000000000000, 0.0000000000000000000 ) ) ;
#115 = CARTESIAN_POINT ( 'NONE',  ( -0.04750000000000064587, 0.0000000000000000000, 1.500000000000000222 ) ) ;
#116 = DIRECTION ( 'NONE',  ( 0.0000000000000000000, 0.0000000000000000000, 1.000000000000000000 ) ) ;
#117 = CARTESIAN_POINT ( 'NONE',  ( 0.04750000000000064587, 6.735557395310483192E-18, 1.500000000000000222 ) ) ;
#118 = ORIENTED_EDGE ( 'NONE', *, *, #267, .T. ) ;
#119 = CARTESIAN_POINT ( 'NONE',  ( 2.302335982397025094E-17, 0.0000000000000000000, 0.1880000000000000282 ) ) ;
#120 = AXIS2_PLACEMENT_3D ( 'NONE', #275, #276, #76 ) ;
#121 = CARTESIAN_POINT ( 'NONE',  ( -0.03121875000000000691, 0.0000000000000000000, 0.01000000000000000021 ) ) ;
#122 = FACE_OUTER_BOUND ( 'NONE', #36, .T. ) ;
#123 = CARTESIAN_POINT ( 'NONE',  ( 1.224646799147353770E-18, 0.0000000000000000000, 0.01000000000000000021 ) ) ;
#124 = COLOUR_RGB ( '',0.7921568627450980005, 0.8196078431372548767, 0.9333333333333333481 ) ;
#125 = CONICAL_SURFACE ( 'NONE', #333, 0.04750000000000064587, 0.7853981633974466137 ) ;
#126 = VECTOR ( 'NONE', #249, 39.37007874015748854 ) ;
#127 =( CONVERSION_BASED_UNIT ( 'INCH', #103 ) LENGTH_UNIT ( ) NAMED_UNIT ( #6 ) );
#128 = CARTESIAN_POINT ( 'NONE',  ( 0.04750000000000064587, 5.817072295950006528E-18, 1.500000000000000222 ) ) ;
#129 = VECTOR ( 'NONE', #246, 39.37007874015748143 ) ;
#130 = ORIENTED_EDGE ( 'NONE', *, *, #284, .T. ) ;
#131 = DIRECTION ( 'NONE',  ( 0.0000000000000000000, 0.0000000000000000000, 1.000000000000000000 ) ) ;
#132 = ORIENTED_EDGE ( 'NONE', *, *, #214, .T. ) ;
#133 = DIRECTION ( 'NONE',  ( 0.1736481776669313859, 0.0000000000000000000, 0.9848077530122077983 ) ) ;
#134 = ORIENTED_EDGE ( 'NONE', *, *, #206, .T. ) ;
#135 = CONICAL_SURFACE ( 'NONE', #62, 0.03121875000000000691, 0.1745329251994338915 ) ;
#136 = ORIENTED_EDGE ( 'NONE', *, *, #304, .T. ) ;
#137 = DIRECTION ( 'NONE',  ( 1.000000000000000000, 0.0000000000000000000, 0.0000000000000000000 ) ) ;
#138 = ORIENTED_EDGE ( 'NONE', *, *, #257, .T. ) ;
#139 = DIRECTION ( 'NONE',  ( 1.000000000000000000, 0.0000000000000000000, 0.0000000000000000000 ) ) ;
#140 = CARTESIAN_POINT ( 'NONE',  ( 0.0000000000000000000, 0.0000000000000000000, 1.500000000000000222 ) ) ;
#141 = DIRECTION ( 'NONE',  ( 0.0000000000000000000, 0.0000000000000000000, 1.000000000000000000 ) ) ;
#142 = DIRECTION ( 'NONE',  ( -1.000000000000000000, 1.224646799147353454E-16, 0.0000000000000000000 ) ) ;
#143 = AXIS2_PLACEMENT_3D ( 'NONE', #74, #300, #8 ) ;
#144 = DIRECTION ( 'NONE',  ( 0.0000000000000000000, 0.0000000000000000000, -1.000000000000000000 ) ) ;
#145 = ADVANCED_FACE ( 'NONE', ( #49 ), #71, .T. ) ;
#146 = DIRECTION ( 'NONE',  ( 1.000000000000000000, 0.0000000000000000000, 0.0000000000000000000 ) ) ;
#147 = UNCERTAINTY_MEASURE_WITH_UNIT (LENGTH_MEASURE( 1.000000000000000082E-05 ), #127, 'distance_accuracy_value', 'NONE');
#148 = CARTESIAN_POINT ( 'NONE',  ( 1.224646799147353770E-18, 0.0000000000000000000, 0.01000000000000000021 ) ) ;
#149 = CARTESIAN_POINT ( 'NONE',  ( 2.302335982397025094E-17, 0.0000000000000000000, 0.1880000000000000282 ) ) ;
#150 =( GEOMETRIC_REPRESENTATION_CONTEXT ( 3 ) GLOBAL_UNCERTAINTY_ASSIGNED_CONTEXT ( ( #100 ) ) GLOBAL_UNIT_ASSIGNED_CONTEXT ( ( #306, #17, #81 ) ) REPRESENTATION_CONTEXT ( 'NONE', 'WORKASPACE' ) );
#151 = CIRCLE ( 'NONE', #191, 0.06250000000000002776 ) ;
#152 = EDGE_LOOP ( 'NONE', ( #38, #89 ) ) ;
#153 = DIRECTION ( 'NONE',  ( 1.000000000000000000, 0.0000000000000000000, 0.0000000000000000000 ) ) ;
#154 = CARTESIAN_POINT ( 'NONE',  ( 0.02121875000000000497, 0.0000000000000000000, 0.01000000000000000021 ) ) ;
#155 = CYLINDRICAL_SURFACE ( 'NONE', #237, 0.03121875000000000691 ) ;
#156 = CYLINDRICAL_SURFACE ( 'NONE', #294, 0.03121875000000000691 ) ;
#157 = LINE ( 'NONE', #78, #129 ) ;
#158 = EDGE_CURVE ( 'NONE', #278, #252, #346, .T. ) ;
#159 = VERTEX_POINT ( 'NONE', #70 ) ;
#160 = EDGE_CURVE ( 'NONE', #44, #194, #229, .T. ) ;
#161 =( LENGTH_UNIT ( ) NAMED_UNIT ( * ) SI_UNIT ( $, .METRE. ) );
#162 = ORIENTED_EDGE ( 'NONE', *, *, #95, .T. ) ;
#163 = VECTOR ( 'NONE', #21, 39.37007874015748143 ) ;
#164 = CARTESIAN_POINT ( 'NONE',  ( 0.03121875000000002773, 0.0000000000000000000, 0.1880000000000000282 ) ) ;
#165 = ORIENTED_EDGE ( 'NONE', *, *, #206, .F. ) ;
#166 = SURFACE_SIDE_STYLE ('',( #254 ) ) ;
#167 = ORIENTED_EDGE ( 'NONE', *, *, #160, .T. ) ;
#168 = LENGTH_MEASURE_WITH_UNIT ( LENGTH_MEASURE( 0.02539999999999999897 ), #161 );
#169 = DIRECTION ( 'NONE',  ( -0.0000000000000000000, -0.0000000000000000000, -1.000000000000000000 ) ) ;
#170 = COLOUR_RGB ( '',0.7921568627450980005, 0.8196078431372548767, 0.9333333333333333481 ) ;
#171 = AXIS2_PLACEMENT_3D ( 'NONE', #148, #141, #146 ) ;
#172 = DIRECTION ( 'NONE',  ( -1.000000000000000000, 0.0000000000000000000, 0.0000000000000000000 ) ) ;
#173 = CIRCLE ( 'NONE', #27, 0.03121875000000000691 ) ;
#174 = DIRECTION ( 'NONE',  ( -1.000000000000000000, 0.0000000000000000000, 1.224646799147353700E-16 ) ) ;
#175 = SURFACE_STYLE_USAGE ( .BOTH. , #96 ) ;
#176 = DIRECTION ( 'NONE',  ( -0.0000000000000000000, -0.0000000000000000000, -1.000000000000000000 ) ) ;
#177 = AXIS2_PLACEMENT_3D ( 'NONE', #140, #178, #316 ) ;
#178 = DIRECTION ( 'NONE',  ( 0.0000000000000000000, 0.0000000000000000000, 1.000000000000000000 ) ) ;
#179 = CARTESIAN_POINT ( 'NONE',  ( 0.06250000000000006939, 7.654042494670963708E-18, 0.3654047844199155848 ) ) ;
#180 = LINE ( 'NONE', #3, #340 ) ;
#181 = PRODUCT_DEFINITION ( 'UNKNOWN', '', #10, #247 ) ;
#182 = DIRECTION ( 'NONE',  ( 1.224646799147353700E-16, 0.0000000000000000000, 1.000000000000000000 ) ) ;
#183 = VECTOR ( 'NONE', #240, 39.37007874015748143 ) ;
#184 = AXIS2_PLACEMENT_3D ( 'NONE', #293, #176, #295 ) ;
#185 =( NAMED_UNIT ( * ) SI_UNIT ( $, .STERADIAN. ) SOLID_ANGLE_UNIT ( ) );
#186 = CARTESIAN_POINT ( 'NONE',  ( -0.04750000000000064587, 0.0000000000000000000, 1.500000000000000222 ) ) ;
#187 = EDGE_CURVE ( 'NONE', #278, #272, #296, .T. ) ;
#188 = CARTESIAN_POINT ( 'NONE',  ( -0.03121875000000000691, 0.0000000000000000000, 3.823194226088145998E-18 ) ) ;
#189 = PRODUCT_RELATED_PRODUCT_CATEGORY ( 'part', '', ( #318 ) ) ;
#190 = ORIENTED_EDGE ( 'NONE', *, *, #311, .T. ) ;
#191 = AXIS2_PLACEMENT_3D ( 'NONE', #97, #315, #99 ) ;
#192 = VERTEX_POINT ( 'NONE', #121 ) ;
#193 =( LENGTH_UNIT ( ) NAMED_UNIT ( * ) SI_UNIT ( $, .METRE. ) );
#194 = VERTEX_POINT ( 'NONE', #207 ) ;
#195 = LENGTH_MEASURE_WITH_UNIT ( LENGTH_MEASURE( 0.02539999999999999897 ), #193 );
#196 = ORIENTED_EDGE ( 'NONE', *, *, #98, .F. ) ;
#197 = AXIS2_PLACEMENT_3D ( 'NONE', #298, #273, #32 ) ;
#198 = FILL_AREA_STYLE ('',( #258 ) ) ;
#199 = CARTESIAN_POINT ( 'NONE',  ( 0.06250000000000002776, 7.654042494670959086E-18, 1.500000000000000222 ) ) ;
#200 = DIRECTION ( 'NONE',  ( 1.224646799147353700E-16, 0.0000000000000000000, 1.000000000000000000 ) ) ;
#201 = EDGE_LOOP ( 'NONE', ( #259, #255, #112, #132 ) ) ;
#202 = AXIS2_PLACEMENT_3D ( 'NONE', #211, #131, #330 ) ;
#203 = AXIS2_PLACEMENT_3D ( 'NONE', #227, #25, #344 ) ;
#204 = DIRECTION ( 'NONE',  ( 1.000000000000000000, 0.0000000000000000000, 0.0000000000000000000 ) ) ;
#205 = CIRCLE ( 'NONE', #328, 0.06250000000000002776 ) ;
#206 = EDGE_CURVE ( 'NONE', #341, #192, #52, .T. ) ;
#207 = CARTESIAN_POINT ( 'NONE',  ( -0.06250000000000002776, 0.0000000000000000000, 1.485000000000000764 ) ) ;
#208 = PLANE ( 'NONE',  #93 ) ;
#209 = DIRECTION ( 'NONE',  ( 0.0000000000000000000, 0.0000000000000000000, 1.000000000000000000 ) ) ;
#210 = DIRECTION ( 'NONE',  ( 0.0000000000000000000, 0.0000000000000000000, -1.000000000000000000 ) ) ;
#211 = CARTESIAN_POINT ( 'NONE',  ( 0.0000000000000000000, 0.0000000000000000000, 1.500000000000000222 ) ) ;
#212 = DIRECTION ( 'NONE',  ( 0.0000000000000000000, -1.000000000000000000, 0.0000000000000000000 ) ) ;
#213 = PRESENTATION_LAYER_ASSIGNMENT (  '', '', ( #331 ) ) ;
#214 = EDGE_CURVE ( 'NONE', #192, #272, #41, .T. ) ;
#215 = DIRECTION ( 'NONE',  ( -1.224646799147353700E-16, -0.0000000000000000000, -1.000000000000000000 ) ) ;
#216 = DIRECTION ( 'NONE',  ( 1.000000000000000000, 0.0000000000000000000, 0.0000000000000000000 ) ) ;
#217 = ORIENTED_EDGE ( 'NONE', *, *, #24, .F. ) ;
#218 = ADVANCED_FACE ( 'NONE', ( #236 ), #345, .T. ) ;
#219 = AXIS2_PLACEMENT_3D ( 'NONE', #104, #215, #153 ) ;
#220 = ORIENTED_EDGE ( 'NONE', *, *, #350, .T. ) ;
#221 =( NAMED_UNIT ( * ) PLANE_ANGLE_UNIT ( ) SI_UNIT ( $, .RADIAN. ) );
#222 = CARTESIAN_POINT ( 'NONE',  ( 2.302335982397025094E-17, 0.0000000000000000000, 0.1880000000000000282 ) ) ;
#223 = FACE_OUTER_BOUND ( 'NONE', #285, .T. ) ;
#224 = MANIFOLD_SOLID_BREP ( 'Fillet1', #235 ) ;
#225 = ORIENTED_EDGE ( 'NONE', *, *, #322, .T. ) ;
#226 = ORIENTED_EDGE ( 'NONE', *, *, #242, .T. ) ;
#227 = CARTESIAN_POINT ( 'NONE',  ( 0.0000000000000000000, 0.0000000000000000000, 1.500000000000000222 ) ) ;
#228 = EDGE_CURVE ( 'NONE', #194, #44, #205, .T. ) ;
#229 = CIRCLE ( 'NONE', #241, 0.06250000000000002776 ) ;
#230 = FILL_AREA_STYLE ('',( #291 ) ) ;
#231 = CARTESIAN_POINT ( 'NONE',  ( 0.0000000000000000000, 0.0000000000000000000, 0.0000000000000000000 ) ) ;
#232 = DIRECTION ( 'NONE',  ( 1.000000000000000000, 0.0000000000000000000, -0.0000000000000000000 ) ) ;
#233 = UNCERTAINTY_MEASURE_WITH_UNIT (LENGTH_MEASURE( 1.000000000000000082E-05 ), #286, 'distance_accuracy_value', 'NONE');
#234 =( GEOMETRIC_REPRESENTATION_CONTEXT ( 3 ) GLOBAL_UNCERTAINTY_ASSIGNED_CONTEXT ( ( #147 ) ) GLOBAL_UNIT_ASSIGNED_CONTEXT ( ( #127, #239, #185 ) ) REPRESENTATION_CONTEXT ( 'NONE', 'WORKASPACE' ) );
#235 = CLOSED_SHELL ( 'NONE', ( #39, #51, #238, #68, #145, #279, #45, #218, #20, #250, #109, #73 ) ) ;
#236 = FACE_OUTER_BOUND ( 'NONE', #261, .T. ) ;
#237 = AXIS2_PLACEMENT_3D ( 'NONE', #231, #268, #174 ) ;
#238 = ADVANCED_FACE ( 'NONE', ( #329 ), #135, .T. ) ;
#239 =( NAMED_UNIT ( * ) PLANE_ANGLE_UNIT ( ) SI_UNIT ( $, .RADIAN. ) );
#240 = DIRECTION ( 'NONE',  ( -1.224646799147353700E-16, -0.0000000000000000000, -1.000000000000000000 ) ) ;
#241 = AXIS2_PLACEMENT_3D ( 'NONE', #2, #144, #324 ) ;
#242 = EDGE_CURVE ( 'NONE', #79, #159, #334, .T. ) ;
#243 = ORIENTED_EDGE ( 'NONE', *, *, #245, .F. ) ;
#244 = DIRECTION ( 'NONE',  ( -0.7071067811865462405, 0.0000000000000000000, -0.7071067811865486830 ) ) ;
#245 = EDGE_CURVE ( 'NONE', #342, #12, #299, .T. ) ;
#246 = DIRECTION ( 'NONE',  ( -0.0000000000000000000, -0.0000000000000000000, -1.000000000000000000 ) ) ;
#247 = PRODUCT_DEFINITION_CONTEXT ( 'detailed design', #106, 'design' ) ;
#248 = ORIENTED_EDGE ( 'NONE', *, *, #260, .F. ) ;
#249 = DIRECTION ( 'NONE',  ( 0.7071067811865462405, 8.659560562354916834E-17, -0.7071067811865486830 ) ) ;
#250 = ADVANCED_FACE ( 'NONE', ( #55 ), #156, .T. ) ;
#251 = AXIS2_PLACEMENT_3D ( 'NONE', #303, #58, #113 ) ;
#252 = VERTEX_POINT ( 'NONE', #72 ) ;
#253 = AXIS2_PLACEMENT_3D ( 'NONE', #123, #263, #204 ) ;
#254 = SURFACE_STYLE_FILL_AREA ( #198 ) ;
#255 = ORIENTED_EDGE ( 'NONE', *, *, #158, .T. ) ;
#256 = CARTESIAN_POINT ( 'NONE',  ( 0.06250000000000002776, 7.654042494670959086E-18, 1.485000000000000764 ) ) ;
#257 = EDGE_CURVE ( 'NONE', #341, #7, #271, .T. ) ;
#258 = FILL_AREA_STYLE_COLOUR ( '', #124 ) ;
#259 = ORIENTED_EDGE ( 'NONE', *, *, #187, .F. ) ;
#260 = EDGE_CURVE ( 'NONE', #194, #159, #157, .T. ) ;
#261 = EDGE_LOOP ( 'NONE', ( #83, #243, #118, #64 ) ) ;
#262 = DIRECTION ( 'NONE',  ( -1.000000000000000000, 0.0000000000000000000, 0.0000000000000000000 ) ) ;
#263 = DIRECTION ( 'NONE',  ( 0.0000000000000000000, 0.0000000000000000000, 1.000000000000000000 ) ) ;
#264 = CIRCLE ( 'NONE', #319, 0.01000000000000000021 ) ;
#265 = PRESENTATION_STYLE_ASSIGNMENT (( #175 ) ) ;
#266 = DIRECTION ( 'NONE',  ( -1.000000000000000000, 0.0000000000000000000, 0.0000000000000000000 ) ) ;
#267 = EDGE_CURVE ( 'NONE', #342, #194, #33, .T. ) ;
#268 = DIRECTION ( 'NONE',  ( -1.224646799147353700E-16, -0.0000000000000000000, -1.000000000000000000 ) ) ;
#269 = CARTESIAN_POINT ( 'NONE',  ( 0.03121875000000000691, 3.823194226088144458E-18, 0.01000000000000000021 ) ) ;
#270 = AXIS2_PLACEMENT_3D ( 'NONE', #16, #116, #313 ) ;
#271 = CIRCLE ( 'NONE', #120, 0.02121875000000000497 ) ;
#272 = VERTEX_POINT ( 'NONE', #269 ) ;
#273 = DIRECTION ( 'NONE',  ( -0.0000000000000000000, -0.0000000000000000000, -1.000000000000000000 ) ) ;
#274 = EDGE_CURVE ( 'NONE', #252, #192, #53, .T. ) ;
#275 = CARTESIAN_POINT ( 'NONE',  ( 1.224646799147353770E-18, 0.0000000000000000000, 0.0000000000000000000 ) ) ;
#276 = DIRECTION ( 'NONE',  ( -0.0000000000000000000, -0.0000000000000000000, -1.000000000000000000 ) ) ;
#277 = FACE_OUTER_BOUND ( 'NONE', #335, .T. ) ;
#278 = VERTEX_POINT ( 'NONE', #77 ) ;
#279 = ADVANCED_FACE ( 'NONE', ( #35 ), #54, .T. ) ;
#280 = APPLICATION_PROTOCOL_DEFINITION ( 'draft international standard', 'automotive_design', 1998, #106 ) ;
#281 = ORIENTED_EDGE ( 'NONE', *, *, #311, .F. ) ;
#282 = ORIENTED_EDGE ( 'NONE', *, *, #61, .F. ) ;
#283 = LINE ( 'NONE', #164, #288 ) ;
#284 = EDGE_CURVE ( 'NONE', #7, #272, #264, .T. ) ;
#285 = EDGE_LOOP ( 'NONE', ( #46, #134, #307, #43 ) ) ;
#286 =( CONVERSION_BASED_UNIT ( 'INCH', #168 ) LENGTH_UNIT ( ) NAMED_UNIT ( #59 ) );
#287 = ORIENTED_EDGE ( 'NONE', *, *, #242, .F. ) ;
#288 = VECTOR ( 'NONE', #133, 39.37007874015748143 ) ;
#289 = PLANE ( 'NONE',  #177 ) ;
#290 = VECTOR ( 'NONE', #169, 39.37007874015748143 ) ;
#291 = FILL_AREA_STYLE_COLOUR ( '', #170 ) ;
#292 = DIRECTION ( 'NONE',  ( -1.224646799147353700E-16, -0.0000000000000000000, -1.000000000000000000 ) ) ;
#293 = CARTESIAN_POINT ( 'NONE',  ( 0.0000000000000000000, 0.0000000000000000000, 1.500000000000000222 ) ) ;
#294 = AXIS2_PLACEMENT_3D ( 'NONE', #327, #297, #56 ) ;
#295 = DIRECTION ( 'NONE',  ( -1.000000000000000000, 0.0000000000000000000, 0.0000000000000000000 ) ) ;
#296 = LINE ( 'NONE', #26, #163 ) ;
#297 = DIRECTION ( 'NONE',  ( -1.224646799147353700E-16, -0.0000000000000000000, -1.000000000000000000 ) ) ;
#298 = CARTESIAN_POINT ( 'NONE',  ( 1.224646799147353770E-18, 0.0000000000000000000, 0.0000000000000000000 ) ) ;
#299 = CIRCLE ( 'NONE', #202, 0.04750000000000064587 ) ;
#300 = DIRECTION ( 'NONE',  ( -0.0000000000000000000, -0.0000000000000000000, -1.000000000000000000 ) ) ;
#301 =( LENGTH_UNIT ( ) NAMED_UNIT ( * ) SI_UNIT ( $, .METRE. ) );
#302 = ORIENTED_EDGE ( 'NONE', *, *, #304, .F. ) ;
#303 = CARTESIAN_POINT ( 'NONE',  ( 0.0000000000000000000, 0.0000000000000000000, 0.0000000000000000000 ) ) ;
#304 = EDGE_CURVE ( 'NONE', #252, #159, #180, .T. ) ;
#305 = ORIENTED_EDGE ( 'NONE', *, *, #267, .F. ) ;
#306 =( CONVERSION_BASED_UNIT ( 'INCH', #195 ) LENGTH_UNIT ( ) NAMED_UNIT ( #34 ) );
#307 = ORIENTED_EDGE ( 'NONE', *, *, #350, .F. ) ;
#308 = PRESENTATION_STYLE_ASSIGNMENT (( #13 ) ) ;
#309 = ORIENTED_EDGE ( 'NONE', *, *, #214, .F. ) ;
#310 = AXIS2_PLACEMENT_3D ( 'NONE', #222, #200, #137 ) ;
#311 = EDGE_CURVE ( 'NONE', #7, #341, #4, .T. ) ;
#312 = APPLICATION_CONTEXT ( 'automotive_design' ) ;
#313 = DIRECTION ( 'NONE',  ( 1.000000000000000000, 0.0000000000000000000, 0.0000000000000000000 ) ) ;
#314 = LINE ( 'NONE', #199, #290 ) ;
#315 = DIRECTION ( 'NONE',  ( -1.224646799147353700E-16, -0.0000000000000000000, -1.000000000000000000 ) ) ;
#316 = DIRECTION ( 'NONE',  ( 1.000000000000000000, 0.0000000000000000000, -0.0000000000000000000 ) ) ;
#317 = AXIS2_PLACEMENT_3D ( 'NONE', #119, #349, #266 ) ;
#318 = PRODUCT ( 'Micro_GEC-062-4-010X', 'Micro_GEC-062-4-010X', '', ( #85 ) ) ;
#319 = AXIS2_PLACEMENT_3D ( 'NONE', #154, #212, #325 ) ;
#320 = CARTESIAN_POINT ( 'NONE',  ( 0.0000000000000000000, 0.0000000000000000000, 1.500000000000000222 ) ) ;
#321 = FACE_OUTER_BOUND ( 'NONE', #108, .T. ) ;
#322 = EDGE_CURVE ( 'NONE', #12, #44, #31, .T. ) ;
#323 = CARTESIAN_POINT ( 'NONE',  ( 0.0000000000000000000, 0.0000000000000000000, 1.500000000000000222 ) ) ;
#324 = DIRECTION ( 'NONE',  ( 1.000000000000000000, 0.0000000000000000000, 0.0000000000000000000 ) ) ;
#325 = DIRECTION ( 'NONE',  ( 0.0000000000000000000, 0.0000000000000000000, -1.000000000000000000 ) ) ;
#326 = EDGE_CURVE ( 'NONE', #278, #79, #283, .T. ) ;
#327 = CARTESIAN_POINT ( 'NONE',  ( 0.0000000000000000000, 0.0000000000000000000, 0.0000000000000000000 ) ) ;
#328 = AXIS2_PLACEMENT_3D ( 'NONE', #69, #210, #107 ) ;
#329 = FACE_OUTER_BOUND ( 'NONE', #57, .T. ) ;
#330 = DIRECTION ( 'NONE',  ( 1.000000000000000000, 0.0000000000000000000, 0.0000000000000000000 ) ) ;
#331 = STYLED_ITEM ( 'NONE', ( #308 ), #14 ) ;
#332 = DIRECTION ( 'NONE',  ( 0.0000000000000000000, 0.0000000000000000000, 1.000000000000000000 ) ) ;
#333 = AXIS2_PLACEMENT_3D ( 'NONE', #323, #47, #50 ) ;
#334 = CIRCLE ( 'NONE', #219, 0.06250000000000002776 ) ;
#335 = EDGE_LOOP ( 'NONE', ( #162, #90, #220, #87 ) ) ;
#336 = CARTESIAN_POINT ( 'NONE',  ( 1.224646799147353770E-18, 0.0000000000000000000, 0.01000000000000000021 ) ) ;
#337 = ORIENTED_EDGE ( 'NONE', *, *, #228, .T. ) ;
#338 = APPLICATION_PROTOCOL_DEFINITION ( 'draft international standard', 'automotive_design', 1998, #312 ) ;
#339 = ORIENTED_EDGE ( 'NONE', *, *, #24, .T. ) ;
#340 = VECTOR ( 'NONE', #5, 39.37007874015747433 ) ;
#341 = VERTEX_POINT ( 'NONE', #63 ) ;
#342 = VERTEX_POINT ( 'NONE', #115 ) ;
#343 = EDGE_LOOP ( 'NONE', ( #337, #339, #282, #248 ) ) ;
#344 = DIRECTION ( 'NONE',  ( 1.000000000000000000, 0.0000000000000000000, 0.0000000000000000000 ) ) ;
#345 = CONICAL_SURFACE ( 'NONE', #29, 0.04750000000000064587, 0.7853981633974466137 ) ;
#346 = CIRCLE ( 'NONE', #40, 0.03121875000000000691 ) ;
#347 = PRODUCT_DEFINITION_SHAPE ( 'NONE', 'NONE',  #181 ) ;
#348 = SURFACE_STYLE_FILL_AREA ( #230 ) ;
#349 = DIRECTION ( 'NONE',  ( -1.224646799147353700E-16, -0.0000000000000000000, -1.000000000000000000 ) ) ;
#350 = EDGE_CURVE ( 'NONE', #272, #192, #173, .T. ) ;
#351 = CARTESIAN_POINT ( 'NONE',  ( 2.302335982397025094E-17, 0.0000000000000000000, 0.1880000000000000282 ) ) ;
ENDSEC;
END-ISO-10303-21;
