ISO-10303-21;
HEADER;
FILE_DESCRIPTION (( 'STEP AP214' ),
    '1' );
FILE_NAME ('59633.STEP',
    '2023-07-24T15:17:28',
    ( '' ),
    ( '' ),
    'SwSTEP 2.0',
    'SolidWorks 2023',
    '' );
FILE_SCHEMA (( 'AUTOMOTIVE_DESIGN' ));
ENDSEC;

DATA;
#1 = AXIS2_PLACEMENT_3D ( 'NONE', #213, #95, #139 ) ;
#2 = ADVANCED_FACE ( 'NONE', ( #295 ), #159, .T. ) ;
#3 = DIRECTION ( 'NONE',  ( 0.000000000000000000, -1.000000000000000000, -0.000000000000000000 ) ) ;
#4 = ORIENTED_EDGE ( 'NONE', *, *, #38, .T. ) ;
#5 = DIRECTION ( 'NONE',  ( -0.000000000000000000, -1.000000000000000000, -0.000000000000000000 ) ) ;
#6 = ORIENTED_EDGE ( 'NONE', *, *, #286, .F. ) ;
#7 = ADVANCED_FACE ( 'NONE', ( #241 ), #356, .T. ) ;
#8 =( NAMED_UNIT ( * ) PLANE_ANGLE_UNIT ( ) SI_UNIT ( $, .RADIAN. ) );
#9 = CARTESIAN_POINT ( 'NONE',  ( 1.469576158976823750E-15, 63.00000000000000000, 0.000000000000000000 ) ) ;
#10 = UNCERTAINTY_MEASURE_WITH_UNIT (LENGTH_MEASURE( 1.000000000000000082E-05 ), #248, 'distance_accuracy_value', 'NONE');
#11 = CIRCLE ( 'NONE', #259, 2.500000000000000000 ) ;
#12 = SURFACE_SIDE_STYLE ('',( #245 ) ) ;
#13 = SURFACE_STYLE_USAGE ( .BOTH. , #210 ) ;
#14 = DIRECTION ( 'NONE',  ( -1.000000000000000000, 0.000000000000000000, 0.000000000000000000 ) ) ;
#15 = CARTESIAN_POINT ( 'NONE',  ( 3.673940397442059868E-16, 0.5000000000000000000, 3.000000000000000000 ) ) ;
#16 = CARTESIAN_POINT ( 'NONE',  ( 0.000000000000000000, 9.000000000000000000, 0.000000000000000000 ) ) ;
#17 = FILL_AREA_STYLE_COLOUR ( '', #343 ) ;
#18 = EDGE_CURVE ( 'NONE', #106, #31, #148, .T. ) ;
#19 = SURFACE_SIDE_STYLE ('',( #276 ) ) ;
#20 = STYLED_ITEM ( 'NONE', ( #233 ), #127 ) ;
#21 =( NAMED_UNIT ( * ) PLANE_ANGLE_UNIT ( ) SI_UNIT ( $, .RADIAN. ) );
#22 = MECHANICAL_DESIGN_GEOMETRIC_PRESENTATION_REPRESENTATION (  '', ( #74 ), #220 ) ;
#23 = CARTESIAN_POINT ( 'NONE',  ( 3.000000000000000888, 9.000000000000001776, 3.673940397442056910E-16 ) ) ;
#24 = FILL_AREA_STYLE ('',( #244 ) ) ;
#25 = FILL_AREA_STYLE_COLOUR ( '', #227 ) ;
#26 = VECTOR ( 'NONE', #324, 1000.000000000000000 ) ;
#27 = MANIFOLD_SOLID_BREP ( 'Revolve - Tool Body (Straight Shanked)', #345 ) ;
#28 = AXIS2_PLACEMENT_3D ( 'NONE', #56, #256, #284 ) ;
#29 = DIRECTION ( 'NONE',  ( -1.000000000000000000, 0.000000000000000000, 0.000000000000000000 ) ) ;
#30 = ADVANCED_FACE ( 'NONE', ( #137 ), #175, .T. ) ;
#31 = VERTEX_POINT ( 'NONE', #23 ) ;
#32 = CARTESIAN_POINT ( 'NONE',  ( 0.000000000000000000, 0.5000000000000000000, 0.000000000000000000 ) ) ;
#33 = CIRCLE ( 'NONE', #247, 0.5000000000000000000 ) ;
#34 = AXIS2_PLACEMENT_3D ( 'NONE', #9, #165, #42 ) ;
#35 = MECHANICAL_DESIGN_GEOMETRIC_PRESENTATION_REPRESENTATION (  '', ( #362 ), #179 ) ;
#36 = VERTEX_POINT ( 'NONE', #358 ) ;
#37 =( NAMED_UNIT ( * ) PLANE_ANGLE_UNIT ( ) SI_UNIT ( $, .RADIAN. ) );
#38 = EDGE_CURVE ( 'NONE', #31, #142, #219, .T. ) ;
#39 = VERTEX_POINT ( 'NONE', #338 ) ;
#40 = VERTEX_POINT ( 'NONE', #79 ) ;
#41 = DIRECTION ( 'NONE',  ( -0.000000000000000000, -1.000000000000000000, -0.000000000000000000 ) ) ;
#42 = DIRECTION ( 'NONE',  ( -1.000000000000000000, 0.000000000000000000, 0.000000000000000000 ) ) ;
#43 = CARTESIAN_POINT ( 'NONE',  ( 0.000000000000000000, 9.000000000000000000, 0.000000000000000000 ) ) ;
#44 = UNCERTAINTY_MEASURE_WITH_UNIT (LENGTH_MEASURE( 1.000000000000000082E-05 ), #216, 'distance_accuracy_value', 'NONE');
#45 = PRESENTATION_STYLE_ASSIGNMENT (( #129 ) ) ;
#46 = VECTOR ( 'NONE', #170, 1000.000000000000000 ) ;
#47 = ADVANCED_FACE ( 'NONE', ( #105 ), #143, .F. ) ;
#48 = ORIENTED_EDGE ( 'NONE', *, *, #18, .F. ) ;
#49 = CYLINDRICAL_SURFACE ( 'NONE', #110, 3.000000000000000000 ) ;
#50 = FILL_AREA_STYLE_COLOUR ( '', #262 ) ;
#51 = PRESENTATION_STYLE_ASSIGNMENT (( #308 ) ) ;
#52 = SURFACE_SIDE_STYLE ('',( #299 ) ) ;
#53 = CARTESIAN_POINT ( 'NONE',  ( 0.000000000000000000, 9.000000000000000000, -3.000000000000000000 ) ) ;
#54 = CARTESIAN_POINT ( 'NONE',  ( 3.000000000000000000, 63.00000000000000000, 0.000000000000000000 ) ) ;
#55 = APPLICATION_PROTOCOL_DEFINITION ( 'draft international standard', 'automotive_design', 1998, #313 ) ;
#56 = CARTESIAN_POINT ( 'NONE',  ( 1.469576158976823750E-15, 63.00000000000000000, 0.000000000000000000 ) ) ;
#57 = CIRCLE ( 'NONE', #201, 3.000000000000000000 ) ;
#58 = PRODUCT_RELATED_PRODUCT_CATEGORY ( 'part', '', ( #209 ) ) ;
#59 = EDGE_LOOP ( 'NONE', ( #203, #184 ) ) ;
#60 = SURFACE_SIDE_STYLE ('',( #120 ) ) ;
#61 = ORIENTED_EDGE ( 'NONE', *, *, #264, .T. ) ;
#62 =( GEOMETRIC_REPRESENTATION_CONTEXT ( 3 ) GLOBAL_UNCERTAINTY_ASSIGNED_CONTEXT ( ( #136 ) ) GLOBAL_UNIT_ASSIGNED_CONTEXT ( ( #134, #21, #215 ) ) REPRESENTATION_CONTEXT ( 'NONE', 'WORKASPACE' ) );
#63 = EDGE_CURVE ( 'NONE', #31, #106, #235, .T. ) ;
#64 = ORIENTED_EDGE ( 'NONE', *, *, #89, .T. ) ;
#65 = ORIENTED_EDGE ( 'NONE', *, *, #173, .F. ) ;
#66 = DIRECTION ( 'NONE',  ( -1.224646799147353454E-16, 0.000000000000000000, -1.000000000000000000 ) ) ;
#67 = VERTEX_POINT ( 'NONE', #53 ) ;
#68 =( NAMED_UNIT ( * ) PLANE_ANGLE_UNIT ( ) SI_UNIT ( $, .RADIAN. ) );
#69 =( GEOMETRIC_REPRESENTATION_CONTEXT ( 3 ) GLOBAL_UNCERTAINTY_ASSIGNED_CONTEXT ( ( #271 ) ) GLOBAL_UNIT_ASSIGNED_CONTEXT ( ( #82, #37, #327 ) ) REPRESENTATION_CONTEXT ( 'NONE', 'WORKASPACE' ) );
#70 = DIRECTION ( 'NONE',  ( 0.000000000000000000, 0.000000000000000000, -1.000000000000000000 ) ) ;
#71 = UNCERTAINTY_MEASURE_WITH_UNIT (LENGTH_MEASURE( 1.000000000000000082E-05 ), #135, 'distance_accuracy_value', 'NONE');
#72 = AXIS2_PLACEMENT_3D ( 'NONE', #341, #81, #14 ) ;
#73 = PRESENTATION_STYLE_ASSIGNMENT (( #167 ) ) ;
#74 = STYLED_ITEM ( 'NONE', ( #45 ), #27 ) ;
#75 = MECHANICAL_DESIGN_GEOMETRIC_PRESENTATION_REPRESENTATION (  '', ( #20 ), #69 ) ;
#76 = DIRECTION ( 'NONE',  ( 0.000000000000000000, 0.000000000000000000, -1.000000000000000000 ) ) ;
#77 = VERTEX_POINT ( 'NONE', #282 ) ;
#78 = DIRECTION ( 'NONE',  ( 0.000000000000000000, 0.000000000000000000, -1.000000000000000000 ) ) ;
#79 = CARTESIAN_POINT ( 'NONE',  ( 3.673940397442059868E-16, 9.000000000000000000, 3.000000000000000000 ) ) ;
#80 = EDGE_CURVE ( 'NONE', #106, #181, #97, .T. ) ;
#81 = DIRECTION ( 'NONE',  ( -1.213614799521464586E-16, 1.000000000000000000, -0.000000000000000000 ) ) ;
#82 =( LENGTH_UNIT ( ) NAMED_UNIT ( * ) SI_UNIT ( .MILLI., .METRE. ) );
#83 =( NAMED_UNIT ( * ) SI_UNIT ( $, .STERADIAN. ) SOLID_ANGLE_UNIT ( ) );
#84 = PRODUCT_DEFINITION_CONTEXT ( 'detailed design', #313, 'design' ) ;
#85 = FILL_AREA_STYLE_COLOUR ( '', #268 ) ;
#86 = AXIS2_PLACEMENT_3D ( 'NONE', #266, #176, #365 ) ;
#87 = FILL_AREA_STYLE ('',( #85 ) ) ;
#88 = ORIENTED_EDGE ( 'NONE', *, *, #286, .T. ) ;
#89 = EDGE_CURVE ( 'NONE', #40, #67, #154, .T. ) ;
#90 = ORIENTED_EDGE ( 'NONE', *, *, #224, .T. ) ;
#91 = COLOUR_RGB ( '',1.000000000000000000, 0.000000000000000000, 0.000000000000000000 ) ;
#92 = FILL_AREA_STYLE ('',( #94 ) ) ;
#93 = DIRECTION ( 'NONE',  ( -0.000000000000000000, -1.000000000000000000, -0.000000000000000000 ) ) ;
#94 = FILL_AREA_STYLE_COLOUR ( '', #91 ) ;
#95 = DIRECTION ( 'NONE',  ( -1.213614799521464586E-16, 1.000000000000000000, -0.000000000000000000 ) ) ;
#96 = FACE_OUTER_BOUND ( 'NONE', #316, .T. ) ;
#97 = LINE ( 'NONE', #251, #332 ) ;
#98 = EDGE_LOOP ( 'NONE', ( #211, #260, #348, #225 ) ) ;
#99 = CARTESIAN_POINT ( 'NONE',  ( 0.000000000000000000, 0.000000000000000000, 0.000000000000000000 ) ) ;
#100 = AXIS2_PLACEMENT_3D ( 'NONE', #250, #197, #364 ) ;
#101 = ORIENTED_EDGE ( 'NONE', *, *, #114, .T. ) ;
#102 = DIRECTION ( 'NONE',  ( -1.000000000000000000, 0.000000000000000000, 0.000000000000000000 ) ) ;
#103 = DIRECTION ( 'NONE',  ( -0.000000000000000000, -1.000000000000000000, -0.000000000000000000 ) ) ;
#104 = ORIENTED_EDGE ( 'NONE', *, *, #205, .F. ) ;
#105 = FACE_OUTER_BOUND ( 'NONE', #115, .T. ) ;
#106 = VERTEX_POINT ( 'NONE', #297 ) ;
#107 = DIRECTION ( 'NONE',  ( 1.000000000000000000, 1.213614799521464586E-16, 0.000000000000000000 ) ) ;
#108 = CARTESIAN_POINT ( 'NONE',  ( 0.000000000000000000, 9.000000000000000000, 0.000000000000000000 ) ) ;
#109 = STYLED_ITEM ( 'NONE', ( #304 ), #339 ) ;
#110 = AXIS2_PLACEMENT_3D ( 'NONE', #186, #294, #70 ) ;
#111 = TOROIDAL_SURFACE ( 'NONE', #149, 2.500000000000000000, 0.5000000000000000000 ) ;
#112 = ORIENTED_EDGE ( 'NONE', *, *, #89, .F. ) ;
#113 = FACE_OUTER_BOUND ( 'NONE', #287, .T. ) ;
#114 = EDGE_CURVE ( 'NONE', #67, #40, #146, .T. ) ;
#115 = EDGE_LOOP ( 'NONE', ( #48, #292 ) ) ;
#116 = STYLED_ITEM ( 'NONE', ( #274 ), #293 ) ;
#117 = PRESENTATION_LAYER_ASSIGNMENT (  '', '', ( #261 ) ) ;
#118 = ADVANCED_FACE ( 'NONE', ( #199 ), #150, .T. ) ;
#119 = ORIENTED_EDGE ( 'NONE', *, *, #18, .T. ) ;
#120 = SURFACE_STYLE_FILL_AREA ( #87 ) ;
#121 = CARTESIAN_POINT ( 'NONE',  ( 3.061616997868383141E-16, 0.5000000000000000000, 2.500000000000000000 ) ) ;
#122 = AXIS2_PLACEMENT_3D ( 'NONE', #99, #103, #243 ) ;
#123 =( GEOMETRIC_REPRESENTATION_CONTEXT ( 3 ) GLOBAL_UNCERTAINTY_ASSIGNED_CONTEXT ( ( #302 ) ) GLOBAL_UNIT_ASSIGNED_CONTEXT ( ( #275, #68, #156 ) ) REPRESENTATION_CONTEXT ( 'NONE', 'WORKASPACE' ) );
#124 = PRESENTATION_LAYER_ASSIGNMENT (  '', '', ( #74 ) ) ;
#125 = PRODUCT_DEFINITION_SHAPE ( 'NONE', 'NONE',  #144 ) ;
#126 = CARTESIAN_POINT ( 'NONE',  ( 0.000000000000000000, 0.5000000000000000000, 0.000000000000000000 ) ) ;
#127 = ADVANCED_FACE ( 'NONE', ( #113 ), #369, .T. ) ;
#128 = FACE_OUTER_BOUND ( 'NONE', #59, .T. ) ;
#129 = SURFACE_STYLE_USAGE ( .BOTH. , #19 ) ;
#130 = DIRECTION ( 'NONE',  ( 0.000000000000000000, 0.000000000000000000, -1.000000000000000000 ) ) ;
#131 = FILL_AREA_STYLE ('',( #17 ) ) ;
#132 = CIRCLE ( 'NONE', #192, 3.000000000000000000 ) ;
#133 = FILL_AREA_STYLE_COLOUR ( '', #315 ) ;
#134 =( LENGTH_UNIT ( ) NAMED_UNIT ( * ) SI_UNIT ( .MILLI., .METRE. ) );
#135 =( LENGTH_UNIT ( ) NAMED_UNIT ( * ) SI_UNIT ( .MILLI., .METRE. ) );
#136 = UNCERTAINTY_MEASURE_WITH_UNIT (LENGTH_MEASURE( 1.000000000000000082E-05 ), #134, 'distance_accuracy_value', 'NONE');
#137 = FACE_OUTER_BOUND ( 'NONE', #208, .T. ) ;
#138 = SURFACE_STYLE_FILL_AREA ( #92 ) ;
#139 = DIRECTION ( 'NONE',  ( -1.000000000000000000, 0.000000000000000000, 0.000000000000000000 ) ) ;
#140 = PRESENTATION_LAYER_ASSIGNMENT (  '', '', ( #298 ) ) ;
#141 = PRODUCT_DEFINITION_FORMATION_WITH_SPECIFIED_SOURCE ( 'ANY', '', #209, .NOT_KNOWN. ) ;
#142 = VERTEX_POINT ( 'NONE', #290 ) ;
#143 = PLANE ( 'NONE',  #100 ) ;
#144 = PRODUCT_DEFINITION ( 'UNKNOWN', '', #141, #84 ) ;
#145 = EDGE_LOOP ( 'NONE', ( #319, #232, #230, #255 ) ) ;
#146 = CIRCLE ( 'NONE', #177, 3.000000000000000000 ) ;
#147 =( GEOMETRIC_REPRESENTATION_CONTEXT ( 3 ) GLOBAL_UNCERTAINTY_ASSIGNED_CONTEXT ( ( #71 ) ) GLOBAL_UNIT_ASSIGNED_CONTEXT ( ( #135, #357, #169 ) ) REPRESENTATION_CONTEXT ( 'NONE', 'WORKASPACE' ) );
#148 = CIRCLE ( 'NONE', #212, 2.999999999999992450 ) ;
#149 = AXIS2_PLACEMENT_3D ( 'NONE', #361, #296, #76 ) ;
#150 = CYLINDRICAL_SURFACE ( 'NONE', #28, 2.999999999999995559 ) ;
#151 = EDGE_LOOP ( 'NONE', ( #119, #4, #65, #183 ) ) ;
#152 = EDGE_LOOP ( 'NONE', ( #153, #112 ) ) ;
#153 = ORIENTED_EDGE ( 'NONE', *, *, #114, .F. ) ;
#154 = CIRCLE ( 'NONE', #321, 3.000000000000000000 ) ;
#155 = COLOUR_RGB ( '',1.000000000000000000, 0.000000000000000000, 0.000000000000000000 ) ;
#156 =( NAMED_UNIT ( * ) SI_UNIT ( $, .STERADIAN. ) SOLID_ANGLE_UNIT ( ) );
#157 = CARTESIAN_POINT ( 'NONE',  ( 0.000000000000000000, 0.000000000000000000, 0.000000000000000000 ) ) ;
#158 = FACE_OUTER_BOUND ( 'NONE', #145, .T. ) ;
#159 = CYLINDRICAL_SURFACE ( 'NONE', #1, 2.999999999999995559 ) ;
#160 = DIRECTION ( 'NONE',  ( 0.000000000000000000, 0.000000000000000000, 1.000000000000000000 ) ) ;
#161 = MECHANICAL_DESIGN_GEOMETRIC_PRESENTATION_REPRESENTATION (  '', ( #116 ), #270 ) ;
#162 = DIRECTION ( 'NONE',  ( -0.000000000000000000, -1.000000000000000000, -0.000000000000000000 ) ) ;
#163 = PRESENTATION_LAYER_ASSIGNMENT (  '', '', ( #180 ) ) ;
#164 = CIRCLE ( 'NONE', #191, 0.5000000000000000000 ) ;
#165 = DIRECTION ( 'NONE',  ( -1.213614799521464586E-16, 1.000000000000000000, -0.000000000000000000 ) ) ;
#166 = UNCERTAINTY_MEASURE_WITH_UNIT (LENGTH_MEASURE( 1.000000000000000082E-05 ), #310, 'distance_accuracy_value', 'NONE');
#167 = SURFACE_STYLE_USAGE ( .BOTH. , #336 ) ;
#168 = FILL_AREA_STYLE_COLOUR ( '', #231 ) ;
#169 =( NAMED_UNIT ( * ) SI_UNIT ( $, .STERADIAN. ) SOLID_ANGLE_UNIT ( ) );
#170 = DIRECTION ( 'NONE',  ( -1.213614799521464586E-16, 1.000000000000000000, -0.000000000000000000 ) ) ;
#171 = FILL_AREA_STYLE ('',( #50 ) ) ;
#172 = DIRECTION ( 'NONE',  ( 0.000000000000000000, 0.000000000000000000, -1.000000000000000000 ) ) ;
#173 = EDGE_CURVE ( 'NONE', #181, #142, #278, .T. ) ;
#174 = AXIS2_PLACEMENT_3D ( 'NONE', #54, #229, #107 ) ;
#175 = CYLINDRICAL_SURFACE ( 'NONE', #122, 3.000000000000000000 ) ;
#176 = DIRECTION ( 'NONE',  ( -0.000000000000000000, -1.000000000000000000, -0.000000000000000000 ) ) ;
#177 = AXIS2_PLACEMENT_3D ( 'NONE', #43, #162, #269 ) ;
#178 = ADVANCED_BREP_SHAPE_REPRESENTATION ( '59633', ( #283, #27, #326 ), #325 ) ;
#179 =( GEOMETRIC_REPRESENTATION_CONTEXT ( 3 ) GLOBAL_UNCERTAINTY_ASSIGNED_CONTEXT ( ( #44 ) ) GLOBAL_UNIT_ASSIGNED_CONTEXT ( ( #216, #272, #307 ) ) REPRESENTATION_CONTEXT ( 'NONE', 'WORKASPACE' ) );
#180 = STYLED_ITEM ( 'NONE', ( #73 ), #7 ) ;
#181 = VERTEX_POINT ( 'NONE', #182 ) ;
#182 = CARTESIAN_POINT ( 'NONE',  ( -2.999999999999997335, 63.00000000000000000, 0.000000000000000000 ) ) ;
#183 = ORIENTED_EDGE ( 'NONE', *, *, #80, .F. ) ;
#184 = ORIENTED_EDGE ( 'NONE', *, *, #350, .T. ) ;
#185 = AXIS2_PLACEMENT_3D ( 'NONE', #206, #288, #29 ) ;
#186 = CARTESIAN_POINT ( 'NONE',  ( 0.000000000000000000, 0.000000000000000000, 0.000000000000000000 ) ) ;
#187 = CARTESIAN_POINT ( 'NONE',  ( 0.000000000000000000, 0.000000000000000000, 0.000000000000000000 ) ) ;
#188 = LINE ( 'NONE', #242, #26 ) ;
#189 = ORIENTED_EDGE ( 'NONE', *, *, #198, .F. ) ;
#190 = SURFACE_SIDE_STYLE ('',( #239 ) ) ;
#191 = AXIS2_PLACEMENT_3D ( 'NONE', #121, #322, #66 ) ;
#192 = AXIS2_PLACEMENT_3D ( 'NONE', #126, #236, #78 ) ;
#193 = ORIENTED_EDGE ( 'NONE', *, *, #317, .T. ) ;
#194 = DIRECTION ( 'NONE',  ( -0.000000000000000000, -1.000000000000000000, -0.000000000000000000 ) ) ;
#195 = DIRECTION ( 'NONE',  ( 1.000000000000000000, 0.000000000000000000, 0.000000000000000000 ) ) ;
#196 = SURFACE_SIDE_STYLE ('',( #279 ) ) ;
#197 = DIRECTION ( 'NONE',  ( -1.213614799521464586E-16, 1.000000000000000000, 0.000000000000000000 ) ) ;
#198 = EDGE_CURVE ( 'NONE', #36, #289, #57, .T. ) ;
#199 = FACE_OUTER_BOUND ( 'NONE', #98, .T. ) ;
#200 = CARTESIAN_POINT ( 'NONE',  ( 0.000000000000000000, 0.000000000000000000, 0.000000000000000000 ) ) ;
#201 = AXIS2_PLACEMENT_3D ( 'NONE', #32, #5, #258 ) ;
#202 = MECHANICAL_DESIGN_GEOMETRIC_PRESENTATION_REPRESENTATION (  '', ( #261 ), #147 ) ;
#203 = ORIENTED_EDGE ( 'NONE', *, *, #173, .T. ) ;
#204 = PRESENTATION_LAYER_ASSIGNMENT (  '', '', ( #362 ) ) ;
#205 = EDGE_CURVE ( 'NONE', #289, #77, #164, .T. ) ;
#206 = CARTESIAN_POINT ( 'NONE',  ( 1.469576158976823750E-15, 63.00000000000000000, 0.000000000000000000 ) ) ;
#207 = AXIS2_PLACEMENT_3D ( 'NONE', #217, #93, #223 ) ;
#208 = EDGE_LOOP ( 'NONE', ( #253, #64, #193, #346 ) ) ;
#209 = PRODUCT ( '59633', '59633', '', ( #347 ) ) ;
#210 = SURFACE_SIDE_STYLE ('',( #138 ) ) ;
#211 = ORIENTED_EDGE ( 'NONE', *, *, #38, .F. ) ;
#212 = AXIS2_PLACEMENT_3D ( 'NONE', #340, #305, #246 ) ;
#213 = CARTESIAN_POINT ( 'NONE',  ( 1.469576158976823750E-15, 63.00000000000000000, 0.000000000000000000 ) ) ;
#214 = SURFACE_STYLE_USAGE ( .BOTH. , #52 ) ;
#215 =( NAMED_UNIT ( * ) SI_UNIT ( $, .STERADIAN. ) SOLID_ANGLE_UNIT ( ) );
#216 =( LENGTH_UNIT ( ) NAMED_UNIT ( * ) SI_UNIT ( .MILLI., .METRE. ) );
#217 = CARTESIAN_POINT ( 'NONE',  ( 0.000000000000000000, 0.000000000000000000, 0.000000000000000000 ) ) ;
#218 = AXIS2_PLACEMENT_3D ( 'NONE', #157, #3, #130 ) ;
#219 = LINE ( 'NONE', #335, #46 ) ;
#220 =( GEOMETRIC_REPRESENTATION_CONTEXT ( 3 ) GLOBAL_UNCERTAINTY_ASSIGNED_CONTEXT ( ( #10 ) ) GLOBAL_UNIT_ASSIGNED_CONTEXT ( ( #248, #238, #328 ) ) REPRESENTATION_CONTEXT ( 'NONE', 'WORKASPACE' ) );
#221 = ORIENTED_EDGE ( 'NONE', *, *, #257, .T. ) ;
#222 = DIRECTION ( 'NONE',  ( 0.000000000000000000, -0.000000000000000000, 1.000000000000000000 ) ) ;
#223 = DIRECTION ( 'NONE',  ( 0.000000000000000000, 0.000000000000000000, -1.000000000000000000 ) ) ;
#224 = EDGE_CURVE ( 'NONE', #289, #36, #132, .T. ) ;
#225 = ORIENTED_EDGE ( 'NONE', *, *, #350, .F. ) ;
#226 = DIRECTION ( 'NONE',  ( -0.000000000000000000, -1.000000000000000000, -0.000000000000000000 ) ) ;
#227 = COLOUR_RGB ( '',0.7921568627450980005, 0.8196078431372548767, 0.9333333333333333481 ) ;
#228 = MECHANICAL_DESIGN_GEOMETRIC_PRESENTATION_REPRESENTATION (  '', ( #180 ), #320 ) ;
#229 = DIRECTION ( 'NONE',  ( 1.213614799521464586E-16, -1.000000000000000000, 0.000000000000000000 ) ) ;
#230 = ORIENTED_EDGE ( 'NONE', *, *, #257, .F. ) ;
#231 = COLOUR_RGB ( '',1.000000000000000000, 0.000000000000000000, 0.000000000000000000 ) ;
#232 = ORIENTED_EDGE ( 'NONE', *, *, #205, .T. ) ;
#233 = PRESENTATION_STYLE_ASSIGNMENT (( #318 ) ) ;
#234 = AXIS2_PLACEMENT_3D ( 'NONE', #16, #330, #222 ) ;
#235 = CIRCLE ( 'NONE', #72, 2.999999999999992450 ) ;
#236 = DIRECTION ( 'NONE',  ( -0.000000000000000000, -1.000000000000000000, -0.000000000000000000 ) ) ;
#237 = EDGE_CURVE ( 'NONE', #40, #289, #249, .T. ) ;
#238 =( NAMED_UNIT ( * ) PLANE_ANGLE_UNIT ( ) SI_UNIT ( $, .RADIAN. ) );
#239 = SURFACE_STYLE_FILL_AREA ( #131 ) ;
#240 = CLOSED_SHELL ( 'NONE', ( #339, #353, #127, #293, #30, #7 ) ) ;
#241 = FACE_OUTER_BOUND ( 'NONE', #152, .T. ) ;
#242 = CARTESIAN_POINT ( 'NONE',  ( 0.000000000000000000, 0.000000000000000000, -3.000000000000000000 ) ) ;
#243 = DIRECTION ( 'NONE',  ( 0.000000000000000000, 0.000000000000000000, -1.000000000000000000 ) ) ;
#244 = FILL_AREA_STYLE_COLOUR ( '', #155 ) ;
#245 = SURFACE_STYLE_FILL_AREA ( #277 ) ;
#246 = DIRECTION ( 'NONE',  ( -1.000000000000000000, 0.000000000000000000, 0.000000000000000000 ) ) ;
#247 = AXIS2_PLACEMENT_3D ( 'NONE', #337, #102, #160 ) ;
#248 =( LENGTH_UNIT ( ) NAMED_UNIT ( * ) SI_UNIT ( .MILLI., .METRE. ) );
#249 = LINE ( 'NONE', #333, #342 ) ;
#250 = CARTESIAN_POINT ( 'NONE',  ( 8.023096076392732812E-15, 9.000000000000000000, 0.000000000000000000 ) ) ;
#251 = CARTESIAN_POINT ( 'NONE',  ( -2.999999999999994227, 63.00000000000000000, 0.000000000000000000 ) ) ;
#252 = PRESENTATION_LAYER_ASSIGNMENT (  '', '', ( #20 ) ) ;
#253 = ORIENTED_EDGE ( 'NONE', *, *, #237, .F. ) ;
#254 = PLANE ( 'NONE',  #174 ) ;
#255 = ORIENTED_EDGE ( 'NONE', *, *, #264, .F. ) ;
#256 = DIRECTION ( 'NONE',  ( -1.213614799521464586E-16, 1.000000000000000000, -0.000000000000000000 ) ) ;
#257 = EDGE_CURVE ( 'NONE', #39, #77, #11, .T. ) ;
#258 = DIRECTION ( 'NONE',  ( 0.000000000000000000, 0.000000000000000000, -1.000000000000000000 ) ) ;
#259 = AXIS2_PLACEMENT_3D ( 'NONE', #187, #194, #172 ) ;
#260 = ORIENTED_EDGE ( 'NONE', *, *, #63, .T. ) ;
#261 = STYLED_ITEM ( 'NONE', ( #355 ), #353 ) ;
#262 = COLOUR_RGB ( '',0.7921568627450980005, 0.8196078431372548767, 0.9333333333333333481 ) ;
#263 = SURFACE_STYLE_USAGE ( .BOTH. , #190 ) ;
#264 = EDGE_CURVE ( 'NONE', #36, #39, #33, .T. ) ;
#265 = ORIENTED_EDGE ( 'NONE', *, *, #237, .T. ) ;
#266 = CARTESIAN_POINT ( 'NONE',  ( 0.000000000000000000, 0.5000000000000000000, 0.000000000000000000 ) ) ;
#267 = FILL_AREA_STYLE ('',( #133 ) ) ;
#268 = COLOUR_RGB ( '',1.000000000000000000, 0.000000000000000000, 0.000000000000000000 ) ;
#269 = DIRECTION ( 'NONE',  ( 0.000000000000000000, 0.000000000000000000, -1.000000000000000000 ) ) ;
#270 =( GEOMETRIC_REPRESENTATION_CONTEXT ( 3 ) GLOBAL_UNCERTAINTY_ASSIGNED_CONTEXT ( ( #359 ) ) GLOBAL_UNIT_ASSIGNED_CONTEXT ( ( #280, #300, #334 ) ) REPRESENTATION_CONTEXT ( 'NONE', 'WORKASPACE' ) );
#271 = UNCERTAINTY_MEASURE_WITH_UNIT (LENGTH_MEASURE( 1.000000000000000082E-05 ), #82, 'distance_accuracy_value', 'NONE');
#272 =( NAMED_UNIT ( * ) PLANE_ANGLE_UNIT ( ) SI_UNIT ( $, .RADIAN. ) );
#273 =( LENGTH_UNIT ( ) NAMED_UNIT ( * ) SI_UNIT ( .MILLI., .METRE. ) );
#274 = PRESENTATION_STYLE_ASSIGNMENT (( #214 ) ) ;
#275 =( LENGTH_UNIT ( ) NAMED_UNIT ( * ) SI_UNIT ( .MILLI., .METRE. ) );
#276 = SURFACE_STYLE_FILL_AREA ( #171 ) ;
#277 = FILL_AREA_STYLE ('',( #25 ) ) ;
#278 = CIRCLE ( 'NONE', #185, 2.999999999999998668 ) ;
#279 = SURFACE_STYLE_FILL_AREA ( #24 ) ;
#280 =( LENGTH_UNIT ( ) NAMED_UNIT ( * ) SI_UNIT ( .MILLI., .METRE. ) );
#281 =( NAMED_UNIT ( * ) PLANE_ANGLE_UNIT ( ) SI_UNIT ( $, .RADIAN. ) );
#282 = CARTESIAN_POINT ( 'NONE',  ( 3.367778697655221505E-16, 0.000000000000000000, 2.500000000000000000 ) ) ;
#283 = MANIFOLD_SOLID_BREP ( 'Revolve - Cutting Edge', #240 ) ;
#284 = DIRECTION ( 'NONE',  ( -1.000000000000000000, 0.000000000000000000, 0.000000000000000000 ) ) ;
#285 = CIRCLE ( 'NONE', #207, 2.500000000000000000 ) ;
#286 = EDGE_CURVE ( 'NONE', #77, #39, #285, .T. ) ;
#287 = EDGE_LOOP ( 'NONE', ( #221, #88 ) ) ;
#288 = DIRECTION ( 'NONE',  ( -1.213614799521464586E-16, 1.000000000000000000, -0.000000000000000000 ) ) ;
#289 = VERTEX_POINT ( 'NONE', #15 ) ;
#290 = CARTESIAN_POINT ( 'NONE',  ( 3.000000000000000444, 63.00000000000000000, 3.673940397442056910E-16 ) ) ;
#291 = APPLICATION_CONTEXT ( 'automotive_design' ) ;
#292 = ORIENTED_EDGE ( 'NONE', *, *, #63, .F. ) ;
#293 = ADVANCED_FACE ( 'NONE', ( #331 ), #111, .T. ) ;
#294 = DIRECTION ( 'NONE',  ( -0.000000000000000000, -1.000000000000000000, -0.000000000000000000 ) ) ;
#295 = FACE_OUTER_BOUND ( 'NONE', #151, .T. ) ;
#296 = DIRECTION ( 'NONE',  ( -0.000000000000000000, -1.000000000000000000, -0.000000000000000000 ) ) ;
#297 = CARTESIAN_POINT ( 'NONE',  ( -2.999999999999984457, 9.000000000000001776, 0.000000000000000000 ) ) ;
#298 = STYLED_ITEM ( 'NONE', ( #354 ), #283 ) ;
#299 = SURFACE_STYLE_FILL_AREA ( #309 ) ;
#300 =( NAMED_UNIT ( * ) PLANE_ANGLE_UNIT ( ) SI_UNIT ( $, .RADIAN. ) );
#301 = PRESENTATION_LAYER_ASSIGNMENT (  '', '', ( #109 ) ) ;
#302 = UNCERTAINTY_MEASURE_WITH_UNIT (LENGTH_MEASURE( 1.000000000000000082E-05 ), #275, 'distance_accuracy_value', 'NONE');
#303 = SURFACE_STYLE_FILL_AREA ( #267 ) ;
#304 = PRESENTATION_STYLE_ASSIGNMENT (( #13 ) ) ;
#305 = DIRECTION ( 'NONE',  ( -1.213614799521464586E-16, 1.000000000000000000, -0.000000000000000000 ) ) ;
#306 = SURFACE_STYLE_USAGE ( .BOTH. , #12 ) ;
#307 =( NAMED_UNIT ( * ) SI_UNIT ( $, .STERADIAN. ) SOLID_ANGLE_UNIT ( ) );
#308 = SURFACE_STYLE_USAGE ( .BOTH. , #196 ) ;
#309 = FILL_AREA_STYLE ('',( #168 ) ) ;
#310 =( LENGTH_UNIT ( ) NAMED_UNIT ( * ) SI_UNIT ( .MILLI., .METRE. ) );
#311 = DIRECTION ( 'NONE',  ( 0.000000000000000000, 0.000000000000000000, 1.000000000000000000 ) ) ;
#312 = APPLICATION_PROTOCOL_DEFINITION ( 'draft international standard', 'automotive_design', 1998, #291 ) ;
#313 = APPLICATION_CONTEXT ( 'automotive_design' ) ;
#314 = TOROIDAL_SURFACE ( 'NONE', #86, 2.500000000000000000, 0.5000000000000000000 ) ;
#315 = COLOUR_RGB ( '',1.000000000000000000, 0.000000000000000000, 0.000000000000000000 ) ;
#316 = EDGE_LOOP ( 'NONE', ( #101, #265, #189, #323 ) ) ;
#317 = EDGE_CURVE ( 'NONE', #67, #36, #188, .T. ) ;
#318 = SURFACE_STYLE_USAGE ( .BOTH. , #60 ) ;
#319 = ORIENTED_EDGE ( 'NONE', *, *, #198, .T. ) ;
#320 =( GEOMETRIC_REPRESENTATION_CONTEXT ( 3 ) GLOBAL_UNCERTAINTY_ASSIGNED_CONTEXT ( ( #329 ) ) GLOBAL_UNIT_ASSIGNED_CONTEXT ( ( #273, #8, #360 ) ) REPRESENTATION_CONTEXT ( 'NONE', 'WORKASPACE' ) );
#321 = AXIS2_PLACEMENT_3D ( 'NONE', #108, #226, #344 ) ;
#322 = DIRECTION ( 'NONE',  ( 1.000000000000000000, 0.000000000000000000, -1.224646799147353207E-16 ) ) ;
#323 = ORIENTED_EDGE ( 'NONE', *, *, #317, .F. ) ;
#324 = DIRECTION ( 'NONE',  ( -0.000000000000000000, -1.000000000000000000, -0.000000000000000000 ) ) ;
#325 =( GEOMETRIC_REPRESENTATION_CONTEXT ( 3 ) GLOBAL_UNCERTAINTY_ASSIGNED_CONTEXT ( ( #166 ) ) GLOBAL_UNIT_ASSIGNED_CONTEXT ( ( #310, #281, #83 ) ) REPRESENTATION_CONTEXT ( 'NONE', 'WORKASPACE' ) );
#326 = AXIS2_PLACEMENT_3D ( 'NONE', #200, #311, #195 ) ;
#327 =( NAMED_UNIT ( * ) SI_UNIT ( $, .STERADIAN. ) SOLID_ANGLE_UNIT ( ) );
#328 =( NAMED_UNIT ( * ) SI_UNIT ( $, .STERADIAN. ) SOLID_ANGLE_UNIT ( ) );
#329 = UNCERTAINTY_MEASURE_WITH_UNIT (LENGTH_MEASURE( 1.000000000000000082E-05 ), #273, 'distance_accuracy_value', 'NONE');
#330 = DIRECTION ( 'NONE',  ( 0.000000000000000000, 1.000000000000000000, 0.000000000000000000 ) ) ;
#331 = FACE_OUTER_BOUND ( 'NONE', #351, .T. ) ;
#332 = VECTOR ( 'NONE', #366, 1000.000000000000000 ) ;
#333 = CARTESIAN_POINT ( 'NONE',  ( 3.673940397442059868E-16, 0.000000000000000000, 3.000000000000000000 ) ) ;
#334 =( NAMED_UNIT ( * ) SI_UNIT ( $, .STERADIAN. ) SOLID_ANGLE_UNIT ( ) );
#335 = CARTESIAN_POINT ( 'NONE',  ( 2.999999999999996891, 63.00000000000000000, 3.673940397442054445E-16 ) ) ;
#336 = SURFACE_SIDE_STYLE ('',( #303 ) ) ;
#337 = CARTESIAN_POINT ( 'NONE',  ( 0.000000000000000000, 0.5000000000000000000, -2.500000000000000000 ) ) ;
#338 = CARTESIAN_POINT ( 'NONE',  ( 0.000000000000000000, 0.000000000000000000, -2.500000000000000000 ) ) ;
#339 = ADVANCED_FACE ( 'NONE', ( #96 ), #49, .T. ) ;
#340 = CARTESIAN_POINT ( 'NONE',  ( 8.023096076392732812E-15, 9.000000000000001776, 0.000000000000000000 ) ) ;
#341 = CARTESIAN_POINT ( 'NONE',  ( 8.023096076392732812E-15, 9.000000000000001776, 0.000000000000000000 ) ) ;
#342 = VECTOR ( 'NONE', #41, 1000.000000000000000 ) ;
#343 = COLOUR_RGB ( '',1.000000000000000000, 0.000000000000000000, 0.000000000000000000 ) ;
#344 = DIRECTION ( 'NONE',  ( 0.000000000000000000, 0.000000000000000000, -1.000000000000000000 ) ) ;
#345 = CLOSED_SHELL ( 'NONE', ( #2, #47, #118, #363 ) ) ;
#346 = ORIENTED_EDGE ( 'NONE', *, *, #224, .F. ) ;
#347 = PRODUCT_CONTEXT ( 'NONE', #291, 'mechanical' ) ;
#348 = ORIENTED_EDGE ( 'NONE', *, *, #80, .T. ) ;
#349 = PRESENTATION_LAYER_ASSIGNMENT (  '', '', ( #116 ) ) ;
#350 = EDGE_CURVE ( 'NONE', #142, #181, #352, .T. ) ;
#351 = EDGE_LOOP ( 'NONE', ( #104, #90, #61, #6 ) ) ;
#352 = CIRCLE ( 'NONE', #34, 2.999999999999998668 ) ;
#353 = ADVANCED_FACE ( 'NONE', ( #158 ), #314, .T. ) ;
#354 = PRESENTATION_STYLE_ASSIGNMENT (( #306 ) ) ;
#355 = PRESENTATION_STYLE_ASSIGNMENT (( #263 ) ) ;
#356 = PLANE ( 'NONE',  #234 ) ;
#357 =( NAMED_UNIT ( * ) PLANE_ANGLE_UNIT ( ) SI_UNIT ( $, .RADIAN. ) );
#358 = CARTESIAN_POINT ( 'NONE',  ( 0.000000000000000000, 0.5000000000000000000, -3.000000000000000000 ) ) ;
#359 = UNCERTAINTY_MEASURE_WITH_UNIT (LENGTH_MEASURE( 1.000000000000000082E-05 ), #280, 'distance_accuracy_value', 'NONE');
#360 =( NAMED_UNIT ( * ) SI_UNIT ( $, .STERADIAN. ) SOLID_ANGLE_UNIT ( ) );
#361 = CARTESIAN_POINT ( 'NONE',  ( 0.000000000000000000, 0.5000000000000000000, 0.000000000000000000 ) ) ;
#362 = STYLED_ITEM ( 'NONE', ( #51 ), #30 ) ;
#363 = ADVANCED_FACE ( 'NONE', ( #128 ), #254, .F. ) ;
#364 = DIRECTION ( 'NONE',  ( -1.000000000000000000, -1.213614799521464586E-16, 0.000000000000000000 ) ) ;
#365 = DIRECTION ( 'NONE',  ( 0.000000000000000000, 0.000000000000000000, -1.000000000000000000 ) ) ;
#366 = DIRECTION ( 'NONE',  ( -1.213614799521464586E-16, 1.000000000000000000, -0.000000000000000000 ) ) ;
#367 = MECHANICAL_DESIGN_GEOMETRIC_PRESENTATION_REPRESENTATION (  '', ( #109 ), #123 ) ;
#368 = SHAPE_DEFINITION_REPRESENTATION ( #125, #178 ) ;
#369 = PLANE ( 'NONE',  #218 ) ;
#370 = MECHANICAL_DESIGN_GEOMETRIC_PRESENTATION_REPRESENTATION (  '', ( #298 ), #62 ) ;
ENDSEC;
END-ISO-10303-21;
