ISO-10303-21;
HEADER;
FILE_DESCRIPTION (( 'STEP AP214' ),
    '1' );
FILE_NAME ('Micro_SEM-375-04X.STEP',
    '2021-09-02T03:11:49',
    ( '' ),
    ( '' ),
    'SwSTEP 2.0',
    'SolidWorks 2020',
    '' );
FILE_SCHEMA (( 'AUTOMOTIVE_DESIGN' ));
ENDSEC;

DATA;
#1 = ORIENTED_EDGE ( 'NONE', *, *, #46, .F. ) ;
#2 = PRODUCT_RELATED_PRODUCT_CATEGORY ( 'part', '', ( #77 ) ) ;
#3 = AXIS2_PLACEMENT_3D ( 'NONE', #26, #232, #188 ) ;
#4 = DIRECTION ( 'NONE',  ( -1.224646799147353207E-16, -0.0000000000000000000, -1.000000000000000000 ) ) ;
#5 = APPLICATION_PROTOCOL_DEFINITION ( 'draft international standard', 'automotive_design', 1998, #186 ) ;
#6 = CYLINDRICAL_SURFACE ( 'NONE', #218, 0.1873124999999999929 ) ;
#7 = DIRECTION ( 'NONE',  ( 1.000000000000000000, 0.0000000000000000000, 0.0000000000000000000 ) ) ;
#8 = PRODUCT_DEFINITION_FORMATION_WITH_SPECIFIED_SOURCE ( 'ANY', '', #77, .NOT_KNOWN. ) ;
#9 =( CONVERSION_BASED_UNIT ( 'INCH', #100 ) LENGTH_UNIT ( ) NAMED_UNIT ( #275 ) );
#10 = CARTESIAN_POINT ( 'NONE',  ( 0.0000000000000000000, 0.0000000000000000000, 2.000000000000000000 ) ) ;
#11 = CIRCLE ( 'NONE', #42, 0.1873124999999999929 ) ;
#12 = LINE ( 'NONE', #106, #83 ) ;
#13 = EDGE_CURVE ( 'NONE', #204, #299, #11, .T. ) ;
#14 = EDGE_LOOP ( 'NONE', ( #45, #219 ) ) ;
#15 = CARTESIAN_POINT ( 'NONE',  ( -0.1873124999999999929, 0.0000000000000000000, 4.587833071305771192E-17 ) ) ;
#16 = DIRECTION ( 'NONE',  ( -1.000000000000000000, 0.0000000000000000000, 0.0000000000000000000 ) ) ;
#17 = VECTOR ( 'NONE', #122, 39.37007874015748143 ) ;
#18 = DIRECTION ( 'NONE',  ( -1.000000000000000000, 0.0000000000000000000, 0.0000000000000000000 ) ) ;
#19 =( GEOMETRIC_REPRESENTATION_CONTEXT ( 3 ) GLOBAL_UNCERTAINTY_ASSIGNED_CONTEXT ( ( #172 ) ) GLOBAL_UNIT_ASSIGNED_CONTEXT ( ( #135, #292, #86 ) ) REPRESENTATION_CONTEXT ( 'NONE', 'WORKASPACE' ) );
#20 = LINE ( 'NONE', #202, #73 ) ;
#21 = ORIENTED_EDGE ( 'NONE', *, *, #115, .T. ) ;
#22 = DIRECTION ( 'NONE',  ( -1.000000000000000000, 0.0000000000000000000, 0.0000000000000000000 ) ) ;
#23 = DIRECTION ( 'NONE',  ( 0.0000000000000000000, 0.0000000000000000000, 1.000000000000000000 ) ) ;
#24 = FACE_OUTER_BOUND ( 'NONE', #252, .T. ) ;
#25 = AXIS2_PLACEMENT_3D ( 'NONE', #165, #215, #7 ) ;
#26 = CARTESIAN_POINT ( 'NONE',  ( 0.0000000000000000000, 0.0000000000000000000, 2.000000000000000000 ) ) ;
#27 = CIRCLE ( 'NONE', #50, 0.1875000000000000278 ) ;
#28 = EDGE_CURVE ( 'NONE', #276, #152, #158, .T. ) ;
#29 = APPLICATION_PROTOCOL_DEFINITION ( 'draft international standard', 'automotive_design', 1998, #262 ) ;
#30 = CARTESIAN_POINT ( 'NONE',  ( 7.654042494670957853E-17, 0.0000000000000000000, 0.6250000000000000000 ) ) ;
#31 = FILL_AREA_STYLE_COLOUR ( '', #195 ) ;
#32 = ORIENTED_EDGE ( 'NONE', *, *, #192, .F. ) ;
#33 = ADVANCED_FACE ( 'NONE', ( #255 ), #139, .T. ) ;
#34 = CARTESIAN_POINT ( 'NONE',  ( 0.0000000000000000000, 0.0000000000000000000, 2.000000000000000000 ) ) ;
#35 = AXIS2_PLACEMENT_3D ( 'NONE', #97, #257, #277 ) ;
#36 = PRODUCT_DEFINITION ( 'UNKNOWN', '', #8, #265 ) ;
#37 = CARTESIAN_POINT ( 'NONE',  ( 0.0000000000000000000, 0.0000000000000000000, 2.000000000000000000 ) ) ;
#38 = ORIENTED_EDGE ( 'NONE', *, *, #123, .F. ) ;
#39 = DIMENSIONAL_EXPONENTS ( 1.000000000000000000, 0.0000000000000000000, 0.0000000000000000000, 0.0000000000000000000, 0.0000000000000000000, 0.0000000000000000000, 0.0000000000000000000 ) ;
#40 = ORIENTED_EDGE ( 'NONE', *, *, #92, .T. ) ;
#41 = VERTEX_POINT ( 'NONE', #298 ) ;
#42 = AXIS2_PLACEMENT_3D ( 'NONE', #88, #227, #16 ) ;
#43 = PRESENTATION_LAYER_ASSIGNMENT (  '', '', ( #89 ) ) ;
#44 = ORIENTED_EDGE ( 'NONE', *, *, #105, .T. ) ;
#45 = ORIENTED_EDGE ( 'NONE', *, *, #192, .T. ) ;
#46 = EDGE_CURVE ( 'NONE', #291, #152, #287, .T. ) ;
#47 = UNCERTAINTY_MEASURE_WITH_UNIT (LENGTH_MEASURE( 1.000000000000000082E-05 ), #231, 'distance_accuracy_value', 'NONE');
#48 = EDGE_CURVE ( 'NONE', #117, #291, #12, .T. ) ;
#49 = LINE ( 'NONE', #128, #114 ) ;
#50 = AXIS2_PLACEMENT_3D ( 'NONE', #162, #259, #60 ) ;
#51 = DIRECTION ( 'NONE',  ( -1.224646799147353207E-16, -0.0000000000000000000, -1.000000000000000000 ) ) ;
#52 = SURFACE_STYLE_FILL_AREA ( #148 ) ;
#53 = FACE_OUTER_BOUND ( 'NONE', #185, .T. ) ;
#54 = PRODUCT_CONTEXT ( 'NONE', #262, 'mechanical' ) ;
#55 = CYLINDRICAL_SURFACE ( 'NONE', #282, 0.1875000000000000278 ) ;
#56 = VERTEX_POINT ( 'NONE', #176 ) ;
#57 = ADVANCED_FACE ( 'NONE', ( #163 ), #55, .T. ) ;
#58 = AXIS2_PLACEMENT_3D ( 'NONE', #79, #193, #81 ) ;
#59 = COLOUR_RGB ( '',0.7921568627450980005, 0.8196078431372548767, 0.9333333333333333481 ) ;
#60 = DIRECTION ( 'NONE',  ( 1.000000000000000000, 0.0000000000000000000, 0.0000000000000000000 ) ) ;
#61 = ORIENTED_EDGE ( 'NONE', *, *, #199, .T. ) ;
#62 = CONICAL_SURFACE ( 'NONE', #35, 0.1873124999999999929, 0.1745329251994338915 ) ;
#63 = CARTESIAN_POINT ( 'NONE',  ( 0.0000000000000000000, 0.0000000000000000000, 0.0000000000000000000 ) ) ;
#64 = EDGE_LOOP ( 'NONE', ( #230, #200, #38, #256 ) ) ;
#65 = SURFACE_STYLE_FILL_AREA ( #183 ) ;
#66 = EDGE_LOOP ( 'NONE', ( #70, #274, #297, #121 ) ) ;
#67 = CLOSED_SHELL ( 'NONE', ( #294, #78, #221, #57, #246, #33, #147, #209, #197, #140 ) ) ;
#68 =( NAMED_UNIT ( * ) SI_UNIT ( $, .STERADIAN. ) SOLID_ANGLE_UNIT ( ) );
#69 = CARTESIAN_POINT ( 'NONE',  ( 0.1873125000000000484, 0.0000000000000000000, 0.6250000000000000000 ) ) ;
#70 = ORIENTED_EDGE ( 'NONE', *, *, #46, .T. ) ;
#71 = DIRECTION ( 'NONE',  ( -0.0000000000000000000, -0.0000000000000000000, -1.000000000000000000 ) ) ;
#72 = EDGE_LOOP ( 'NONE', ( #184, #249, #281, #295 ) ) ;
#73 = VECTOR ( 'NONE', #116, 39.37007874015748143 ) ;
#74 = VECTOR ( 'NONE', #127, 39.37007874015748143 ) ;
#75 = LINE ( 'NONE', #166, #228 ) ;
#76 = DIRECTION ( 'NONE',  ( 0.0000000000000000000, 0.0000000000000000000, -1.000000000000000000 ) ) ;
#77 = PRODUCT ( 'Micro_SEM-375-04X', 'Micro_SEM-375-04X', '', ( #54 ) ) ;
#78 = ADVANCED_FACE ( 'NONE', ( #53 ), #254, .T. ) ;
#79 = CARTESIAN_POINT ( 'NONE',  ( 0.0000000000000000000, 0.0000000000000000000, 0.0000000000000000000 ) ) ;
#80 = DIRECTION ( 'NONE',  ( 0.0000000000000000000, 0.0000000000000000000, 1.000000000000000000 ) ) ;
#81 = DIRECTION ( 'NONE',  ( 1.000000000000000000, 0.0000000000000000000, -0.0000000000000000000 ) ) ;
#82 = SURFACE_STYLE_USAGE ( .BOTH. , #264 ) ;
#83 = VECTOR ( 'NONE', #208, 39.37007874015748143 ) ;
#84 = FILL_AREA_STYLE_COLOUR ( '', #59 ) ;
#85 = ORIENTED_EDGE ( 'NONE', *, *, #199, .F. ) ;
#86 =( NAMED_UNIT ( * ) SI_UNIT ( $, .STERADIAN. ) SOLID_ANGLE_UNIT ( ) );
#87 = CIRCLE ( 'NONE', #258, 0.1873124999999999929 ) ;
#88 = CARTESIAN_POINT ( 'NONE',  ( 7.654042494670957853E-17, 0.0000000000000000000, 0.6250000000000000000 ) ) ;
#89 = STYLED_ITEM ( 'NONE', ( #251 ), #236 ) ;
#90 = ORIENTED_EDGE ( 'NONE', *, *, #129, .T. ) ;
#91 = DIRECTION ( 'NONE',  ( -1.224646799147353207E-16, -0.0000000000000000000, -1.000000000000000000 ) ) ;
#92 = EDGE_CURVE ( 'NONE', #41, #56, #124, .T. ) ;
#93 =( NAMED_UNIT ( * ) PLANE_ANGLE_UNIT ( ) SI_UNIT ( $, .RADIAN. ) );
#94 = ORIENTED_EDGE ( 'NONE', *, *, #28, .T. ) ;
#95 = MECHANICAL_DESIGN_GEOMETRIC_PRESENTATION_REPRESENTATION (  '', ( #238 ), #263 ) ;
#96 = EDGE_CURVE ( 'NONE', #276, #117, #237, .T. ) ;
#97 = CARTESIAN_POINT ( 'NONE',  ( 7.654042494670957853E-17, 0.0000000000000000000, 0.6250000000000000000 ) ) ;
#98 = DIRECTION ( 'NONE',  ( -1.224646799147353207E-16, -0.0000000000000000000, -1.000000000000000000 ) ) ;
#99 = DIRECTION ( 'NONE',  ( 1.000000000000000000, 0.0000000000000000000, 0.0000000000000000000 ) ) ;
#100 = LENGTH_MEASURE_WITH_UNIT ( LENGTH_MEASURE( 0.02539999999999999897 ), #216 );
#101 = CARTESIAN_POINT ( 'NONE',  ( 0.0000000000000000000, 0.0000000000000000000, 0.0000000000000000000 ) ) ;
#102 = CARTESIAN_POINT ( 'NONE',  ( -0.1875000000000000278, 0.0000000000000000000, 2.000000000000000000 ) ) ;
#103 = VECTOR ( 'NONE', #137, 39.37007874015748143 ) ;
#104 = EDGE_CURVE ( 'NONE', #108, #280, #87, .T. ) ;
#105 = EDGE_CURVE ( 'NONE', #204, #56, #136, .T. ) ;
#106 = CARTESIAN_POINT ( 'NONE',  ( -0.1725000000000001532, 0.0000000000000000000, 2.000000000000000000 ) ) ;
#107 = DIRECTION ( 'NONE',  ( -1.224646799147353207E-16, -0.0000000000000000000, -1.000000000000000000 ) ) ;
#108 = VERTEX_POINT ( 'NONE', #142 ) ;
#109 = DIRECTION ( 'NONE',  ( 1.000000000000000000, 0.0000000000000000000, 0.0000000000000000000 ) ) ;
#110 =( LENGTH_UNIT ( ) NAMED_UNIT ( * ) SI_UNIT ( $, .METRE. ) );
#111 = AXIS2_PLACEMENT_3D ( 'NONE', #239, #4, #99 ) ;
#112 = DIRECTION ( 'NONE',  ( -1.000000000000000000, 0.0000000000000000000, 0.0000000000000000000 ) ) ;
#113 = ORIENTED_EDGE ( 'NONE', *, *, #105, .F. ) ;
#114 = VECTOR ( 'NONE', #168, 39.37007874015747433 ) ;
#115 = EDGE_CURVE ( 'NONE', #56, #41, #247, .T. ) ;
#116 = DIRECTION ( 'NONE',  ( -1.224646799147353207E-16, -0.0000000000000000000, -1.000000000000000000 ) ) ;
#117 = VERTEX_POINT ( 'NONE', #286 ) ;
#118 = CARTESIAN_POINT ( 'NONE',  ( -0.1873124999999999096, 2.295064642027086507E-17, 0.6250000000000000000 ) ) ;
#119 = ORIENTED_EDGE ( 'NONE', *, *, #123, .T. ) ;
#120 = AXIS2_PLACEMENT_3D ( 'NONE', #30, #272, #109 ) ;
#121 = ORIENTED_EDGE ( 'NONE', *, *, #129, .F. ) ;
#122 = DIRECTION ( 'NONE',  ( -0.0000000000000000000, -0.0000000000000000000, -1.000000000000000000 ) ) ;
#123 = EDGE_CURVE ( 'NONE', #280, #108, #150, .T. ) ;
#124 = CIRCLE ( 'NONE', #151, 0.1875000000000000278 ) ;
#125 =( NAMED_UNIT ( * ) SI_UNIT ( $, .STERADIAN. ) SOLID_ANGLE_UNIT ( ) );
#126 = PRESENTATION_LAYER_ASSIGNMENT (  '', '', ( #238 ) ) ;
#127 = DIRECTION ( 'NONE',  ( 0.1736481776669313859, 0.0000000000000000000, 0.9848077530122077983 ) ) ;
#128 = CARTESIAN_POINT ( 'NONE',  ( -0.1873124999999999096, 2.293916535652885596E-17, 0.6250000000000000000 ) ) ;
#129 = EDGE_CURVE ( 'NONE', #291, #41, #285, .T. ) ;
#130 = DIRECTION ( 'NONE',  ( 1.000000000000000000, 0.0000000000000000000, 0.0000000000000000000 ) ) ;
#131 = DIRECTION ( 'NONE',  ( -0.0000000000000000000, -0.0000000000000000000, -1.000000000000000000 ) ) ;
#132 = SURFACE_SIDE_STYLE ('',( #65 ) ) ;
#133 = EDGE_LOOP ( 'NONE', ( #293, #61, #90, #201 ) ) ;
#134 = ORIENTED_EDGE ( 'NONE', *, *, #48, .F. ) ;
#135 =( CONVERSION_BASED_UNIT ( 'INCH', #187 ) LENGTH_UNIT ( ) NAMED_UNIT ( #177 ) );
#136 = LINE ( 'NONE', #69, #74 ) ;
#137 = DIRECTION ( 'NONE',  ( 0.7071067811865386910, 8.659560562354824390E-17, -0.7071067811865563435 ) ) ;
#138 = LINE ( 'NONE', #225, #189 ) ;
#139 = PLANE ( 'NONE',  #213 ) ;
#140 = ADVANCED_FACE ( 'NONE', ( #244 ), #240, .F. ) ;
#141 = AXIS2_PLACEMENT_3D ( 'NONE', #245, #80, #196 ) ;
#142 = CARTESIAN_POINT ( 'NONE',  ( 0.1873124999999999929, 2.293916535652885596E-17, 0.0000000000000000000 ) ) ;
#143 = EDGE_CURVE ( 'NONE', #152, #56, #75, .T. ) ;
#144 = CARTESIAN_POINT ( 'NONE',  ( 0.0000000000000000000, 0.0000000000000000000, 2.000000000000000000 ) ) ;
#145 = PRESENTATION_STYLE_ASSIGNMENT (( #82 ) ) ;
#146 = DIRECTION ( 'NONE',  ( -1.000000000000000000, 0.0000000000000000000, 1.224646799147352961E-16 ) ) ;
#147 = ADVANCED_FACE ( 'NONE', ( #266 ), #207, .T. ) ;
#148 = FILL_AREA_STYLE ('',( #31 ) ) ;
#149 = CARTESIAN_POINT ( 'NONE',  ( 0.0000000000000000000, 0.0000000000000000000, 1.984999999999999654 ) ) ;
#150 = CIRCLE ( 'NONE', #290, 0.1873124999999999929 ) ;
#151 = AXIS2_PLACEMENT_3D ( 'NONE', #296, #91, #289 ) ;
#152 = VERTEX_POINT ( 'NONE', #217 ) ;
#153 = EDGE_CURVE ( 'NONE', #299, #41, #49, .T. ) ;
#154 = CARTESIAN_POINT ( 'NONE',  ( 7.654042494670957853E-17, 0.0000000000000000000, 0.6250000000000000000 ) ) ;
#155 = ORIENTED_EDGE ( 'NONE', *, *, #13, .F. ) ;
#156 = EDGE_LOOP ( 'NONE', ( #119, #160 ) ) ;
#157 = CARTESIAN_POINT ( 'NONE',  ( -0.1875000000000000278, 0.0000000000000000000, 1.984999999999999654 ) ) ;
#158 = LINE ( 'NONE', #253, #103 ) ;
#159 = ORIENTED_EDGE ( 'NONE', *, *, #153, .T. ) ;
#160 = ORIENTED_EDGE ( 'NONE', *, *, #104, .T. ) ;
#161 = ADVANCED_BREP_SHAPE_REPRESENTATION ( 'Micro_SEM-375-04X', ( #236, #141 ), #269 ) ;
#162 = CARTESIAN_POINT ( 'NONE',  ( 0.0000000000000000000, 0.0000000000000000000, 1.984999999999999654 ) ) ;
#163 = FACE_OUTER_BOUND ( 'NONE', #66, .T. ) ;
#164 = UNCERTAINTY_MEASURE_WITH_UNIT (LENGTH_MEASURE( 1.000000000000000082E-05 ), #9, 'distance_accuracy_value', 'NONE');
#165 = CARTESIAN_POINT ( 'NONE',  ( 0.0000000000000000000, 0.0000000000000000000, 2.000000000000000000 ) ) ;
#166 = CARTESIAN_POINT ( 'NONE',  ( 0.1875000000000000278, 2.296212748401287726E-17, 2.000000000000000000 ) ) ;
#167 = AXIS2_PLACEMENT_3D ( 'NONE', #149, #248, #130 ) ;
#168 = DIRECTION ( 'NONE',  ( -0.1736481776669311916, 2.126576849575783316E-17, 0.9848077530122080203 ) ) ;
#169 =( NAMED_UNIT ( * ) PLANE_ANGLE_UNIT ( ) SI_UNIT ( $, .RADIAN. ) );
#170 = AXIS2_PLACEMENT_3D ( 'NONE', #144, #76, #260 ) ;
#171 = ORIENTED_EDGE ( 'NONE', *, *, #48, .T. ) ;
#172 = UNCERTAINTY_MEASURE_WITH_UNIT (LENGTH_MEASURE( 1.000000000000000082E-05 ), #135, 'distance_accuracy_value', 'NONE');
#173 = AXIS2_PLACEMENT_3D ( 'NONE', #154, #234, #112 ) ;
#174 =( LENGTH_UNIT ( ) NAMED_UNIT ( * ) SI_UNIT ( $, .METRE. ) );
#175 = DIRECTION ( 'NONE',  ( 1.000000000000000000, 0.0000000000000000000, 0.0000000000000000000 ) ) ;
#176 = CARTESIAN_POINT ( 'NONE',  ( 0.1875000000000000833, 2.296212748401288650E-17, 0.6260633653411784572 ) ) ;
#177 = DIMENSIONAL_EXPONENTS ( 1.000000000000000000, 0.0000000000000000000, 0.0000000000000000000, 0.0000000000000000000, 0.0000000000000000000, 0.0000000000000000000, 0.0000000000000000000 ) ;
#178 = ORIENTED_EDGE ( 'NONE', *, *, #153, .F. ) ;
#179 = AXIS2_PLACEMENT_3D ( 'NONE', #34, #278, #175 ) ;
#180 = DIRECTION ( 'NONE',  ( -1.224646799147353207E-16, -0.0000000000000000000, -1.000000000000000000 ) ) ;
#181 = EDGE_LOOP ( 'NONE', ( #178, #155, #44, #21 ) ) ;
#182 = LENGTH_MEASURE_WITH_UNIT ( LENGTH_MEASURE( 0.02539999999999999897 ), #110 );
#183 = FILL_AREA_STYLE ('',( #84 ) ) ;
#184 = ORIENTED_EDGE ( 'NONE', *, *, #288, .F. ) ;
#185 = EDGE_LOOP ( 'NONE', ( #271, #159, #40, #113 ) ) ;
#186 = APPLICATION_CONTEXT ( 'automotive_design' ) ;
#187 = LENGTH_MEASURE_WITH_UNIT ( LENGTH_MEASURE( 0.02539999999999999897 ), #174 );
#188 = DIRECTION ( 'NONE',  ( -1.000000000000000000, 0.0000000000000000000, 0.0000000000000000000 ) ) ;
#189 = VECTOR ( 'NONE', #180, 39.37007874015748143 ) ;
#190 = CONICAL_SURFACE ( 'NONE', #3, 0.1725000000000001532, 0.7853981633974357335 ) ;
#191 = DIRECTION ( 'NONE',  ( -1.224646799147353207E-16, -0.0000000000000000000, -1.000000000000000000 ) ) ;
#192 = EDGE_CURVE ( 'NONE', #117, #276, #241, .T. ) ;
#193 = DIRECTION ( 'NONE',  ( 0.0000000000000000000, 0.0000000000000000000, 1.000000000000000000 ) ) ;
#194 = DIRECTION ( 'NONE',  ( -0.0000000000000000000, -0.0000000000000000000, -1.000000000000000000 ) ) ;
#195 = COLOUR_RGB ( '',0.7921568627450980005, 0.8196078431372548767, 0.9333333333333333481 ) ;
#196 = DIRECTION ( 'NONE',  ( 1.000000000000000000, 0.0000000000000000000, 0.0000000000000000000 ) ) ;
#197 = ADVANCED_FACE ( 'NONE', ( #242 ), #6, .T. ) ;
#198 = AXIS2_PLACEMENT_3D ( 'NONE', #37, #131, #22 ) ;
#199 = EDGE_CURVE ( 'NONE', #152, #291, #27, .T. ) ;
#200 = ORIENTED_EDGE ( 'NONE', *, *, #288, .T. ) ;
#201 = ORIENTED_EDGE ( 'NONE', *, *, #115, .F. ) ;
#202 = CARTESIAN_POINT ( 'NONE',  ( 0.1873124999999999929, 2.293916535652885596E-17, -2.293916535652885596E-17 ) ) ;
#203 = SURFACE_STYLE_USAGE ( .BOTH. , #132 ) ;
#204 = VERTEX_POINT ( 'NONE', #270 ) ;
#205 = EDGE_LOOP ( 'NONE', ( #268, #32, #171, #85 ) ) ;
#206 = DIRECTION ( 'NONE',  ( 1.000000000000000000, 0.0000000000000000000, -0.0000000000000000000 ) ) ;
#207 = CONICAL_SURFACE ( 'NONE', #170, 0.1725000000000001532, 0.7853981633974357335 ) ;
#208 = DIRECTION ( 'NONE',  ( -0.7071067811865386910, 0.0000000000000000000, -0.7071067811865563435 ) ) ;
#209 = ADVANCED_FACE ( 'NONE', ( #220 ), #62, .T. ) ;
#210 = CARTESIAN_POINT ( 'NONE',  ( 2.809237542898491532E-33, 0.0000000000000000000, 2.293916535652885596E-17 ) ) ;
#211 = CARTESIAN_POINT ( 'NONE',  ( 2.809237542898491532E-33, 0.0000000000000000000, 2.293916535652885596E-17 ) ) ;
#212 = DIRECTION ( 'NONE',  ( -1.000000000000000000, 0.0000000000000000000, 1.224646799147352961E-16 ) ) ;
#213 = AXIS2_PLACEMENT_3D ( 'NONE', #233, #23, #206 ) ;
#214 = AXIS2_PLACEMENT_3D ( 'NONE', #63, #107, #250 ) ;
#215 = DIRECTION ( 'NONE',  ( 0.0000000000000000000, 0.0000000000000000000, 1.000000000000000000 ) ) ;
#216 =( LENGTH_UNIT ( ) NAMED_UNIT ( * ) SI_UNIT ( $, .METRE. ) );
#217 = CARTESIAN_POINT ( 'NONE',  ( 0.1875000000000000278, 2.296212748401287726E-17, 1.984999999999999654 ) ) ;
#218 = AXIS2_PLACEMENT_3D ( 'NONE', #101, #51, #146 ) ;
#219 = ORIENTED_EDGE ( 'NONE', *, *, #96, .T. ) ;
#220 = FACE_OUTER_BOUND ( 'NONE', #181, .T. ) ;
#221 = ADVANCED_FACE ( 'NONE', ( #24 ), #190, .T. ) ;
#222 = CIRCLE ( 'NONE', #173, 0.1873124999999999929 ) ;
#223 = CARTESIAN_POINT ( 'NONE',  ( 0.1725000000000001532, 2.204364238465236130E-17, 2.000000000000000000 ) ) ;
#224 = ORIENTED_EDGE ( 'NONE', *, *, #96, .F. ) ;
#225 = CARTESIAN_POINT ( 'NONE',  ( -0.1873124999999999929, 0.0000000000000000000, 2.293916535652885596E-17 ) ) ;
#226 = CYLINDRICAL_SURFACE ( 'NONE', #198, 0.1875000000000000278 ) ;
#227 = DIRECTION ( 'NONE',  ( -1.224646799147353207E-16, -0.0000000000000000000, -1.000000000000000000 ) ) ;
#228 = VECTOR ( 'NONE', #194, 39.37007874015748143 ) ;
#229 = FACE_OUTER_BOUND ( 'NONE', #133, .T. ) ;
#230 = ORIENTED_EDGE ( 'NONE', *, *, #235, .T. ) ;
#231 =( CONVERSION_BASED_UNIT ( 'INCH', #182 ) LENGTH_UNIT ( ) NAMED_UNIT ( #39 ) );
#232 = DIRECTION ( 'NONE',  ( 0.0000000000000000000, 0.0000000000000000000, -1.000000000000000000 ) ) ;
#233 = CARTESIAN_POINT ( 'NONE',  ( 0.0000000000000000000, 0.0000000000000000000, 2.000000000000000000 ) ) ;
#234 = DIRECTION ( 'NONE',  ( -1.224646799147353207E-16, -0.0000000000000000000, -1.000000000000000000 ) ) ;
#235 = EDGE_CURVE ( 'NONE', #299, #204, #222, .T. ) ;
#236 = MANIFOLD_SOLID_BREP ( 'Cut-Revolve1', #67 ) ;
#237 = CIRCLE ( 'NONE', #179, 0.1725000000000001532 ) ;
#238 = STYLED_ITEM ( 'NONE', ( #145 ), #161 ) ;
#239 = CARTESIAN_POINT ( 'NONE',  ( 7.667064964284941550E-17, 0.0000000000000000000, 0.6260633653411784572 ) ) ;
#240 = PLANE ( 'NONE',  #58 ) ;
#241 = CIRCLE ( 'NONE', #25, 0.1725000000000001532 ) ;
#242 = FACE_OUTER_BOUND ( 'NONE', #72, .T. ) ;
#243 = PRODUCT_DEFINITION_SHAPE ( 'NONE', 'NONE',  #36 ) ;
#244 = FACE_OUTER_BOUND ( 'NONE', #156, .T. ) ;
#245 = CARTESIAN_POINT ( 'NONE',  ( 0.0000000000000000000, 0.0000000000000000000, 0.0000000000000000000 ) ) ;
#246 = ADVANCED_FACE ( 'NONE', ( #229 ), #226, .T. ) ;
#247 = CIRCLE ( 'NONE', #111, 0.1875000000000000278 ) ;
#248 = DIRECTION ( 'NONE',  ( 0.0000000000000000000, 0.0000000000000000000, -1.000000000000000000 ) ) ;
#249 = ORIENTED_EDGE ( 'NONE', *, *, #13, .T. ) ;
#250 = DIRECTION ( 'NONE',  ( -1.000000000000000000, 0.0000000000000000000, 1.224646799147352961E-16 ) ) ;
#251 = PRESENTATION_STYLE_ASSIGNMENT (( #203 ) ) ;
#252 = EDGE_LOOP ( 'NONE', ( #224, #94, #1, #134 ) ) ;
#253 = CARTESIAN_POINT ( 'NONE',  ( 0.1725000000000001532, 2.112515728529185460E-17, 2.000000000000000000 ) ) ;
#254 = CONICAL_SURFACE ( 'NONE', #120, 0.1873124999999999929, 0.1745329251994338915 ) ;
#255 = FACE_OUTER_BOUND ( 'NONE', #14, .T. ) ;
#256 = ORIENTED_EDGE ( 'NONE', *, *, #267, .F. ) ;
#257 = DIRECTION ( 'NONE',  ( 1.224646799147353207E-16, 0.0000000000000000000, 1.000000000000000000 ) ) ;
#258 = AXIS2_PLACEMENT_3D ( 'NONE', #211, #98, #212 ) ;
#259 = DIRECTION ( 'NONE',  ( 0.0000000000000000000, 0.0000000000000000000, -1.000000000000000000 ) ) ;
#260 = DIRECTION ( 'NONE',  ( -1.000000000000000000, 0.0000000000000000000, 0.0000000000000000000 ) ) ;
#261 = SHAPE_DEFINITION_REPRESENTATION ( #243, #161 ) ;
#262 = APPLICATION_CONTEXT ( 'automotive_design' ) ;
#263 =( GEOMETRIC_REPRESENTATION_CONTEXT ( 3 ) GLOBAL_UNCERTAINTY_ASSIGNED_CONTEXT ( ( #164 ) ) GLOBAL_UNIT_ASSIGNED_CONTEXT ( ( #9, #169, #125 ) ) REPRESENTATION_CONTEXT ( 'NONE', 'WORKASPACE' ) );
#264 = SURFACE_SIDE_STYLE ('',( #52 ) ) ;
#265 = PRODUCT_DEFINITION_CONTEXT ( 'detailed design', #186, 'design' ) ;
#266 = FACE_OUTER_BOUND ( 'NONE', #205, .T. ) ;
#267 = EDGE_CURVE ( 'NONE', #299, #280, #138, .T. ) ;
#268 = ORIENTED_EDGE ( 'NONE', *, *, #28, .F. ) ;
#269 =( GEOMETRIC_REPRESENTATION_CONTEXT ( 3 ) GLOBAL_UNCERTAINTY_ASSIGNED_CONTEXT ( ( #47 ) ) GLOBAL_UNIT_ASSIGNED_CONTEXT ( ( #231, #93, #68 ) ) REPRESENTATION_CONTEXT ( 'NONE', 'WORKASPACE' ) );
#270 = CARTESIAN_POINT ( 'NONE',  ( 0.1873125000000000484, 0.0000000000000000000, 0.6250000000000000000 ) ) ;
#271 = ORIENTED_EDGE ( 'NONE', *, *, #235, .F. ) ;
#272 = DIRECTION ( 'NONE',  ( 1.224646799147353207E-16, 0.0000000000000000000, 1.000000000000000000 ) ) ;
#273 = FACE_OUTER_BOUND ( 'NONE', #64, .T. ) ;
#274 = ORIENTED_EDGE ( 'NONE', *, *, #143, .T. ) ;
#275 = DIMENSIONAL_EXPONENTS ( 1.000000000000000000, 0.0000000000000000000, 0.0000000000000000000, 0.0000000000000000000, 0.0000000000000000000, 0.0000000000000000000, 0.0000000000000000000 ) ;
#276 = VERTEX_POINT ( 'NONE', #223 ) ;
#277 = DIRECTION ( 'NONE',  ( 1.000000000000000000, 0.0000000000000000000, 0.0000000000000000000 ) ) ;
#278 = DIRECTION ( 'NONE',  ( 0.0000000000000000000, 0.0000000000000000000, 1.000000000000000000 ) ) ;
#279 = CYLINDRICAL_SURFACE ( 'NONE', #214, 0.1873124999999999929 ) ;
#280 = VERTEX_POINT ( 'NONE', #15 ) ;
#281 = ORIENTED_EDGE ( 'NONE', *, *, #267, .T. ) ;
#282 = AXIS2_PLACEMENT_3D ( 'NONE', #10, #71, #18 ) ;
#283 = MECHANICAL_DESIGN_GEOMETRIC_PRESENTATION_REPRESENTATION (  '', ( #89 ), #19 ) ;
#284 = DIRECTION ( 'NONE',  ( -1.000000000000000000, 0.0000000000000000000, 1.224646799147352961E-16 ) ) ;
#285 = LINE ( 'NONE', #102, #17 ) ;
#286 = CARTESIAN_POINT ( 'NONE',  ( -0.1725000000000001532, 0.0000000000000000000, 2.000000000000000000 ) ) ;
#287 = CIRCLE ( 'NONE', #167, 0.1875000000000000278 ) ;
#288 = EDGE_CURVE ( 'NONE', #204, #108, #20, .T. ) ;
#289 = DIRECTION ( 'NONE',  ( 1.000000000000000000, 0.0000000000000000000, 0.0000000000000000000 ) ) ;
#290 = AXIS2_PLACEMENT_3D ( 'NONE', #210, #191, #284 ) ;
#291 = VERTEX_POINT ( 'NONE', #157 ) ;
#292 =( NAMED_UNIT ( * ) PLANE_ANGLE_UNIT ( ) SI_UNIT ( $, .RADIAN. ) );
#293 = ORIENTED_EDGE ( 'NONE', *, *, #143, .F. ) ;
#294 = ADVANCED_FACE ( 'NONE', ( #273 ), #279, .T. ) ;
#295 = ORIENTED_EDGE ( 'NONE', *, *, #104, .F. ) ;
#296 = CARTESIAN_POINT ( 'NONE',  ( 7.667064964284941550E-17, 0.0000000000000000000, 0.6260633653411784572 ) ) ;
#297 = ORIENTED_EDGE ( 'NONE', *, *, #92, .F. ) ;
#298 = CARTESIAN_POINT ( 'NONE',  ( -0.1874999999999999445, 0.0000000000000000000, 0.6260633653411784572 ) ) ;
#299 = VERTEX_POINT ( 'NONE', #118 ) ;
ENDSEC;
END-ISO-10303-21;
