ISO-10303-21;
HEADER;
FILE_DESCRIPTION (( 'STEP AP214' ),
    '1' );
FILE_NAME ('01347.STEP',
    '2023-06-22T14:27:46',
    ( '' ),
    ( '' ),
    'SwSTEP 2.0',
    'SolidWorks 2023',
    '' );
FILE_SCHEMA (( 'AUTOMOTIVE_DESIGN' ));
ENDSEC;

DATA;
#1 = STYLED_ITEM ( 'NONE', ( #191 ), #194 ) ;
#2 = AXIS2_PLACEMENT_3D ( 'NONE', #70, #284, #308 ) ;
#3 = FILL_AREA_STYLE_COLOUR ( '', #159 ) ;
#4 = SURFACE_STYLE_FILL_AREA ( #166 ) ;
#5 = SURFACE_STYLE_FILL_AREA ( #192 ) ;
#6 = DIRECTION ( 'NONE',  ( -0.000000000000000000, -1.000000000000000000, -0.000000000000000000 ) ) ;
#7 = PRODUCT_RELATED_PRODUCT_CATEGORY ( 'part', '', ( #24 ) ) ;
#8 = STYLED_ITEM ( 'NONE', ( #168 ), #246 ) ;
#9 = ORIENTED_EDGE ( 'NONE', *, *, #186, .T. ) ;
#10 = SURFACE_STYLE_USAGE ( .BOTH. , #170 ) ;
#11 = DIRECTION ( 'NONE',  ( -0.000000000000000000, -1.000000000000000000, -0.000000000000000000 ) ) ;
#12 = AXIS2_PLACEMENT_3D ( 'NONE', #227, #278, #83 ) ;
#13 = FACE_OUTER_BOUND ( 'NONE', #32, .T. ) ;
#14 = ORIENTED_EDGE ( 'NONE', *, *, #120, .T. ) ;
#15 = AXIS2_PLACEMENT_3D ( 'NONE', #128, #100, #195 ) ;
#16 =( NAMED_UNIT ( * ) PLANE_ANGLE_UNIT ( ) SI_UNIT ( $, .RADIAN. ) );
#17 = CARTESIAN_POINT ( 'NONE',  ( 0.000000000000000000, 0.000000000000000000, 0.000000000000000000 ) ) ;
#18 = EDGE_CURVE ( 'NONE', #151, #35, #78, .T. ) ;
#19 =( GEOMETRIC_REPRESENTATION_CONTEXT ( 3 ) GLOBAL_UNCERTAINTY_ASSIGNED_CONTEXT ( ( #22 ) ) GLOBAL_UNIT_ASSIGNED_CONTEXT ( ( #296, #16, #112 ) ) REPRESENTATION_CONTEXT ( 'NONE', 'WORKASPACE' ) );
#20 = DIRECTION ( 'NONE',  ( -6.123233995736769734E-17, 1.000000000000000000, -0.000000000000000000 ) ) ;
#21 =( NAMED_UNIT ( * ) SI_UNIT ( $, .STERADIAN. ) SOLID_ANGLE_UNIT ( ) );
#22 = UNCERTAINTY_MEASURE_WITH_UNIT (LENGTH_MEASURE( 1.000000000000000082E-05 ), #296, 'distance_accuracy_value', 'NONE');
#23 = PLANE ( 'NONE',  #2 ) ;
#24 = PRODUCT ( '01347', '01347', '', ( #76 ) ) ;
#25 =( NAMED_UNIT ( * ) SI_UNIT ( $, .STERADIAN. ) SOLID_ANGLE_UNIT ( ) );
#26 = SURFACE_SIDE_STYLE ('',( #45 ) ) ;
#27 = CARTESIAN_POINT ( 'NONE',  ( -0.1875000000000002776, 3.000000000000000444, 0.000000000000000000 ) ) ;
#28 = SHAPE_DEFINITION_REPRESENTATION ( #240, #86 ) ;
#29 = ORIENTED_EDGE ( 'NONE', *, *, #239, .F. ) ;
#30 = STYLED_ITEM ( 'NONE', ( #223 ), #127 ) ;
#31 = UNCERTAINTY_MEASURE_WITH_UNIT (LENGTH_MEASURE( 1.000000000000000082E-05 ), #124, 'distance_accuracy_value', 'NONE');
#32 = EDGE_LOOP ( 'NONE', ( #149, #217, #154, #216 ) ) ;
#33 = DIRECTION ( 'NONE',  ( 0.000000000000000000, 0.000000000000000000, -1.000000000000000000 ) ) ;
#34 = SURFACE_STYLE_FILL_AREA ( #193 ) ;
#35 = VERTEX_POINT ( 'NONE', #73 ) ;
#36 = CARTESIAN_POINT ( 'NONE',  ( -1.224646799147353700E-16, 3.000000000000000444, 0.000000000000000000 ) ) ;
#37 = SURFACE_SIDE_STYLE ('',( #137 ) ) ;
#38 = PRESENTATION_LAYER_ASSIGNMENT (  '', '', ( #169 ) ) ;
#39 = MANIFOLD_SOLID_BREP ( 'Revolve - Tool Body (Straight Shanked)', #114 ) ;
#40 = FACE_OUTER_BOUND ( 'NONE', #196, .T. ) ;
#41 = FILL_AREA_STYLE_COLOUR ( '', #104 ) ;
#42 = FACE_OUTER_BOUND ( 'NONE', #49, .T. ) ;
#43 = COLOUR_RGB ( '',0.7921568627450980005, 0.8196078431372548767, 0.9333333333333333481 ) ;
#44 =( GEOMETRIC_REPRESENTATION_CONTEXT ( 3 ) GLOBAL_UNCERTAINTY_ASSIGNED_CONTEXT ( ( #134 ) ) GLOBAL_UNIT_ASSIGNED_CONTEXT ( ( #110, #115, #91 ) ) REPRESENTATION_CONTEXT ( 'NONE', 'WORKASPACE' ) );
#45 = SURFACE_STYLE_FILL_AREA ( #213 ) ;
#46 = EDGE_CURVE ( 'NONE', #51, #130, #50, .T. ) ;
#47 = LENGTH_MEASURE_WITH_UNIT ( LENGTH_MEASURE( 0.02539999999999999897 ), #113 );
#48 = PLANE ( 'NONE',  #183 ) ;
#49 = EDGE_LOOP ( 'NONE', ( #197, #199 ) ) ;
#50 = CIRCLE ( 'NONE', #57, 0.1875000000000000278 ) ;
#51 = VERTEX_POINT ( 'NONE', #282 ) ;
#52 = DIMENSIONAL_EXPONENTS ( 1.000000000000000000, 0.000000000000000000, 0.000000000000000000, 0.000000000000000000, 0.000000000000000000, 0.000000000000000000, 0.000000000000000000 ) ;
#53 = ORIENTED_EDGE ( 'NONE', *, *, #18, .T. ) ;
#54 = APPLICATION_CONTEXT ( 'automotive_design' ) ;
#55 = UNCERTAINTY_MEASURE_WITH_UNIT (LENGTH_MEASURE( 1.000000000000000082E-05 ), #85, 'distance_accuracy_value', 'NONE');
#56 = ORIENTED_EDGE ( 'NONE', *, *, #153, .T. ) ;
#57 = AXIS2_PLACEMENT_3D ( 'NONE', #123, #249, #203 ) ;
#58 =( NAMED_UNIT ( * ) SI_UNIT ( $, .STERADIAN. ) SOLID_ANGLE_UNIT ( ) );
#59 = DIMENSIONAL_EXPONENTS ( 1.000000000000000000, 0.000000000000000000, 0.000000000000000000, 0.000000000000000000, 0.000000000000000000, 0.000000000000000000, 0.000000000000000000 ) ;
#60 = CARTESIAN_POINT ( 'NONE',  ( 0.000000000000000000, 1.000000000000000000, 0.000000000000000000 ) ) ;
#61 = AXIS2_PLACEMENT_3D ( 'NONE', #210, #89, #211 ) ;
#62 = FACE_OUTER_BOUND ( 'NONE', #292, .T. ) ;
#63 = DIRECTION ( 'NONE',  ( -6.123233995736769734E-17, 1.000000000000000000, 0.000000000000000000 ) ) ;
#64 = DIRECTION ( 'NONE',  ( -6.123233995736769734E-17, 1.000000000000000000, -0.000000000000000000 ) ) ;
#65 = FILL_AREA_STYLE_COLOUR ( '', #88 ) ;
#66 = CYLINDRICAL_SURFACE ( 'NONE', #301, 0.1875000000000000278 ) ;
#67 = EDGE_CURVE ( 'NONE', #51, #245, #138, .T. ) ;
#68 =( NAMED_UNIT ( * ) PLANE_ANGLE_UNIT ( ) SI_UNIT ( $, .RADIAN. ) );
#69 = FILL_AREA_STYLE ('',( #3 ) ) ;
#70 = CARTESIAN_POINT ( 'NONE',  ( 0.1875000000000000278, 3.000000000000000444, 0.000000000000000000 ) ) ;
#71 = SURFACE_STYLE_USAGE ( .BOTH. , #255 ) ;
#72 = EDGE_CURVE ( 'NONE', #130, #51, #81, .T. ) ;
#73 = CARTESIAN_POINT ( 'NONE',  ( 0.000000000000000000, 1.000000000000000000, -0.1875000000000000278 ) ) ;
#74 = DIRECTION ( 'NONE',  ( 0.000000000000000000, 0.000000000000000000, -1.000000000000000000 ) ) ;
#75 =( LENGTH_UNIT ( ) NAMED_UNIT ( * ) SI_UNIT ( $, .METRE. ) );
#76 = PRODUCT_CONTEXT ( 'NONE', #167, 'mechanical' ) ;
#77 = ORIENTED_EDGE ( 'NONE', *, *, #175, .F. ) ;
#78 = CIRCLE ( 'NONE', #248, 0.1875000000000000278 ) ;
#79 = EDGE_LOOP ( 'NONE', ( #298, #270, #152, #29 ) ) ;
#80 = DIRECTION ( 'NONE',  ( -1.000000000000000000, 0.000000000000000000, 0.000000000000000000 ) ) ;
#81 = CIRCLE ( 'NONE', #225, 0.1875000000000000278 ) ;
#82 = EDGE_CURVE ( 'NONE', #130, #172, #181, .T. ) ;
#83 = DIRECTION ( 'NONE',  ( 0.000000000000000000, 0.000000000000000000, -1.000000000000000000 ) ) ;
#84 = PRODUCT_DEFINITION_FORMATION_WITH_SPECIFIED_SOURCE ( 'ANY', '', #24, .NOT_KNOWN. ) ;
#85 =( CONVERSION_BASED_UNIT ( 'INCH', #106 ) LENGTH_UNIT ( ) NAMED_UNIT ( #131 ) );
#86 = ADVANCED_BREP_SHAPE_REPRESENTATION ( '01347', ( #246, #39, #184 ), #119 ) ;
#87 = DIRECTION ( 'NONE',  ( -6.123233995736769734E-17, 1.000000000000000000, -0.000000000000000000 ) ) ;
#88 = COLOUR_RGB ( '',1.000000000000000000, 0.000000000000000000, 0.000000000000000000 ) ;
#89 = DIRECTION ( 'NONE',  ( 0.000000000000000000, 1.000000000000000000, 0.000000000000000000 ) ) ;
#90 =( NAMED_UNIT ( * ) SI_UNIT ( $, .STERADIAN. ) SOLID_ANGLE_UNIT ( ) );
#91 =( NAMED_UNIT ( * ) SI_UNIT ( $, .STERADIAN. ) SOLID_ANGLE_UNIT ( ) );
#92 = STYLED_ITEM ( 'NONE', ( #286 ), #279 ) ;
#93 = SURFACE_STYLE_FILL_AREA ( #69 ) ;
#94 = FACE_OUTER_BOUND ( 'NONE', #79, .T. ) ;
#95 =( LENGTH_UNIT ( ) NAMED_UNIT ( * ) SI_UNIT ( $, .METRE. ) );
#96 = CYLINDRICAL_SURFACE ( 'NONE', #268, 0.1875000000000000833 ) ;
#97 =( LENGTH_UNIT ( ) NAMED_UNIT ( * ) SI_UNIT ( $, .METRE. ) );
#98 = ORIENTED_EDGE ( 'NONE', *, *, #186, .F. ) ;
#99 = PRESENTATION_LAYER_ASSIGNMENT (  '', '', ( #1 ) ) ;
#100 = DIRECTION ( 'NONE',  ( -6.123233995736769734E-17, 1.000000000000000000, -0.000000000000000000 ) ) ;
#101 = DIRECTION ( 'NONE',  ( 0.000000000000000000, 0.000000000000000000, -1.000000000000000000 ) ) ;
#102 = PRODUCT_DEFINITION ( 'UNKNOWN', '', #84, #220 ) ;
#103 = VERTEX_POINT ( 'NONE', #176 ) ;
#104 = COLOUR_RGB ( '',1.000000000000000000, 0.000000000000000000, 0.000000000000000000 ) ;
#105 = ORIENTED_EDGE ( 'NONE', *, *, #120, .F. ) ;
#106 = LENGTH_MEASURE_WITH_UNIT ( LENGTH_MEASURE( 0.02539999999999999897 ), #224 );
#107 = DIRECTION ( 'NONE',  ( -0.000000000000000000, -1.000000000000000000, -0.000000000000000000 ) ) ;
#108 = CIRCLE ( 'NONE', #155, 0.1875000000000001388 ) ;
#109 = CARTESIAN_POINT ( 'NONE',  ( -0.1875000000000002220, 3.000000000000000444, 0.000000000000000000 ) ) ;
#110 =( CONVERSION_BASED_UNIT ( 'INCH', #277 ) LENGTH_UNIT ( ) NAMED_UNIT ( #274 ) );
#111 = CARTESIAN_POINT ( 'NONE',  ( 3.032960542342103792E-32, 1.000000000000000000, 0.000000000000000000 ) ) ;
#112 =( NAMED_UNIT ( * ) SI_UNIT ( $, .STERADIAN. ) SOLID_ANGLE_UNIT ( ) );
#113 =( LENGTH_UNIT ( ) NAMED_UNIT ( * ) SI_UNIT ( $, .METRE. ) );
#114 = CLOSED_SHELL ( 'NONE', ( #299, #180, #260, #273 ) ) ;
#115 =( NAMED_UNIT ( * ) PLANE_ANGLE_UNIT ( ) SI_UNIT ( $, .RADIAN. ) );
#116 = PLANE ( 'NONE',  #265 ) ;
#117 = DIRECTION ( 'NONE',  ( -6.123233995736769734E-17, 1.000000000000000000, -0.000000000000000000 ) ) ;
#118 = AXIS2_PLACEMENT_3D ( 'NONE', #17, #107, #305 ) ;
#119 =( GEOMETRIC_REPRESENTATION_CONTEXT ( 3 ) GLOBAL_UNCERTAINTY_ASSIGNED_CONTEXT ( ( #31 ) ) GLOBAL_UNIT_ASSIGNED_CONTEXT ( ( #124, #132, #266 ) ) REPRESENTATION_CONTEXT ( 'NONE', 'WORKASPACE' ) );
#120 = EDGE_CURVE ( 'NONE', #35, #103, #205, .T. ) ;
#121 = FILL_AREA_STYLE_COLOUR ( '', #261 ) ;
#122 = DIRECTION ( 'NONE',  ( 1.000000000000000000, 0.000000000000000000, 0.000000000000000000 ) ) ;
#123 = CARTESIAN_POINT ( 'NONE',  ( 3.032960542342103792E-32, 1.000000000000000000, 0.000000000000000000 ) ) ;
#124 =( CONVERSION_BASED_UNIT ( 'INCH', #241 ) LENGTH_UNIT ( ) NAMED_UNIT ( #52 ) );
#125 = PRESENTATION_STYLE_ASSIGNMENT (( #10 ) ) ;
#126 = VECTOR ( 'NONE', #141, 39.37007874015748143 ) ;
#127 = ADVANCED_FACE ( 'NONE', ( #62 ), #182, .T. ) ;
#128 = CARTESIAN_POINT ( 'NONE',  ( -1.224646799147353700E-16, 3.000000000000000444, 0.000000000000000000 ) ) ;
#129 = EDGE_LOOP ( 'NONE', ( #291, #242 ) ) ;
#130 = VERTEX_POINT ( 'NONE', #304 ) ;
#131 = DIMENSIONAL_EXPONENTS ( 1.000000000000000000, 0.000000000000000000, 0.000000000000000000, 0.000000000000000000, 0.000000000000000000, 0.000000000000000000, 0.000000000000000000 ) ;
#132 =( NAMED_UNIT ( * ) PLANE_ANGLE_UNIT ( ) SI_UNIT ( $, .RADIAN. ) );
#133 = ORIENTED_EDGE ( 'NONE', *, *, #303, .F. ) ;
#134 = UNCERTAINTY_MEASURE_WITH_UNIT (LENGTH_MEASURE( 1.000000000000000082E-05 ), #110, 'distance_accuracy_value', 'NONE');
#135 = PRESENTATION_LAYER_ASSIGNMENT (  '', '', ( #258 ) ) ;
#136 = EDGE_CURVE ( 'NONE', #103, #147, #202, .T. ) ;
#137 = SURFACE_STYLE_FILL_AREA ( #251 ) ;
#138 = LINE ( 'NONE', #109, #177 ) ;
#139 = VECTOR ( 'NONE', #309, 39.37007874015748143 ) ;
#140 =( GEOMETRIC_REPRESENTATION_CONTEXT ( 3 ) GLOBAL_UNCERTAINTY_ASSIGNED_CONTEXT ( ( #272 ) ) GLOBAL_UNIT_ASSIGNED_CONTEXT ( ( #235, #162, #25 ) ) REPRESENTATION_CONTEXT ( 'NONE', 'WORKASPACE' ) );
#141 = DIRECTION ( 'NONE',  ( -6.123233995736769734E-17, 1.000000000000000000, -0.000000000000000000 ) ) ;
#142 = SURFACE_SIDE_STYLE ('',( #4 ) ) ;
#143 = PRESENTATION_STYLE_ASSIGNMENT (( #234 ) ) ;
#144 = MECHANICAL_DESIGN_GEOMETRIC_PRESENTATION_REPRESENTATION (  '', ( #30 ), #252 ) ;
#145 = MECHANICAL_DESIGN_GEOMETRIC_PRESENTATION_REPRESENTATION (  '', ( #8 ), #44 ) ;
#146 = DIRECTION ( 'NONE',  ( -1.000000000000000000, 0.000000000000000000, 0.000000000000000000 ) ) ;
#147 = VERTEX_POINT ( 'NONE', #276 ) ;
#148 = CARTESIAN_POINT ( 'NONE',  ( 0.000000000000000000, 0.000000000000000000, 0.000000000000000000 ) ) ;
#149 = ORIENTED_EDGE ( 'NONE', *, *, #46, .T. ) ;
#150 = AXIS2_PLACEMENT_3D ( 'NONE', #60, #253, #228 ) ;
#151 = VERTEX_POINT ( 'NONE', #157 ) ;
#152 = ORIENTED_EDGE ( 'NONE', *, *, #67, .T. ) ;
#153 = EDGE_CURVE ( 'NONE', #245, #172, #108, .T. ) ;
#154 = ORIENTED_EDGE ( 'NONE', *, *, #153, .F. ) ;
#155 = AXIS2_PLACEMENT_3D ( 'NONE', #36, #20, #280 ) ;
#156 = PRESENTATION_LAYER_ASSIGNMENT (  '', '', ( #8 ) ) ;
#157 = CARTESIAN_POINT ( 'NONE',  ( 2.296212748401287726E-17, 1.000000000000000000, 0.1875000000000000278 ) ) ;
#158 = FILL_AREA_STYLE_COLOUR ( '', #300 ) ;
#159 = COLOUR_RGB ( '',1.000000000000000000, 0.000000000000000000, 0.000000000000000000 ) ;
#160 = DIRECTION ( 'NONE',  ( -1.000000000000000000, -6.123233995736769734E-17, 0.000000000000000000 ) ) ;
#161 = AXIS2_PLACEMENT_3D ( 'NONE', #236, #117, #146 ) ;
#162 =( NAMED_UNIT ( * ) PLANE_ANGLE_UNIT ( ) SI_UNIT ( $, .RADIAN. ) );
#163 = PLANE ( 'NONE',  #61 ) ;
#164 = CARTESIAN_POINT ( 'NONE',  ( -1.224646799147353700E-16, 3.000000000000000444, 0.000000000000000000 ) ) ;
#165 = LENGTH_MEASURE_WITH_UNIT ( LENGTH_MEASURE( 0.02539999999999999897 ), #307 );
#166 = FILL_AREA_STYLE ('',( #41 ) ) ;
#167 = APPLICATION_CONTEXT ( 'automotive_design' ) ;
#168 = PRESENTATION_STYLE_ASSIGNMENT (( #289 ) ) ;
#169 = STYLED_ITEM ( 'NONE', ( #125 ), #39 ) ;
#170 = SURFACE_SIDE_STYLE ('',( #34 ) ) ;
#171 = DIMENSIONAL_EXPONENTS ( 1.000000000000000000, 0.000000000000000000, 0.000000000000000000, 0.000000000000000000, 0.000000000000000000, 0.000000000000000000, 0.000000000000000000 ) ;
#172 = VERTEX_POINT ( 'NONE', #250 ) ;
#173 = CIRCLE ( 'NONE', #214, 0.1875000000000000278 ) ;
#174 = DIRECTION ( 'NONE',  ( 0.000000000000000000, 0.000000000000000000, 1.000000000000000000 ) ) ;
#175 = EDGE_CURVE ( 'NONE', #35, #151, #285, .T. ) ;
#176 = CARTESIAN_POINT ( 'NONE',  ( 0.000000000000000000, 0.000000000000000000, -0.1875000000000000278 ) ) ;
#177 = VECTOR ( 'NONE', #87, 39.37007874015748143 ) ;
#178 = CIRCLE ( 'NONE', #161, 0.1875000000000001388 ) ;
#179 = DIRECTION ( 'NONE',  ( -0.000000000000000000, -1.000000000000000000, -0.000000000000000000 ) ) ;
#180 = ADVANCED_FACE ( 'NONE', ( #238 ), #116, .F. ) ;
#181 = LINE ( 'NONE', #201, #126 ) ;
#182 = CYLINDRICAL_SURFACE ( 'NONE', #118, 0.1875000000000000278 ) ;
#183 = AXIS2_PLACEMENT_3D ( 'NONE', #187, #188, #208 ) ;
#184 = AXIS2_PLACEMENT_3D ( 'NONE', #218, #174, #122 ) ;
#185 = DIRECTION ( 'NONE',  ( -6.123233995736769734E-17, 1.000000000000000000, -0.000000000000000000 ) ) ;
#186 = EDGE_CURVE ( 'NONE', #151, #147, #283, .T. ) ;
#187 = CARTESIAN_POINT ( 'NONE',  ( 0.000000000000000000, 0.000000000000000000, 0.000000000000000000 ) ) ;
#188 = DIRECTION ( 'NONE',  ( 0.000000000000000000, -1.000000000000000000, -0.000000000000000000 ) ) ;
#189 = LENGTH_MEASURE_WITH_UNIT ( LENGTH_MEASURE( 0.02539999999999999897 ), #95 );
#190 = SURFACE_STYLE_USAGE ( .BOTH. , #142 ) ;
#191 = PRESENTATION_STYLE_ASSIGNMENT (( #71 ) ) ;
#192 = FILL_AREA_STYLE ('',( #121 ) ) ;
#193 = FILL_AREA_STYLE ('',( #219 ) ) ;
#194 = ADVANCED_FACE ( 'NONE', ( #42 ), #48, .T. ) ;
#195 = DIRECTION ( 'NONE',  ( -1.000000000000000000, 0.000000000000000000, 0.000000000000000000 ) ) ;
#196 = EDGE_LOOP ( 'NONE', ( #77, #271 ) ) ;
#197 = ORIENTED_EDGE ( 'NONE', *, *, #136, .T. ) ;
#198 = DIMENSIONAL_EXPONENTS ( 1.000000000000000000, 0.000000000000000000, 0.000000000000000000, 0.000000000000000000, 0.000000000000000000, 0.000000000000000000, 0.000000000000000000 ) ;
#199 = ORIENTED_EDGE ( 'NONE', *, *, #303, .T. ) ;
#200 = SURFACE_STYLE_USAGE ( .BOTH. , #37 ) ;
#201 = CARTESIAN_POINT ( 'NONE',  ( 0.1874999999999999445, 3.000000000000000444, 2.296212748401288342E-17 ) ) ;
#202 = CIRCLE ( 'NONE', #12, 0.1875000000000000278 ) ;
#203 = DIRECTION ( 'NONE',  ( -1.000000000000000000, 0.000000000000000000, 0.000000000000000000 ) ) ;
#204 = CARTESIAN_POINT ( 'NONE',  ( 0.000000000000000000, 0.000000000000000000, -0.1875000000000000278 ) ) ;
#205 = LINE ( 'NONE', #204, #275 ) ;
#206 = PRESENTATION_LAYER_ASSIGNMENT (  '', '', ( #30 ) ) ;
#207 = MECHANICAL_DESIGN_GEOMETRIC_PRESENTATION_REPRESENTATION (  '', ( #92 ), #140 ) ;
#208 = DIRECTION ( 'NONE',  ( 0.000000000000000000, 0.000000000000000000, -1.000000000000000000 ) ) ;
#209 = UNCERTAINTY_MEASURE_WITH_UNIT (LENGTH_MEASURE( 1.000000000000000082E-05 ), #287, 'distance_accuracy_value', 'NONE');
#210 = CARTESIAN_POINT ( 'NONE',  ( 0.000000000000000000, 1.000000000000000000, 0.000000000000000000 ) ) ;
#211 = DIRECTION ( 'NONE',  ( 0.000000000000000000, -0.000000000000000000, 1.000000000000000000 ) ) ;
#212 = ADVANCED_FACE ( 'NONE', ( #40 ), #163, .T. ) ;
#213 = FILL_AREA_STYLE ('',( #65 ) ) ;
#214 = AXIS2_PLACEMENT_3D ( 'NONE', #290, #11, #74 ) ;
#215 =( LENGTH_UNIT ( ) NAMED_UNIT ( * ) SI_UNIT ( $, .METRE. ) );
#216 = ORIENTED_EDGE ( 'NONE', *, *, #67, .F. ) ;
#217 = ORIENTED_EDGE ( 'NONE', *, *, #82, .T. ) ;
#218 = CARTESIAN_POINT ( 'NONE',  ( 0.000000000000000000, 0.000000000000000000, 0.000000000000000000 ) ) ;
#219 = FILL_AREA_STYLE_COLOUR ( '', #43 ) ;
#220 = PRODUCT_DEFINITION_CONTEXT ( 'detailed design', #54, 'design' ) ;
#221 = CYLINDRICAL_SURFACE ( 'NONE', #15, 0.1875000000000000833 ) ;
#222 = ORIENTED_EDGE ( 'NONE', *, *, #175, .T. ) ;
#223 = PRESENTATION_STYLE_ASSIGNMENT (( #200 ) ) ;
#224 =( LENGTH_UNIT ( ) NAMED_UNIT ( * ) SI_UNIT ( $, .METRE. ) );
#225 = AXIS2_PLACEMENT_3D ( 'NONE', #111, #185, #80 ) ;
#226 =( GEOMETRIC_REPRESENTATION_CONTEXT ( 3 ) GLOBAL_UNCERTAINTY_ASSIGNED_CONTEXT ( ( #209 ) ) GLOBAL_UNIT_ASSIGNED_CONTEXT ( ( #287, #229, #21 ) ) REPRESENTATION_CONTEXT ( 'NONE', 'WORKASPACE' ) );
#227 = CARTESIAN_POINT ( 'NONE',  ( 0.000000000000000000, 0.000000000000000000, 0.000000000000000000 ) ) ;
#228 = DIRECTION ( 'NONE',  ( 0.000000000000000000, 0.000000000000000000, -1.000000000000000000 ) ) ;
#229 =( NAMED_UNIT ( * ) PLANE_ANGLE_UNIT ( ) SI_UNIT ( $, .RADIAN. ) );
#230 = FACE_OUTER_BOUND ( 'NONE', #247, .T. ) ;
#231 = CARTESIAN_POINT ( 'NONE',  ( 2.296212748401287726E-17, 0.000000000000000000, 0.1875000000000000278 ) ) ;
#232 = FACE_OUTER_BOUND ( 'NONE', #267, .T. ) ;
#233 = UNCERTAINTY_MEASURE_WITH_UNIT (LENGTH_MEASURE( 1.000000000000000082E-05 ), #257, 'distance_accuracy_value', 'NONE');
#234 = SURFACE_STYLE_USAGE ( .BOTH. , #26 ) ;
#235 =( CONVERSION_BASED_UNIT ( 'INCH', #189 ) LENGTH_UNIT ( ) NAMED_UNIT ( #59 ) );
#236 = CARTESIAN_POINT ( 'NONE',  ( -1.224646799147353700E-16, 3.000000000000000444, 0.000000000000000000 ) ) ;
#237 = MECHANICAL_DESIGN_GEOMETRIC_PRESENTATION_REPRESENTATION (  '', ( #169 ), #19 ) ;
#238 = FACE_OUTER_BOUND ( 'NONE', #129, .T. ) ;
#239 = EDGE_CURVE ( 'NONE', #172, #245, #178, .T. ) ;
#240 = PRODUCT_DEFINITION_SHAPE ( 'NONE', 'NONE',  #102 ) ;
#241 = LENGTH_MEASURE_WITH_UNIT ( LENGTH_MEASURE( 0.02539999999999999897 ), #97 );
#242 = ORIENTED_EDGE ( 'NONE', *, *, #72, .F. ) ;
#243 = LENGTH_MEASURE_WITH_UNIT ( LENGTH_MEASURE( 0.02539999999999999897 ), #75 );
#244 = APPLICATION_PROTOCOL_DEFINITION ( 'draft international standard', 'automotive_design', 1998, #54 ) ;
#245 = VERTEX_POINT ( 'NONE', #27 ) ;
#246 = MANIFOLD_SOLID_BREP ( 'Revolve - Cutting Edge', #256 ) ;
#247 = EDGE_LOOP ( 'NONE', ( #222, #9, #262, #105 ) ) ;
#248 = AXIS2_PLACEMENT_3D ( 'NONE', #264, #6, #101 ) ;
#249 = DIRECTION ( 'NONE',  ( -6.123233995736769734E-17, 1.000000000000000000, -0.000000000000000000 ) ) ;
#250 = CARTESIAN_POINT ( 'NONE',  ( 0.1875000000000000278, 3.000000000000000444, 2.296212748401288650E-17 ) ) ;
#251 = FILL_AREA_STYLE ('',( #158 ) ) ;
#252 =( GEOMETRIC_REPRESENTATION_CONTEXT ( 3 ) GLOBAL_UNCERTAINTY_ASSIGNED_CONTEXT ( ( #55 ) ) GLOBAL_UNIT_ASSIGNED_CONTEXT ( ( #85, #302, #58 ) ) REPRESENTATION_CONTEXT ( 'NONE', 'WORKASPACE' ) );
#253 = DIRECTION ( 'NONE',  ( -0.000000000000000000, -1.000000000000000000, -0.000000000000000000 ) ) ;
#254 = CARTESIAN_POINT ( 'NONE',  ( 3.515061990613733472E-34, 1.000000000000000000, 0.000000000000000000 ) ) ;
#255 = SURFACE_SIDE_STYLE ('',( #93 ) ) ;
#256 = CLOSED_SHELL ( 'NONE', ( #279, #212, #127, #194 ) ) ;
#257 =( CONVERSION_BASED_UNIT ( 'INCH', #165 ) LENGTH_UNIT ( ) NAMED_UNIT ( #198 ) );
#258 = STYLED_ITEM ( 'NONE', ( #143 ), #212 ) ;
#259 = SURFACE_SIDE_STYLE ('',( #5 ) ) ;
#260 = ADVANCED_FACE ( 'NONE', ( #94 ), #96, .T. ) ;
#261 = COLOUR_RGB ( '',0.7921568627450980005, 0.8196078431372548767, 0.9333333333333333481 ) ;
#262 = ORIENTED_EDGE ( 'NONE', *, *, #136, .F. ) ;
#263 = DIRECTION ( 'NONE',  ( -0.000000000000000000, -1.000000000000000000, -0.000000000000000000 ) ) ;
#264 = CARTESIAN_POINT ( 'NONE',  ( 0.000000000000000000, 1.000000000000000000, 0.000000000000000000 ) ) ;
#265 = AXIS2_PLACEMENT_3D ( 'NONE', #254, #63, #160 ) ;
#266 =( NAMED_UNIT ( * ) SI_UNIT ( $, .STERADIAN. ) SOLID_ANGLE_UNIT ( ) );
#267 = EDGE_LOOP ( 'NONE', ( #56, #293 ) ) ;
#268 = AXIS2_PLACEMENT_3D ( 'NONE', #164, #64, #288 ) ;
#269 = APPLICATION_PROTOCOL_DEFINITION ( 'draft international standard', 'automotive_design', 1998, #167 ) ;
#270 = ORIENTED_EDGE ( 'NONE', *, *, #72, .T. ) ;
#271 = ORIENTED_EDGE ( 'NONE', *, *, #18, .F. ) ;
#272 = UNCERTAINTY_MEASURE_WITH_UNIT (LENGTH_MEASURE( 1.000000000000000082E-05 ), #235, 'distance_accuracy_value', 'NONE');
#273 = ADVANCED_FACE ( 'NONE', ( #232 ), #23, .F. ) ;
#274 = DIMENSIONAL_EXPONENTS ( 1.000000000000000000, 0.000000000000000000, 0.000000000000000000, 0.000000000000000000, 0.000000000000000000, 0.000000000000000000, 0.000000000000000000 ) ;
#275 = VECTOR ( 'NONE', #179, 39.37007874015748143 ) ;
#276 = CARTESIAN_POINT ( 'NONE',  ( 2.296212748401287726E-17, 0.000000000000000000, 0.1875000000000000278 ) ) ;
#277 = LENGTH_MEASURE_WITH_UNIT ( LENGTH_MEASURE( 0.02539999999999999897 ), #215 );
#278 = DIRECTION ( 'NONE',  ( -0.000000000000000000, -1.000000000000000000, -0.000000000000000000 ) ) ;
#279 = ADVANCED_FACE ( 'NONE', ( #230 ), #66, .T. ) ;
#280 = DIRECTION ( 'NONE',  ( -1.000000000000000000, 0.000000000000000000, 0.000000000000000000 ) ) ;
#281 =( GEOMETRIC_REPRESENTATION_CONTEXT ( 3 ) GLOBAL_UNCERTAINTY_ASSIGNED_CONTEXT ( ( #233 ) ) GLOBAL_UNIT_ASSIGNED_CONTEXT ( ( #257, #68, #90 ) ) REPRESENTATION_CONTEXT ( 'NONE', 'WORKASPACE' ) );
#282 = CARTESIAN_POINT ( 'NONE',  ( -0.1875000000000000278, 1.000000000000000000, 0.000000000000000000 ) ) ;
#283 = LINE ( 'NONE', #231, #139 ) ;
#284 = DIRECTION ( 'NONE',  ( 6.123233995736769734E-17, -1.000000000000000000, 0.000000000000000000 ) ) ;
#285 = CIRCLE ( 'NONE', #150, 0.1875000000000000278 ) ;
#286 = PRESENTATION_STYLE_ASSIGNMENT (( #190 ) ) ;
#287 =( CONVERSION_BASED_UNIT ( 'INCH', #47 ) LENGTH_UNIT ( ) NAMED_UNIT ( #171 ) );
#288 = DIRECTION ( 'NONE',  ( -1.000000000000000000, 0.000000000000000000, 0.000000000000000000 ) ) ;
#289 = SURFACE_STYLE_USAGE ( .BOTH. , #259 ) ;
#290 = CARTESIAN_POINT ( 'NONE',  ( 0.000000000000000000, 0.000000000000000000, 0.000000000000000000 ) ) ;
#291 = ORIENTED_EDGE ( 'NONE', *, *, #46, .F. ) ;
#292 = EDGE_LOOP ( 'NONE', ( #98, #53, #14, #133 ) ) ;
#293 = ORIENTED_EDGE ( 'NONE', *, *, #239, .T. ) ;
#294 = DIMENSIONAL_EXPONENTS ( 1.000000000000000000, 0.000000000000000000, 0.000000000000000000, 0.000000000000000000, 0.000000000000000000, 0.000000000000000000, 0.000000000000000000 ) ;
#295 = MECHANICAL_DESIGN_GEOMETRIC_PRESENTATION_REPRESENTATION (  '', ( #1 ), #281 ) ;
#296 =( CONVERSION_BASED_UNIT ( 'INCH', #243 ) LENGTH_UNIT ( ) NAMED_UNIT ( #294 ) );
#297 = PRESENTATION_LAYER_ASSIGNMENT (  '', '', ( #92 ) ) ;
#298 = ORIENTED_EDGE ( 'NONE', *, *, #82, .F. ) ;
#299 = ADVANCED_FACE ( 'NONE', ( #13 ), #221, .T. ) ;
#300 = COLOUR_RGB ( '',1.000000000000000000, 0.000000000000000000, 0.000000000000000000 ) ;
#301 = AXIS2_PLACEMENT_3D ( 'NONE', #148, #263, #33 ) ;
#302 =( NAMED_UNIT ( * ) PLANE_ANGLE_UNIT ( ) SI_UNIT ( $, .RADIAN. ) );
#303 = EDGE_CURVE ( 'NONE', #147, #103, #173, .T. ) ;
#304 = CARTESIAN_POINT ( 'NONE',  ( 0.1875000000000000278, 1.000000000000000000, 2.296212748401288650E-17 ) ) ;
#305 = DIRECTION ( 'NONE',  ( 0.000000000000000000, 0.000000000000000000, -1.000000000000000000 ) ) ;
#306 = MECHANICAL_DESIGN_GEOMETRIC_PRESENTATION_REPRESENTATION (  '', ( #258 ), #226 ) ;
#307 =( LENGTH_UNIT ( ) NAMED_UNIT ( * ) SI_UNIT ( $, .METRE. ) );
#308 = DIRECTION ( 'NONE',  ( 1.000000000000000000, 6.123233995736769734E-17, 0.000000000000000000 ) ) ;
#309 = DIRECTION ( 'NONE',  ( -0.000000000000000000, -1.000000000000000000, -0.000000000000000000 ) ) ;
ENDSEC;
END-ISO-10303-21;
