ISO-10303-21;
HEADER;
FILE_DESCRIPTION (( 'STEP AP214' ),
    '1' );
FILE_NAME ('Micro_GLRM-100-2X.STEP',
    '2021-09-03T16:20:20',
    ( '' ),
    ( '' ),
    'SwSTEP 2.0',
    'SolidWorks 2020',
    '' );
FILE_SCHEMA (( 'AUTOMOTIVE_DESIGN' ));
ENDSEC;

DATA;
#1 = AXIS2_PLACEMENT_3D ( 'NONE', #11, #359, #330 ) ;
#2 = VERTEX_POINT ( 'NONE', #322 ) ;
#3 = APPLICATION_PROTOCOL_DEFINITION ( 'draft international standard', 'automotive_design', 1998, #120 ) ;
#4 = ORIENTED_EDGE ( 'NONE', *, *, #340, .T. ) ;
#5 = CARTESIAN_POINT ( 'NONE',  ( 0.0000000000000000000, 0.0000000000000000000, 4.724409000000001413 ) ) ;
#6 = EDGE_CURVE ( 'NONE', #351, #256, #175, .T. ) ;
#7 = DIRECTION ( 'NONE',  ( 1.000000000000000000, 0.0000000000000000000, 0.0000000000000000000 ) ) ;
#8 = CYLINDRICAL_SURFACE ( 'NONE', #342, 0.1870080000000002018 ) ;
#9 = AXIS2_PLACEMENT_3D ( 'NONE', #367, #165, #191 ) ;
#10 = LINE ( 'NONE', #99, #252 ) ;
#11 = CARTESIAN_POINT ( 'NONE',  ( 0.0000000000000000000, 0.0000000000000000000, 2.559054999999999858 ) ) ;
#12 = CARTESIAN_POINT ( 'NONE',  ( 0.0000000000000000000, 0.0000000000000000000, 0.0000000000000000000 ) ) ;
#13 = MECHANICAL_DESIGN_GEOMETRIC_PRESENTATION_REPRESENTATION (  '', ( #71 ), #226 ) ;
#14 = CARTESIAN_POINT ( 'NONE',  ( -0.1968308149500000714, 0.0000000000000000000, 0.0000000000000000000 ) ) ;
#15 = LINE ( 'NONE', #215, #239 ) ;
#16 = ADVANCED_FACE ( 'NONE', ( #149 ), #204, .T. ) ;
#17 = FACE_OUTER_BOUND ( 'NONE', #170, .T. ) ;
#18 = VECTOR ( 'NONE', #246, 39.37007874015748143 ) ;
#19 = CARTESIAN_POINT ( 'NONE',  ( 0.0000000000000000000, 0.0000000000000000000, 2.559054999999999858 ) ) ;
#20 = VERTEX_POINT ( 'NONE', #229 ) ;
#21 = CARTESIAN_POINT ( 'NONE',  ( -0.1818504999999994431, 0.0000000000000000000, 4.724409000000001413 ) ) ;
#22 = VERTEX_POINT ( 'NONE', #345 ) ;
#23 = ORIENTED_EDGE ( 'NONE', *, *, #258, .F. ) ;
#24 = ADVANCED_FACE ( 'NONE', ( #299 ), #273, .T. ) ;
#25 = AXIS2_PLACEMENT_3D ( 'NONE', #5, #211, #243 ) ;
#26 = APPLICATION_PROTOCOL_DEFINITION ( 'draft international standard', 'automotive_design', 1998, #52 ) ;
#27 = AXIS2_PLACEMENT_3D ( 'NONE', #264, #259, #288 ) ;
#28 = ORIENTED_EDGE ( 'NONE', *, *, #92, .T. ) ;
#29 = DIRECTION ( 'NONE',  ( -1.000000000000000000, 0.0000000000000000000, 0.0000000000000000000 ) ) ;
#30 = DIRECTION ( 'NONE',  ( -0.0000000000000000000, -0.0000000000000000000, -1.000000000000000000 ) ) ;
#31 = SURFACE_STYLE_USAGE ( .BOTH. , #62 ) ;
#32 = EDGE_CURVE ( 'NONE', #292, #2, #66, .T. ) ;
#33 = EDGE_LOOP ( 'NONE', ( #64, #36, #233, #320 ) ) ;
#34 = FACE_OUTER_BOUND ( 'NONE', #286, .T. ) ;
#35 = MECHANICAL_DESIGN_GEOMETRIC_PRESENTATION_REPRESENTATION (  '', ( #192 ), #290 ) ;
#36 = ORIENTED_EDGE ( 'NONE', *, *, #108, .T. ) ;
#37 =( NAMED_UNIT ( * ) SI_UNIT ( $, .STERADIAN. ) SOLID_ANGLE_UNIT ( ) );
#38 = CARTESIAN_POINT ( 'NONE',  ( 0.0000000000000000000, 0.0000000000000000000, 0.0000000000000000000 ) ) ;
#39 = CARTESIAN_POINT ( 'NONE',  ( 0.1968308149500000714, 2.410482275020825838E-17, 0.7086609999999999854 ) ) ;
#40 = PRODUCT_CONTEXT ( 'NONE', #52, 'mechanical' ) ;
#41 = DIRECTION ( 'NONE',  ( -0.1736481776669306643, 0.0000000000000000000, -0.9848077530122080203 ) ) ;
#42 = CONICAL_SURFACE ( 'NONE', #307, 0.1968308149500000714, 0.1745329251994332809 ) ;
#43 = DIRECTION ( 'NONE',  ( -1.000000000000000000, 0.0000000000000000000, 0.0000000000000000000 ) ) ;
#44 = DIRECTION ( 'NONE',  ( 0.0000000000000000000, 0.0000000000000000000, -1.000000000000000000 ) ) ;
#45 = CARTESIAN_POINT ( 'NONE',  ( 0.1870080000000000908, 2.350334880585154396E-17, 0.7643689518434039210 ) ) ;
#46 = CIRCLE ( 'NONE', #106, 0.1968504999999999838 ) ;
#47 = CARTESIAN_POINT ( 'NONE',  ( 0.1818504999999994431, 2.318874837419505661E-17, 4.724409000000001413 ) ) ;
#48 = ADVANCED_FACE ( 'NONE', ( #354 ), #8, .T. ) ;
#49 = CARTESIAN_POINT ( 'NONE',  ( 0.0000000000000000000, 0.0000000000000000000, 2.559054999999999858 ) ) ;
#50 = EDGE_LOOP ( 'NONE', ( #203, #349, #236, #152 ) ) ;
#51 = CARTESIAN_POINT ( 'NONE',  ( 0.0000000000000000000, 0.0000000000000000000, 0.7643689518434039210 ) ) ;
#52 = APPLICATION_CONTEXT ( 'automotive_design' ) ;
#53 = AXIS2_PLACEMENT_3D ( 'NONE', #364, #249, #135 ) ;
#54 = LINE ( 'NONE', #14, #139 ) ;
#55 = ORIENTED_EDGE ( 'NONE', *, *, #108, .F. ) ;
#56 = DIRECTION ( 'NONE',  ( -0.0000000000000000000, -0.0000000000000000000, -1.000000000000000000 ) ) ;
#57 = ORIENTED_EDGE ( 'NONE', *, *, #92, .F. ) ;
#58 = EDGE_CURVE ( 'NONE', #88, #365, #185, .T. ) ;
#59 = CIRCLE ( 'NONE', #199, 0.1968308149500000714 ) ;
#60 = ORIENTED_EDGE ( 'NONE', *, *, #262, .F. ) ;
#61 = ADVANCED_FACE ( 'NONE', ( #357 ), #91, .T. ) ;
#62 = SURFACE_SIDE_STYLE ('',( #347 ) ) ;
#63 = VERTEX_POINT ( 'NONE', #72 ) ;
#64 = ORIENTED_EDGE ( 'NONE', *, *, #234, .T. ) ;
#65 = CARTESIAN_POINT ( 'NONE',  ( 0.0000000000000000000, 0.0000000000000000000, 2.559054999999999858 ) ) ;
#66 = LINE ( 'NONE', #39, #244 ) ;
#67 = DIRECTION ( 'NONE',  ( 1.000000000000000000, 0.0000000000000000000, -0.0000000000000000000 ) ) ;
#68 = EDGE_CURVE ( 'NONE', #22, #377, #272, .T. ) ;
#69 = CYLINDRICAL_SURFACE ( 'NONE', #144, 0.1968308149500000714 ) ;
#70 = CIRCLE ( 'NONE', #138, 0.1968504999999999838 ) ;
#71 = STYLED_ITEM ( 'NONE', ( #314 ), #222 ) ;
#72 = CARTESIAN_POINT ( 'NONE',  ( -0.1818504999999994431, 0.0000000000000000000, 4.724409000000001413 ) ) ;
#73 = DIRECTION ( 'NONE',  ( -1.000000000000000000, 0.0000000000000000000, 0.0000000000000000000 ) ) ;
#74 = DIRECTION ( 'NONE',  ( -0.0000000000000000000, -0.0000000000000000000, -1.000000000000000000 ) ) ;
#75 = EDGE_LOOP ( 'NONE', ( #250, #137, #260, #237 ) ) ;
#76 = CIRCLE ( 'NONE', #355, 0.1968504999999999838 ) ;
#77 = CIRCLE ( 'NONE', #219, 0.1968308149500000714 ) ;
#78 = DIRECTION ( 'NONE',  ( 1.000000000000000000, 0.0000000000000000000, 0.0000000000000000000 ) ) ;
#79 = CYLINDRICAL_SURFACE ( 'NONE', #27, 0.1968308149500000714 ) ;
#80 = CARTESIAN_POINT ( 'NONE',  ( 0.0000000000000000000, 0.0000000000000000000, 4.724409000000001413 ) ) ;
#81 = FILL_AREA_STYLE ('',( #174 ) ) ;
#82 = ORIENTED_EDGE ( 'NONE', *, *, #58, .T. ) ;
#83 = ORIENTED_EDGE ( 'NONE', *, *, #328, .F. ) ;
#84 = AXIS2_PLACEMENT_3D ( 'NONE', #12, #274, #67 ) ;
#85 = AXIS2_PLACEMENT_3D ( 'NONE', #187, #130, #7 ) ;
#86 = ORIENTED_EDGE ( 'NONE', *, *, #262, .T. ) ;
#87 = CARTESIAN_POINT ( 'NONE',  ( 0.0000000000000000000, 0.0000000000000000000, 0.7086609999999999854 ) ) ;
#88 = VERTEX_POINT ( 'NONE', #188 ) ;
#89 =( NAMED_UNIT ( * ) PLANE_ANGLE_UNIT ( ) SI_UNIT ( $, .RADIAN. ) );
#90 = DIRECTION ( 'NONE',  ( -1.000000000000000000, 0.0000000000000000000, 0.0000000000000000000 ) ) ;
#91 = CONICAL_SURFACE ( 'NONE', #281, 0.1818504999999994431, 0.7853981633974403964 ) ;
#92 = EDGE_CURVE ( 'NONE', #63, #296, #325, .T. ) ;
#93 = AXIS2_PLACEMENT_3D ( 'NONE', #80, #311, #276 ) ;
#94 = CARTESIAN_POINT ( 'NONE',  ( -0.1968308149500000714, 0.0000000000000000000, 0.7086609999999999854 ) ) ;
#95 = CARTESIAN_POINT ( 'NONE',  ( 0.0000000000000000000, 0.0000000000000000000, 4.724409000000001413 ) ) ;
#96 = UNCERTAINTY_MEASURE_WITH_UNIT (LENGTH_MEASURE( 1.000000000000000082E-05 ), #295, 'distance_accuracy_value', 'NONE');
#97 = DIRECTION ( 'NONE',  ( -1.000000000000000000, 0.0000000000000000000, 0.0000000000000000000 ) ) ;
#98 = EDGE_CURVE ( 'NONE', #372, #351, #70, .T. ) ;
#99 = CARTESIAN_POINT ( 'NONE',  ( 0.1870080000000002018, 2.290187486149484802E-17, 0.0000000000000000000 ) ) ;
#100 = VECTOR ( 'NONE', #303, 39.37007874015748143 ) ;
#101 = CARTESIAN_POINT ( 'NONE',  ( -0.1870080000000002018, 0.0000000000000000000, 0.0000000000000000000 ) ) ;
#102 = DIRECTION ( 'NONE',  ( 0.0000000000000000000, 0.0000000000000000000, -1.000000000000000000 ) ) ;
#103 = ORIENTED_EDGE ( 'NONE', *, *, #119, .T. ) ;
#104 = LINE ( 'NONE', #21, #271 ) ;
#105 = VERTEX_POINT ( 'NONE', #327 ) ;
#106 = AXIS2_PLACEMENT_3D ( 'NONE', #338, #196, #217 ) ;
#107 = DIRECTION ( 'NONE',  ( -0.0000000000000000000, -0.0000000000000000000, -1.000000000000000000 ) ) ;
#108 = EDGE_CURVE ( 'NONE', #88, #292, #10, .T. ) ;
#109 = DIRECTION ( 'NONE',  ( -1.000000000000000000, 0.0000000000000000000, 0.0000000000000000000 ) ) ;
#110 = LENGTH_MEASURE_WITH_UNIT ( LENGTH_MEASURE( 0.02539999999999999897 ), #115 );
#111 = ORIENTED_EDGE ( 'NONE', *, *, #301, .T. ) ;
#112 = CARTESIAN_POINT ( 'NONE',  ( 0.1968504999999999838, 2.410723347355560646E-17, 4.724409000000001413 ) ) ;
#113 = SURFACE_STYLE_USAGE ( .BOTH. , #148 ) ;
#114 = ORIENTED_EDGE ( 'NONE', *, *, #195, .F. ) ;
#115 =( LENGTH_UNIT ( ) NAMED_UNIT ( * ) SI_UNIT ( $, .METRE. ) );
#116 = ORIENTED_EDGE ( 'NONE', *, *, #98, .F. ) ;
#117 = PRESENTATION_STYLE_ASSIGNMENT (( #113 ) ) ;
#118 = ORIENTED_EDGE ( 'NONE', *, *, #333, .F. ) ;
#119 = EDGE_CURVE ( 'NONE', #296, #351, #360, .T. ) ;
#120 = APPLICATION_CONTEXT ( 'automotive_design' ) ;
#121 = EDGE_LOOP ( 'NONE', ( #55, #82, #279, #316 ) ) ;
#122 = DIRECTION ( 'NONE',  ( -0.0000000000000000000, -0.0000000000000000000, -1.000000000000000000 ) ) ;
#123 = LENGTH_MEASURE_WITH_UNIT ( LENGTH_MEASURE( 0.02539999999999999897 ), #228 );
#124 = AXIS2_PLACEMENT_3D ( 'NONE', #147, #379, #374 ) ;
#125 = ADVANCED_FACE ( 'NONE', ( #160 ), #131, .F. ) ;
#126 = PRODUCT_DEFINITION_FORMATION_WITH_SPECIFIED_SOURCE ( 'ANY', '', #358, .NOT_KNOWN. ) ;
#127 = CARTESIAN_POINT ( 'NONE',  ( 0.0000000000000000000, 0.0000000000000000000, 4.709409000000000844 ) ) ;
#128 = LINE ( 'NONE', #132, #18 ) ;
#129 = EDGE_CURVE ( 'NONE', #105, #20, #218, .T. ) ;
#130 = DIRECTION ( 'NONE',  ( 0.0000000000000000000, 0.0000000000000000000, 1.000000000000000000 ) ) ;
#131 = PLANE ( 'NONE',  #84 ) ;
#132 = CARTESIAN_POINT ( 'NONE',  ( -0.1968504999999999838, 0.0000000000000000000, 4.724409000000001413 ) ) ;
#133 = AXIS2_PLACEMENT_3D ( 'NONE', #278, #102, #216 ) ;
#134 = PLANE ( 'NONE',  #93 ) ;
#135 = DIRECTION ( 'NONE',  ( -1.000000000000000000, 0.0000000000000000000, 0.0000000000000000000 ) ) ;
#136 = DIRECTION ( 'NONE',  ( -0.0000000000000000000, -0.0000000000000000000, -1.000000000000000000 ) ) ;
#137 = ORIENTED_EDGE ( 'NONE', *, *, #227, .T. ) ;
#138 = AXIS2_PLACEMENT_3D ( 'NONE', #127, #44, #241 ) ;
#139 = VECTOR ( 'NONE', #220, 39.37007874015748143 ) ;
#140 = DIRECTION ( 'NONE',  ( -0.0000000000000000000, -0.0000000000000000000, -1.000000000000000000 ) ) ;
#141 = EDGE_CURVE ( 'NONE', #372, #178, #128, .T. ) ;
#142 = FACE_BOUND ( 'NONE', #265, .T. ) ;
#143 = ORIENTED_EDGE ( 'NONE', *, *, #323, .F. ) ;
#144 = AXIS2_PLACEMENT_3D ( 'NONE', #212, #122, #181 ) ;
#145 = COLOUR_RGB ( '',0.7921568627450980005, 0.8196078431372548767, 0.9333333333333333481 ) ;
#146 =( NAMED_UNIT ( * ) PLANE_ANGLE_UNIT ( ) SI_UNIT ( $, .RADIAN. ) );
#147 = CARTESIAN_POINT ( 'NONE',  ( 0.0000000000000000000, 0.0000000000000000000, 4.724409000000001413 ) ) ;
#148 = SURFACE_SIDE_STYLE ('',( #171 ) ) ;
#149 = FACE_OUTER_BOUND ( 'NONE', #50, .T. ) ;
#150 = ORIENTED_EDGE ( 'NONE', *, *, #333, .T. ) ;
#151 = CIRCLE ( 'NONE', #9, 0.1870080000000000908 ) ;
#152 = ORIENTED_EDGE ( 'NONE', *, *, #163, .F. ) ;
#153 = PRODUCT_DEFINITION_SHAPE ( 'NONE', 'NONE',  #268 ) ;
#154 = DIRECTION ( 'NONE',  ( -0.0000000000000000000, -0.0000000000000000000, -1.000000000000000000 ) ) ;
#155 = SHAPE_DEFINITION_REPRESENTATION ( #153, #222 ) ;
#156 = DIRECTION ( 'NONE',  ( -0.0000000000000000000, -0.0000000000000000000, -1.000000000000000000 ) ) ;
#157 = AXIS2_PLACEMENT_3D ( 'NONE', #38, #156, #90 ) ;
#158 = DIRECTION ( 'NONE',  ( -1.000000000000000000, 0.0000000000000000000, 0.0000000000000000000 ) ) ;
#159 = DIRECTION ( 'NONE',  ( 0.0000000000000000000, 0.0000000000000000000, -1.000000000000000000 ) ) ;
#160 = FACE_OUTER_BOUND ( 'NONE', #172, .T. ) ;
#161 = DIRECTION ( 'NONE',  ( -0.0000000000000000000, -0.0000000000000000000, -1.000000000000000000 ) ) ;
#162 = CIRCLE ( 'NONE', #373, 0.1870080000000000908 ) ;
#163 = EDGE_CURVE ( 'NONE', #256, #178, #76, .T. ) ;
#164 = CARTESIAN_POINT ( 'NONE',  ( 0.0000000000000000000, 0.0000000000000000000, 0.7086609999999999854 ) ) ;
#165 = DIRECTION ( 'NONE',  ( -0.0000000000000000000, -0.0000000000000000000, -1.000000000000000000 ) ) ;
#166 = ORIENTED_EDGE ( 'NONE', *, *, #321, .F. ) ;
#167 = ADVANCED_FACE ( 'NONE', ( #329 ), #69, .T. ) ;
#168 = DIRECTION ( 'NONE',  ( -0.0000000000000000000, -0.0000000000000000000, -1.000000000000000000 ) ) ;
#169 = DIRECTION ( 'NONE',  ( -1.000000000000000000, 0.0000000000000000000, 0.0000000000000000000 ) ) ;
#170 = EDGE_LOOP ( 'NONE', ( #177, #57, #339, #143 ) ) ;
#171 = SURFACE_STYLE_FILL_AREA ( #176 ) ;
#172 = EDGE_LOOP ( 'NONE', ( #231, #86 ) ) ;
#173 = AXIS2_PLACEMENT_3D ( 'NONE', #49, #136, #309 ) ;
#174 = FILL_AREA_STYLE_COLOUR ( '', #235 ) ;
#175 = LINE ( 'NONE', #112, #269 ) ;
#176 = FILL_AREA_STYLE ('',( #350 ) ) ;
#177 = ORIENTED_EDGE ( 'NONE', *, *, #119, .F. ) ;
#178 = VERTEX_POINT ( 'NONE', #298 ) ;
#179 = VECTOR ( 'NONE', #41, 39.37007874015748143 ) ;
#180 =( GEOMETRIC_REPRESENTATION_CONTEXT ( 3 ) GLOBAL_UNCERTAINTY_ASSIGNED_CONTEXT ( ( #305 ) ) GLOBAL_UNIT_ASSIGNED_CONTEXT ( ( #343, #223, #293 ) ) REPRESENTATION_CONTEXT ( 'NONE', 'WORKASPACE' ) );
#181 = DIRECTION ( 'NONE',  ( -1.000000000000000000, 0.0000000000000000000, 0.0000000000000000000 ) ) ;
#182 = DIRECTION ( 'NONE',  ( -1.000000000000000000, 0.0000000000000000000, 0.0000000000000000000 ) ) ;
#183 = CARTESIAN_POINT ( 'NONE',  ( 0.0000000000000000000, 0.0000000000000000000, 0.0000000000000000000 ) ) ;
#184 =( CONVERSION_BASED_UNIT ( 'INCH', #123 ) LENGTH_UNIT ( ) NAMED_UNIT ( #287 ) );
#185 = CIRCLE ( 'NONE', #1, 0.1870080000000003406 ) ;
#186 = CARTESIAN_POINT ( 'NONE',  ( 0.0000000000000000000, 0.0000000000000000000, 0.7086609999999999854 ) ) ;
#187 = CARTESIAN_POINT ( 'NONE',  ( 0.0000000000000000000, 0.0000000000000000000, 0.0000000000000000000 ) ) ;
#188 = CARTESIAN_POINT ( 'NONE',  ( 0.1870080000000003406, 2.290187486149486343E-17, 2.559054999999999858 ) ) ;
#189 = PRODUCT_DEFINITION_CONTEXT ( 'detailed design', #120, 'design' ) ;
#190 = CARTESIAN_POINT ( 'NONE',  ( 0.0000000000000000000, 0.0000000000000000000, 0.0000000000000000000 ) ) ;
#191 = DIRECTION ( 'NONE',  ( -1.000000000000000000, 0.0000000000000000000, 0.0000000000000000000 ) ) ;
#192 = STYLED_ITEM ( 'NONE', ( #117 ), #366 ) ;
#193 = EDGE_LOOP ( 'NONE', ( #263, #368 ) ) ;
#194 = DIRECTION ( 'NONE',  ( -1.000000000000000000, 0.0000000000000000000, 0.0000000000000000000 ) ) ;
#195 = EDGE_CURVE ( 'NONE', #377, #2, #213, .T. ) ;
#196 = DIRECTION ( 'NONE',  ( 0.0000000000000000000, 0.0000000000000000000, -1.000000000000000000 ) ) ;
#197 = FACE_OUTER_BOUND ( 'NONE', #193, .T. ) ;
#198 = EDGE_LOOP ( 'NONE', ( #266, #282, #23, #353 ) ) ;
#199 = AXIS2_PLACEMENT_3D ( 'NONE', #190, #310, #169 ) ;
#200 = ADVANCED_FACE ( 'NONE', ( #238 ), #267, .T. ) ;
#201 = EDGE_LOOP ( 'NONE', ( #118, #103, #116, #166 ) ) ;
#202 = DIMENSIONAL_EXPONENTS ( 1.000000000000000000, 0.0000000000000000000, 0.0000000000000000000, 0.0000000000000000000, 0.0000000000000000000, 0.0000000000000000000, 0.0000000000000000000 ) ;
#203 = ORIENTED_EDGE ( 'NONE', *, *, #6, .F. ) ;
#204 = CYLINDRICAL_SURFACE ( 'NONE', #124, 0.1968504999999999838 ) ;
#205 = PRESENTATION_LAYER_ASSIGNMENT (  '', '', ( #192 ) ) ;
#206 = CARTESIAN_POINT ( 'NONE',  ( -0.1968504999999999838, 0.0000000000000000000, 4.709409000000000844 ) ) ;
#207 = ORIENTED_EDGE ( 'NONE', *, *, #234, .F. ) ;
#208 = EDGE_LOOP ( 'NONE', ( #318, #255, #4, #60 ) ) ;
#209 = CARTESIAN_POINT ( 'NONE',  ( 0.1818504999999994431, 2.227026327483450676E-17, 4.724409000000001413 ) ) ;
#210 = EDGE_CURVE ( 'NONE', #365, #22, #284, .T. ) ;
#211 = DIRECTION ( 'NONE',  ( 0.0000000000000000000, 0.0000000000000000000, 1.000000000000000000 ) ) ;
#212 = CARTESIAN_POINT ( 'NONE',  ( 0.0000000000000000000, 0.0000000000000000000, 0.0000000000000000000 ) ) ;
#213 = CIRCLE ( 'NONE', #224, 0.1968308149500000714 ) ;
#214 = DIRECTION ( 'NONE',  ( -0.0000000000000000000, -0.0000000000000000000, -1.000000000000000000 ) ) ;
#215 = CARTESIAN_POINT ( 'NONE',  ( 0.1968308149500000714, 2.410482275020825838E-17, 0.0000000000000000000 ) ) ;
#216 = DIRECTION ( 'NONE',  ( -1.000000000000000000, 0.0000000000000000000, 0.0000000000000000000 ) ) ;
#217 = DIRECTION ( 'NONE',  ( 1.000000000000000000, 0.0000000000000000000, 0.0000000000000000000 ) ) ;
#218 = CIRCLE ( 'NONE', #348, 0.1968308149500000714 ) ;
#219 = AXIS2_PLACEMENT_3D ( 'NONE', #362, #161, #109 ) ;
#220 = DIRECTION ( 'NONE',  ( -0.0000000000000000000, -0.0000000000000000000, -1.000000000000000000 ) ) ;
#221 = DIRECTION ( 'NONE',  ( 0.0000000000000000000, 0.0000000000000000000, 1.000000000000000000 ) ) ;
#222 = ADVANCED_BREP_SHAPE_REPRESENTATION ( 'Micro_GLRM-100-2X', ( #366, #85 ), #180 ) ;
#223 =( NAMED_UNIT ( * ) PLANE_ANGLE_UNIT ( ) SI_UNIT ( $, .RADIAN. ) );
#224 = AXIS2_PLACEMENT_3D ( 'NONE', #186, #154, #43 ) ;
#225 = EDGE_LOOP ( 'NONE', ( #313, #111, #344, #83 ) ) ;
#226 =( GEOMETRIC_REPRESENTATION_CONTEXT ( 3 ) GLOBAL_UNCERTAINTY_ASSIGNED_CONTEXT ( ( #283 ) ) GLOBAL_UNIT_ASSIGNED_CONTEXT ( ( #184, #89, #37 ) ) REPRESENTATION_CONTEXT ( 'NONE', 'WORKASPACE' ) );
#227 = EDGE_CURVE ( 'NONE', #2, #20, #15, .T. ) ;
#228 =( LENGTH_UNIT ( ) NAMED_UNIT ( * ) SI_UNIT ( $, .METRE. ) );
#229 = CARTESIAN_POINT ( 'NONE',  ( 0.1968308149500000714, 2.410482275020825838E-17, 0.0000000000000000000 ) ) ;
#230 =( LENGTH_UNIT ( ) NAMED_UNIT ( * ) SI_UNIT ( $, .METRE. ) );
#231 = ORIENTED_EDGE ( 'NONE', *, *, #129, .T. ) ;
#232 = EDGE_CURVE ( 'NONE', #22, #292, #162, .T. ) ;
#233 = ORIENTED_EDGE ( 'NONE', *, *, #232, .F. ) ;
#234 = EDGE_CURVE ( 'NONE', #365, #88, #336, .T. ) ;
#235 = COLOUR_RGB ( '',0.7921568627450980005, 0.8196078431372548767, 0.9333333333333333481 ) ;
#236 = ORIENTED_EDGE ( 'NONE', *, *, #141, .T. ) ;
#237 = ORIENTED_EDGE ( 'NONE', *, *, #340, .F. ) ;
#238 = FACE_OUTER_BOUND ( 'NONE', #198, .T. ) ;
#239 = VECTOR ( 'NONE', #168, 39.37007874015748143 ) ;
#240 = AXIS2_PLACEMENT_3D ( 'NONE', #19, #140, #73 ) ;
#241 = DIRECTION ( 'NONE',  ( 1.000000000000000000, 0.0000000000000000000, 0.0000000000000000000 ) ) ;
#242 = DIRECTION ( 'NONE',  ( -0.0000000000000000000, -0.0000000000000000000, -1.000000000000000000 ) ) ;
#243 = DIRECTION ( 'NONE',  ( 1.000000000000000000, 0.0000000000000000000, 0.0000000000000000000 ) ) ;
#244 = VECTOR ( 'NONE', #326, 39.37007874015748143 ) ;
#245 = PRESENTATION_LAYER_ASSIGNMENT (  '', '', ( #71 ) ) ;
#246 = DIRECTION ( 'NONE',  ( -0.0000000000000000000, -0.0000000000000000000, -1.000000000000000000 ) ) ;
#247 = CARTESIAN_POINT ( 'NONE',  ( 0.1968504999999999838, 2.410723347355560646E-17, 4.709409000000000844 ) ) ;
#248 = PRODUCT_RELATED_PRODUCT_CATEGORY ( 'part', '', ( #358 ) ) ;
#249 = DIRECTION ( 'NONE',  ( -0.0000000000000000000, 0.0000000000000000000, -1.000000000000000000 ) ) ;
#250 = ORIENTED_EDGE ( 'NONE', *, *, #195, .T. ) ;
#251 = DIRECTION ( 'NONE',  ( -0.0000000000000000000, -0.0000000000000000000, -1.000000000000000000 ) ) ;
#252 = VECTOR ( 'NONE', #302, 39.37007874015748143 ) ;
#253 = DIMENSIONAL_EXPONENTS ( 1.000000000000000000, 0.0000000000000000000, 0.0000000000000000000, 0.0000000000000000000, 0.0000000000000000000, 0.0000000000000000000, 0.0000000000000000000 ) ;
#254 = FACE_OUTER_BOUND ( 'NONE', #294, .T. ) ;
#255 = ORIENTED_EDGE ( 'NONE', *, *, #328, .T. ) ;
#256 = VERTEX_POINT ( 'NONE', #280 ) ;
#257 = AXIS2_PLACEMENT_3D ( 'NONE', #87, #56, #29 ) ;
#258 = EDGE_CURVE ( 'NONE', #178, #256, #297, .T. ) ;
#259 = DIRECTION ( 'NONE',  ( -0.0000000000000000000, -0.0000000000000000000, -1.000000000000000000 ) ) ;
#260 = ORIENTED_EDGE ( 'NONE', *, *, #129, .F. ) ;
#261 =( NAMED_UNIT ( * ) SI_UNIT ( $, .STERADIAN. ) SOLID_ANGLE_UNIT ( ) );
#262 = EDGE_CURVE ( 'NONE', #20, #105, #59, .T. ) ;
#263 = ORIENTED_EDGE ( 'NONE', *, *, #258, .T. ) ;
#264 = CARTESIAN_POINT ( 'NONE',  ( 0.0000000000000000000, 0.0000000000000000000, 0.0000000000000000000 ) ) ;
#265 = EDGE_LOOP ( 'NONE', ( #207, #315 ) ) ;
#266 = ORIENTED_EDGE ( 'NONE', *, *, #98, .T. ) ;
#267 = CYLINDRICAL_SURFACE ( 'NONE', #275, 0.1968504999999999838 ) ;
#268 = PRODUCT_DEFINITION ( 'UNKNOWN', '', #126, #189 ) ;
#269 = VECTOR ( 'NONE', #30, 39.37007874015748143 ) ;
#270 = DIRECTION ( 'NONE',  ( -1.000000000000000000, 0.0000000000000000000, 0.0000000000000000000 ) ) ;
#271 = VECTOR ( 'NONE', #308, 39.37007874015748143 ) ;
#272 = LINE ( 'NONE', #94, #179 ) ;
#273 = CYLINDRICAL_SURFACE ( 'NONE', #157, 0.1870080000000002018 ) ;
#274 = DIRECTION ( 'NONE',  ( 0.0000000000000000000, 0.0000000000000000000, 1.000000000000000000 ) ) ;
#275 = AXIS2_PLACEMENT_3D ( 'NONE', #371, #251, #341 ) ;
#276 = DIRECTION ( 'NONE',  ( 1.000000000000000000, 0.0000000000000000000, -0.0000000000000000000 ) ) ;
#277 = FACE_OUTER_BOUND ( 'NONE', #75, .T. ) ;
#278 = CARTESIAN_POINT ( 'NONE',  ( 0.0000000000000000000, 0.0000000000000000000, 4.724409000000001413 ) ) ;
#279 = ORIENTED_EDGE ( 'NONE', *, *, #210, .T. ) ;
#280 = CARTESIAN_POINT ( 'NONE',  ( 0.1968504999999999838, 2.410723347355560646E-17, 2.559054999999999858 ) ) ;
#281 = AXIS2_PLACEMENT_3D ( 'NONE', #95, #159, #270 ) ;
#282 = ORIENTED_EDGE ( 'NONE', *, *, #6, .T. ) ;
#283 = UNCERTAINTY_MEASURE_WITH_UNIT (LENGTH_MEASURE( 1.000000000000000082E-05 ), #184, 'distance_accuracy_value', 'NONE');
#284 = LINE ( 'NONE', #101, #306 ) ;
#285 = ADVANCED_FACE ( 'NONE', ( #142, #197 ), #304, .T. ) ;
#286 = EDGE_LOOP ( 'NONE', ( #289, #346, #114, #335 ) ) ;
#287 = DIMENSIONAL_EXPONENTS ( 1.000000000000000000, 0.0000000000000000000, 0.0000000000000000000, 0.0000000000000000000, 0.0000000000000000000, 0.0000000000000000000, 0.0000000000000000000 ) ;
#288 = DIRECTION ( 'NONE',  ( -1.000000000000000000, 0.0000000000000000000, 0.0000000000000000000 ) ) ;
#289 = ORIENTED_EDGE ( 'NONE', *, *, #232, .T. ) ;
#290 =( GEOMETRIC_REPRESENTATION_CONTEXT ( 3 ) GLOBAL_UNCERTAINTY_ASSIGNED_CONTEXT ( ( #96 ) ) GLOBAL_UNIT_ASSIGNED_CONTEXT ( ( #295, #146, #261 ) ) REPRESENTATION_CONTEXT ( 'NONE', 'WORKASPACE' ) );
#291 = LENGTH_MEASURE_WITH_UNIT ( LENGTH_MEASURE( 0.02539999999999999897 ), #230 );
#292 = VERTEX_POINT ( 'NONE', #45 ) ;
#293 =( NAMED_UNIT ( * ) SI_UNIT ( $, .STERADIAN. ) SOLID_ANGLE_UNIT ( ) );
#294 = EDGE_LOOP ( 'NONE', ( #28, #150 ) ) ;
#295 =( CONVERSION_BASED_UNIT ( 'INCH', #291 ) LENGTH_UNIT ( ) NAMED_UNIT ( #202 ) );
#296 = VERTEX_POINT ( 'NONE', #47 ) ;
#297 = CIRCLE ( 'NONE', #240, 0.1968504999999999838 ) ;
#298 = CARTESIAN_POINT ( 'NONE',  ( -0.1968504999999999838, 0.0000000000000000000, 2.559054999999999858 ) ) ;
#299 = FACE_OUTER_BOUND ( 'NONE', #33, .T. ) ;
#300 = CARTESIAN_POINT ( 'NONE',  ( 0.0000000000000000000, 0.0000000000000000000, 0.0000000000000000000 ) ) ;
#301 = EDGE_CURVE ( 'NONE', #292, #22, #151, .T. ) ;
#302 = DIRECTION ( 'NONE',  ( -0.0000000000000000000, -0.0000000000000000000, -1.000000000000000000 ) ) ;
#303 = DIRECTION ( 'NONE',  ( 0.7071067811865419106, 8.659560562354863833E-17, -0.7071067811865531239 ) ) ;
#304 = PLANE ( 'NONE',  #53 ) ;
#305 = UNCERTAINTY_MEASURE_WITH_UNIT (LENGTH_MEASURE( 1.000000000000000082E-05 ), #343, 'distance_accuracy_value', 'NONE');
#306 = VECTOR ( 'NONE', #74, 39.37007874015748143 ) ;
#307 = AXIS2_PLACEMENT_3D ( 'NONE', #164, #107, #194 ) ;
#308 = DIRECTION ( 'NONE',  ( -0.7071067811865419106, 0.0000000000000000000, -0.7071067811865531239 ) ) ;
#309 = DIRECTION ( 'NONE',  ( -1.000000000000000000, 0.0000000000000000000, 0.0000000000000000000 ) ) ;
#310 = DIRECTION ( 'NONE',  ( -0.0000000000000000000, -0.0000000000000000000, -1.000000000000000000 ) ) ;
#311 = DIRECTION ( 'NONE',  ( 0.0000000000000000000, 0.0000000000000000000, 1.000000000000000000 ) ) ;
#312 = CONICAL_SURFACE ( 'NONE', #257, 0.1968308149500000714, 0.1745329251994332809 ) ;
#313 = ORIENTED_EDGE ( 'NONE', *, *, #32, .F. ) ;
#314 = PRESENTATION_STYLE_ASSIGNMENT (( #31 ) ) ;
#315 = ORIENTED_EDGE ( 'NONE', *, *, #58, .F. ) ;
#316 = ORIENTED_EDGE ( 'NONE', *, *, #301, .F. ) ;
#317 = ADVANCED_FACE ( 'NONE', ( #254 ), #134, .T. ) ;
#318 = ORIENTED_EDGE ( 'NONE', *, *, #227, .F. ) ;
#319 = AXIS2_PLACEMENT_3D ( 'NONE', #337, #221, #78 ) ;
#320 = ORIENTED_EDGE ( 'NONE', *, *, #210, .F. ) ;
#321 = EDGE_CURVE ( 'NONE', #63, #372, #104, .T. ) ;
#322 = CARTESIAN_POINT ( 'NONE',  ( 0.1968308149500000714, 2.410482275020825838E-17, 0.7086609999999999854 ) ) ;
#323 = EDGE_CURVE ( 'NONE', #351, #372, #46, .T. ) ;
#324 = DIRECTION ( 'NONE',  ( -0.0000000000000000000, -0.0000000000000000000, -1.000000000000000000 ) ) ;
#325 = CIRCLE ( 'NONE', #25, 0.1818504999999994431 ) ;
#326 = DIRECTION ( 'NONE',  ( 0.1736481776669306643, 2.126576849575775305E-17, -0.9848077530122080203 ) ) ;
#327 = CARTESIAN_POINT ( 'NONE',  ( -0.1968308149500000714, 0.0000000000000000000, 0.0000000000000000000 ) ) ;
#328 = EDGE_CURVE ( 'NONE', #2, #377, #77, .T. ) ;
#329 = FACE_OUTER_BOUND ( 'NONE', #208, .T. ) ;
#330 = DIRECTION ( 'NONE',  ( -1.000000000000000000, 0.0000000000000000000, 0.0000000000000000000 ) ) ;
#331 = DIRECTION ( 'NONE',  ( -1.000000000000000000, 0.0000000000000000000, 0.0000000000000000000 ) ) ;
#332 = FACE_OUTER_BOUND ( 'NONE', #225, .T. ) ;
#333 = EDGE_CURVE ( 'NONE', #296, #63, #356, .T. ) ;
#334 = CLOSED_SHELL ( 'NONE', ( #363, #24, #375, #61, #200, #16, #317, #352, #285, #361, #48, #167, #125 ) ) ;
#335 = ORIENTED_EDGE ( 'NONE', *, *, #68, .F. ) ;
#336 = CIRCLE ( 'NONE', #173, 0.1870080000000003406 ) ;
#337 = CARTESIAN_POINT ( 'NONE',  ( 0.0000000000000000000, 0.0000000000000000000, 4.724409000000001413 ) ) ;
#338 = CARTESIAN_POINT ( 'NONE',  ( 0.0000000000000000000, 0.0000000000000000000, 4.709409000000000844 ) ) ;
#339 = ORIENTED_EDGE ( 'NONE', *, *, #321, .T. ) ;
#340 = EDGE_CURVE ( 'NONE', #377, #105, #54, .T. ) ;
#341 = DIRECTION ( 'NONE',  ( -1.000000000000000000, 0.0000000000000000000, 0.0000000000000000000 ) ) ;
#342 = AXIS2_PLACEMENT_3D ( 'NONE', #300, #214, #182 ) ;
#343 =( CONVERSION_BASED_UNIT ( 'INCH', #110 ) LENGTH_UNIT ( ) NAMED_UNIT ( #253 ) );
#344 = ORIENTED_EDGE ( 'NONE', *, *, #68, .T. ) ;
#345 = CARTESIAN_POINT ( 'NONE',  ( -0.1870080000000000908, 0.0000000000000000000, 0.7643689518434039210 ) ) ;
#346 = ORIENTED_EDGE ( 'NONE', *, *, #32, .T. ) ;
#347 = SURFACE_STYLE_FILL_AREA ( #81 ) ;
#348 = AXIS2_PLACEMENT_3D ( 'NONE', #183, #324, #158 ) ;
#349 = ORIENTED_EDGE ( 'NONE', *, *, #323, .T. ) ;
#350 = FILL_AREA_STYLE_COLOUR ( '', #145 ) ;
#351 = VERTEX_POINT ( 'NONE', #247 ) ;
#352 = ADVANCED_FACE ( 'NONE', ( #17 ), #369, .T. ) ;
#353 = ORIENTED_EDGE ( 'NONE', *, *, #141, .F. ) ;
#354 = FACE_OUTER_BOUND ( 'NONE', #121, .T. ) ;
#355 = AXIS2_PLACEMENT_3D ( 'NONE', #65, #242, #97 ) ;
#356 = CIRCLE ( 'NONE', #319, 0.1818504999999994431 ) ;
#357 = FACE_OUTER_BOUND ( 'NONE', #201, .T. ) ;
#358 = PRODUCT ( 'Micro_GLRM-100-2X', 'Micro_GLRM-100-2X', '', ( #40 ) ) ;
#359 = DIRECTION ( 'NONE',  ( -0.0000000000000000000, -0.0000000000000000000, -1.000000000000000000 ) ) ;
#360 = LINE ( 'NONE', #209, #100 ) ;
#361 = ADVANCED_FACE ( 'NONE', ( #332 ), #42, .T. ) ;
#362 = CARTESIAN_POINT ( 'NONE',  ( 0.0000000000000000000, 0.0000000000000000000, 0.7086609999999999854 ) ) ;
#363 = ADVANCED_FACE ( 'NONE', ( #277 ), #79, .T. ) ;
#364 = CARTESIAN_POINT ( 'NONE',  ( 0.1870080000000003406, 0.0000000000000000000, 2.559054999999999858 ) ) ;
#365 = VERTEX_POINT ( 'NONE', #376 ) ;
#366 = MANIFOLD_SOLID_BREP ( 'Cut-Revolve1', #334 ) ;
#367 = CARTESIAN_POINT ( 'NONE',  ( 0.0000000000000000000, 0.0000000000000000000, 0.7643689518434039210 ) ) ;
#368 = ORIENTED_EDGE ( 'NONE', *, *, #163, .T. ) ;
#369 = CONICAL_SURFACE ( 'NONE', #133, 0.1818504999999994431, 0.7853981633974403964 ) ;
#370 = DIRECTION ( 'NONE',  ( -0.0000000000000000000, -0.0000000000000000000, -1.000000000000000000 ) ) ;
#371 = CARTESIAN_POINT ( 'NONE',  ( 0.0000000000000000000, 0.0000000000000000000, 4.724409000000001413 ) ) ;
#372 = VERTEX_POINT ( 'NONE', #206 ) ;
#373 = AXIS2_PLACEMENT_3D ( 'NONE', #51, #370, #331 ) ;
#374 = DIRECTION ( 'NONE',  ( -1.000000000000000000, 0.0000000000000000000, 0.0000000000000000000 ) ) ;
#375 = ADVANCED_FACE ( 'NONE', ( #34 ), #312, .T. ) ;
#376 = CARTESIAN_POINT ( 'NONE',  ( -0.1870080000000003406, 0.0000000000000000000, 2.559054999999999858 ) ) ;
#377 = VERTEX_POINT ( 'NONE', #378 ) ;
#378 = CARTESIAN_POINT ( 'NONE',  ( -0.1968308149500000714, 0.0000000000000000000, 0.7086609999999999854 ) ) ;
#379 = DIRECTION ( 'NONE',  ( -0.0000000000000000000, -0.0000000000000000000, -1.000000000000000000 ) ) ;
ENDSEC;
END-ISO-10303-21;
