ISO-10303-21;
HEADER;
FILE_DESCRIPTION (( 'STEP AP214' ),
    '1' );
FILE_NAME ('Micro_SFA-500-812.STEP',
    '2021-09-02T04:03:55',
    ( '' ),
    ( '' ),
    'SwSTEP 2.0',
    'SolidWorks 2020',
    '' );
FILE_SCHEMA (( 'AUTOMOTIVE_DESIGN' ));
ENDSEC;

DATA;
#1 = DIRECTION ( 'NONE',  ( 1.000000000000000000, 0.0000000000000000000, 0.0000000000000000000 ) ) ;
#2 = VECTOR ( 'NONE', #208, 39.37007874015748143 ) ;
#3 = EDGE_LOOP ( 'NONE', ( #124, #252 ) ) ;
#4 = LINE ( 'NONE', #278, #97 ) ;
#5 = EDGE_CURVE ( 'NONE', #93, #198, #224, .T. ) ;
#6 = EDGE_LOOP ( 'NONE', ( #238, #261, #135, #49 ) ) ;
#7 = DIRECTION ( 'NONE',  ( -0.1736481776669311916, 2.126576849575783316E-17, 0.9848077530122080203 ) ) ;
#8 = AXIS2_PLACEMENT_3D ( 'NONE', #108, #35, #38 ) ;
#9 = SHAPE_DEFINITION_REPRESENTATION ( #157, #241 ) ;
#10 = FACE_OUTER_BOUND ( 'NONE', #182, .T. ) ;
#11 = SURFACE_STYLE_FILL_AREA ( #147 ) ;
#12 = DIRECTION ( 'NONE',  ( 0.0000000000000000000, 0.0000000000000000000, 1.000000000000000000 ) ) ;
#13 = DIRECTION ( 'NONE',  ( 1.000000000000000000, 0.0000000000000000000, -0.0000000000000000000 ) ) ;
#14 = CARTESIAN_POINT ( 'NONE',  ( 0.0000000000000000000, 0.0000000000000000000, 3.985000000000000320 ) ) ;
#15 = ADVANCED_FACE ( 'NONE', ( #10 ), #253, .T. ) ;
#16 = CARTESIAN_POINT ( 'NONE',  ( -0.2500000000000000000, 0.0000000000000000000, 3.985000000000000320 ) ) ;
#17 = AXIS2_PLACEMENT_3D ( 'NONE', #143, #56, #13 ) ;
#18 = AXIS2_PLACEMENT_3D ( 'NONE', #298, #66, #63 ) ;
#19 = VERTEX_POINT ( 'NONE', #101 ) ;
#20 =( CONVERSION_BASED_UNIT ( 'INCH', #140 ) LENGTH_UNIT ( ) NAMED_UNIT ( #29 ) );
#21 = PRODUCT_RELATED_PRODUCT_CATEGORY ( 'part', '', ( #291 ) ) ;
#22 = AXIS2_PLACEMENT_3D ( 'NONE', #296, #88, #223 ) ;
#23 = VERTEX_POINT ( 'NONE', #74 ) ;
#24 = ORIENTED_EDGE ( 'NONE', *, *, #209, .T. ) ;
#25 = CARTESIAN_POINT ( 'NONE',  ( -0.2497499999999998332, 3.060086189369449292E-17, 1.500000000000000222 ) ) ;
#26 =( NAMED_UNIT ( * ) PLANE_ANGLE_UNIT ( ) SI_UNIT ( $, .RADIAN. ) );
#27 = ADVANCED_FACE ( 'NONE', ( #221 ), #265, .T. ) ;
#28 = ORIENTED_EDGE ( 'NONE', *, *, #62, .F. ) ;
#29 = DIMENSIONAL_EXPONENTS ( 1.000000000000000000, 0.0000000000000000000, 0.0000000000000000000, 0.0000000000000000000, 0.0000000000000000000, 0.0000000000000000000, 0.0000000000000000000 ) ;
#30 = EDGE_CURVE ( 'NONE', #198, #210, #150, .T. ) ;
#31 = EDGE_LOOP ( 'NONE', ( #232, #121, #155, #24 ) ) ;
#32 = DIRECTION ( 'NONE',  ( -1.000000000000000000, 0.0000000000000000000, 1.224646799147353454E-16 ) ) ;
#33 = ORIENTED_EDGE ( 'NONE', *, *, #209, .F. ) ;
#34 =( GEOMETRIC_REPRESENTATION_CONTEXT ( 3 ) GLOBAL_UNCERTAINTY_ASSIGNED_CONTEXT ( ( #186 ) ) GLOBAL_UNIT_ASSIGNED_CONTEXT ( ( #260, #280, #218 ) ) REPRESENTATION_CONTEXT ( 'NONE', 'WORKASPACE' ) );
#35 = DIRECTION ( 'NONE',  ( -0.0000000000000000000, -0.0000000000000000000, -1.000000000000000000 ) ) ;
#36 = FACE_OUTER_BOUND ( 'NONE', #6, .T. ) ;
#37 = CYLINDRICAL_SURFACE ( 'NONE', #8, 0.2500000000000000000 ) ;
#38 = DIRECTION ( 'NONE',  ( -1.000000000000000000, 0.0000000000000000000, 0.0000000000000000000 ) ) ;
#39 = EDGE_CURVE ( 'NONE', #19, #23, #129, .T. ) ;
#40 = DIRECTION ( 'NONE',  ( 1.000000000000000000, 0.0000000000000000000, 0.0000000000000000000 ) ) ;
#41 = CARTESIAN_POINT ( 'NONE',  ( 0.2350000000000006251, 2.877919977996287839E-17, 4.000000000000000000 ) ) ;
#42 = DIMENSIONAL_EXPONENTS ( 1.000000000000000000, 0.0000000000000000000, 0.0000000000000000000, 0.0000000000000000000, 0.0000000000000000000, 0.0000000000000000000, 0.0000000000000000000 ) ;
#43 = PRESENTATION_LAYER_ASSIGNMENT (  '', '', ( #71 ) ) ;
#44 = ORIENTED_EDGE ( 'NONE', *, *, #172, .F. ) ;
#45 =( LENGTH_UNIT ( ) NAMED_UNIT ( * ) SI_UNIT ( $, .METRE. ) );
#46 = CARTESIAN_POINT ( 'NONE',  ( -0.2350000000000006251, 0.0000000000000000000, 4.000000000000000000 ) ) ;
#47 = DIRECTION ( 'NONE',  ( -1.000000000000000000, 0.0000000000000000000, 0.0000000000000000000 ) ) ;
#48 = AXIS2_PLACEMENT_3D ( 'NONE', #94, #69, #68 ) ;
#49 = ORIENTED_EDGE ( 'NONE', *, *, #39, .F. ) ;
#50 = DIRECTION ( 'NONE',  ( 1.000000000000000000, 0.0000000000000000000, 0.0000000000000000000 ) ) ;
#51 = DIRECTION ( 'NONE',  ( -1.224646799147353207E-16, -0.0000000000000000000, -1.000000000000000000 ) ) ;
#52 = CARTESIAN_POINT ( 'NONE',  ( 3.745650057197989622E-33, 0.0000000000000000000, 3.058555380870514950E-17 ) ) ;
#53 = VECTOR ( 'NONE', #177, 39.37007874015748143 ) ;
#54 = FILL_AREA_STYLE_COLOUR ( '', #79 ) ;
#55 = ORIENTED_EDGE ( 'NONE', *, *, #128, .F. ) ;
#56 = DIRECTION ( 'NONE',  ( 0.0000000000000000000, 0.0000000000000000000, 1.000000000000000000 ) ) ;
#57 = MANIFOLD_SOLID_BREP ( 'Cut-Revolve1', #65 ) ;
#58 = FACE_OUTER_BOUND ( 'NONE', #3, .T. ) ;
#59 = CARTESIAN_POINT ( 'NONE',  ( 0.2500000000000000000, 3.061616997868383018E-17, 4.000000000000000000 ) ) ;
#60 = VECTOR ( 'NONE', #7, 39.37007874015747433 ) ;
#61 = AXIS2_PLACEMENT_3D ( 'NONE', #14, #247, #151 ) ;
#62 = EDGE_CURVE ( 'NONE', #127, #102, #67, .T. ) ;
#63 = DIRECTION ( 'NONE',  ( -1.000000000000000000, 0.0000000000000000000, 0.0000000000000000000 ) ) ;
#64 = ORIENTED_EDGE ( 'NONE', *, *, #297, .F. ) ;
#65 = CLOSED_SHELL ( 'NONE', ( #176, #288, #235, #90, #99, #27, #15, #149, #111, #115 ) ) ;
#66 = DIRECTION ( 'NONE',  ( 0.0000000000000000000, 0.0000000000000000000, -1.000000000000000000 ) ) ;
#67 = CIRCLE ( 'NONE', #240, 0.2350000000000006251 ) ;
#68 = DIRECTION ( 'NONE',  ( 1.000000000000000000, 0.0000000000000000000, 0.0000000000000000000 ) ) ;
#69 = DIRECTION ( 'NONE',  ( -1.224646799147353207E-16, -0.0000000000000000000, -1.000000000000000000 ) ) ;
#70 = EDGE_LOOP ( 'NONE', ( #105, #168, #279, #295 ) ) ;
#71 = STYLED_ITEM ( 'NONE', ( #220 ), #57 ) ;
#72 = PRESENTATION_LAYER_ASSIGNMENT (  '', '', ( #248 ) ) ;
#73 = ORIENTED_EDGE ( 'NONE', *, *, #191, .F. ) ;
#74 = CARTESIAN_POINT ( 'NONE',  ( -0.2497499999999999998, 0.0000000000000000000, 6.117110761741029900E-17 ) ) ;
#75 = DIRECTION ( 'NONE',  ( 0.0000000000000000000, 0.0000000000000000000, 1.000000000000000000 ) ) ;
#76 = SURFACE_STYLE_USAGE ( .BOTH. , #81 ) ;
#77 = CARTESIAN_POINT ( 'NONE',  ( 1.836970198721030181E-16, 0.0000000000000000000, 1.500000000000000222 ) ) ;
#78 = EDGE_CURVE ( 'NONE', #23, #19, #92, .T. ) ;
#79 = COLOUR_RGB ( '',0.7921568627450980005, 0.8196078431372548767, 0.9333333333333333481 ) ;
#80 = APPLICATION_CONTEXT ( 'automotive_design' ) ;
#81 = SURFACE_SIDE_STYLE ('',( #11 ) ) ;
#82 = DIRECTION ( 'NONE',  ( -1.224646799147353207E-16, -0.0000000000000000000, -1.000000000000000000 ) ) ;
#83 = FACE_OUTER_BOUND ( 'NONE', #229, .T. ) ;
#84 = EDGE_CURVE ( 'NONE', #148, #210, #171, .T. ) ;
#85 = DIRECTION ( 'NONE',  ( -0.0000000000000000000, -0.0000000000000000000, -1.000000000000000000 ) ) ;
#86 = CIRCLE ( 'NONE', #293, 0.2500000000000000000 ) ;
#87 = DIRECTION ( 'NONE',  ( -1.224646799147353207E-16, -0.0000000000000000000, -1.000000000000000000 ) ) ;
#88 = DIRECTION ( 'NONE',  ( -0.0000000000000000000, -0.0000000000000000000, -1.000000000000000000 ) ) ;
#89 = EDGE_LOOP ( 'NONE', ( #187, #270, #118, #73 ) ) ;
#90 = ADVANCED_FACE ( 'NONE', ( #202 ), #37, .T. ) ;
#91 = DIRECTION ( 'NONE',  ( -1.224646799147353207E-16, -0.0000000000000000000, -1.000000000000000000 ) ) ;
#92 = CIRCLE ( 'NONE', #185, 0.2497499999999999998 ) ;
#93 = VERTEX_POINT ( 'NONE', #174 ) ;
#94 = CARTESIAN_POINT ( 'NONE',  ( 1.838706528002894427E-16, 0.0000000000000000000, 1.501417820454904462 ) ) ;
#95 = DIRECTION ( 'NONE',  ( 0.7071067811865394681, 8.659560562354834251E-17, -0.7071067811865555663 ) ) ;
#96 = EDGE_CURVE ( 'NONE', #198, #23, #107, .T. ) ;
#97 = VECTOR ( 'NONE', #136, 39.37007874015748143 ) ;
#98 = DIRECTION ( 'NONE',  ( 0.1736481776669313859, 0.0000000000000000000, 0.9848077530122077983 ) ) ;
#99 = ADVANCED_FACE ( 'NONE', ( #83 ), #227, .T. ) ;
#100 = LENGTH_MEASURE_WITH_UNIT ( LENGTH_MEASURE( 0.02539999999999999897 ), #242 );
#101 = CARTESIAN_POINT ( 'NONE',  ( 0.2497499999999999998, 3.058555380870514950E-17, 0.0000000000000000000 ) ) ;
#102 = VERTEX_POINT ( 'NONE', #268 ) ;
#103 = CARTESIAN_POINT ( 'NONE',  ( 0.0000000000000000000, 0.0000000000000000000, 0.0000000000000000000 ) ) ;
#104 = UNCERTAINTY_MEASURE_WITH_UNIT (LENGTH_MEASURE( 1.000000000000000082E-05 ), #215, 'distance_accuracy_value', 'NONE');
#105 = ORIENTED_EDGE ( 'NONE', *, *, #141, .T. ) ;
#106 = VECTOR ( 'NONE', #95, 39.37007874015748143 ) ;
#107 = LINE ( 'NONE', #131, #123 ) ;
#108 = CARTESIAN_POINT ( 'NONE',  ( 0.0000000000000000000, 0.0000000000000000000, 4.000000000000000000 ) ) ;
#109 = FACE_OUTER_BOUND ( 'NONE', #31, .T. ) ;
#110 = ORIENTED_EDGE ( 'NONE', *, *, #62, .T. ) ;
#111 = ADVANCED_FACE ( 'NONE', ( #36 ), #292, .T. ) ;
#112 = EDGE_LOOP ( 'NONE', ( #110, #226 ) ) ;
#113 = CYLINDRICAL_SURFACE ( 'NONE', #130, 0.2497499999999999998 ) ;
#114 = DIRECTION ( 'NONE',  ( -1.224646799147353207E-16, -0.0000000000000000000, -1.000000000000000000 ) ) ;
#115 = ADVANCED_FACE ( 'NONE', ( #58 ), #179, .F. ) ;
#116 = DIRECTION ( 'NONE',  ( 1.224646799147353207E-16, 0.0000000000000000000, 1.000000000000000000 ) ) ;
#117 = FACE_OUTER_BOUND ( 'NONE', #162, .T. ) ;
#118 = ORIENTED_EDGE ( 'NONE', *, *, #262, .T. ) ;
#119 = FACE_OUTER_BOUND ( 'NONE', #274, .T. ) ;
#120 = MECHANICAL_DESIGN_GEOMETRIC_PRESENTATION_REPRESENTATION (  '', ( #248 ), #244 ) ;
#121 = ORIENTED_EDGE ( 'NONE', *, *, #5, .F. ) ;
#122 = AXIS2_PLACEMENT_3D ( 'NONE', #77, #51, #193 ) ;
#123 = VECTOR ( 'NONE', #153, 39.37007874015748143 ) ;
#124 = ORIENTED_EDGE ( 'NONE', *, *, #78, .T. ) ;
#125 = EDGE_CURVE ( 'NONE', #178, #148, #169, .T. ) ;
#126 = CARTESIAN_POINT ( 'NONE',  ( 0.0000000000000000000, 0.0000000000000000000, 4.000000000000000000 ) ) ;
#127 = VERTEX_POINT ( 'NONE', #201 ) ;
#128 = EDGE_CURVE ( 'NONE', #178, #138, #271, .T. ) ;
#129 = CIRCLE ( 'NONE', #163, 0.2497499999999999998 ) ;
#130 = AXIS2_PLACEMENT_3D ( 'NONE', #160, #91, #299 ) ;
#131 = CARTESIAN_POINT ( 'NONE',  ( -0.2497499999999999998, 0.0000000000000000000, 3.058555380870514950E-17 ) ) ;
#132 = DIRECTION ( 'NONE',  ( 1.000000000000000000, 0.0000000000000000000, 0.0000000000000000000 ) ) ;
#133 = CIRCLE ( 'NONE', #199, 0.2497499999999999998 ) ;
#134 = CARTESIAN_POINT ( 'NONE',  ( 0.0000000000000000000, 0.0000000000000000000, 3.985000000000000320 ) ) ;
#135 = ORIENTED_EDGE ( 'NONE', *, *, #96, .T. ) ;
#136 = DIRECTION ( 'NONE',  ( -1.224646799147353207E-16, -0.0000000000000000000, -1.000000000000000000 ) ) ;
#137 = AXIS2_PLACEMENT_3D ( 'NONE', #173, #211, #1 ) ;
#138 = VERTEX_POINT ( 'NONE', #200 ) ;
#139 = CARTESIAN_POINT ( 'NONE',  ( 1.838706528002894427E-16, 0.0000000000000000000, 1.501417820454904462 ) ) ;
#140 = LENGTH_MEASURE_WITH_UNIT ( LENGTH_MEASURE( 0.02539999999999999897 ), #45 );
#141 = EDGE_CURVE ( 'NONE', #148, #178, #86, .T. ) ;
#142 = APPLICATION_PROTOCOL_DEFINITION ( 'draft international standard', 'automotive_design', 1998, #80 ) ;
#143 = CARTESIAN_POINT ( 'NONE',  ( 0.0000000000000000000, 0.0000000000000000000, 4.000000000000000000 ) ) ;
#144 = DIRECTION ( 'NONE',  ( 0.0000000000000000000, 0.0000000000000000000, -1.000000000000000000 ) ) ;
#145 = SURFACE_SIDE_STYLE ('',( #239 ) ) ;
#146 = AXIS2_PLACEMENT_3D ( 'NONE', #228, #277, #230 ) ;
#147 = FILL_AREA_STYLE ('',( #54 ) ) ;
#148 = VERTEX_POINT ( 'NONE', #16 ) ;
#149 = ADVANCED_FACE ( 'NONE', ( #109 ), #234, .T. ) ;
#150 = LINE ( 'NONE', #194, #60 ) ;
#151 = DIRECTION ( 'NONE',  ( 1.000000000000000000, 0.0000000000000000000, 0.0000000000000000000 ) ) ;
#152 = VECTOR ( 'NONE', #98, 39.37007874015748143 ) ;
#153 = DIRECTION ( 'NONE',  ( -1.224646799147353207E-16, -0.0000000000000000000, -1.000000000000000000 ) ) ;
#154 = DIRECTION ( 'NONE',  ( 0.0000000000000000000, 0.0000000000000000000, 1.000000000000000000 ) ) ;
#155 = ORIENTED_EDGE ( 'NONE', *, *, #191, .T. ) ;
#156 = EDGE_CURVE ( 'NONE', #198, #93, #133, .T. ) ;
#157 = PRODUCT_DEFINITION_SHAPE ( 'NONE', 'NONE',  #180 ) ;
#158 = ORIENTED_EDGE ( 'NONE', *, *, #273, .T. ) ;
#159 = AXIS2_PLACEMENT_3D ( 'NONE', #139, #114, #181 ) ;
#160 = CARTESIAN_POINT ( 'NONE',  ( 0.0000000000000000000, 0.0000000000000000000, 0.0000000000000000000 ) ) ;
#161 = CARTESIAN_POINT ( 'NONE',  ( 1.836970198721030181E-16, 0.0000000000000000000, 1.500000000000000222 ) ) ;
#162 = EDGE_LOOP ( 'NONE', ( #44, #165, #290, #64 ) ) ;
#163 = AXIS2_PLACEMENT_3D ( 'NONE', #287, #189, #283 ) ;
#164 = CIRCLE ( 'NONE', #159, 0.2500000000000000000 ) ;
#165 = ORIENTED_EDGE ( 'NONE', *, *, #167, .T. ) ;
#166 = FILL_AREA_STYLE ('',( #237 ) ) ;
#167 = EDGE_CURVE ( 'NONE', #102, #178, #251, .T. ) ;
#168 = ORIENTED_EDGE ( 'NONE', *, *, #128, .T. ) ;
#169 = CIRCLE ( 'NONE', #61, 0.2500000000000000000 ) ;
#170 = PRODUCT_CONTEXT ( 'NONE', #245, 'mechanical' ) ;
#171 = LINE ( 'NONE', #246, #254 ) ;
#172 = EDGE_CURVE ( 'NONE', #102, #127, #276, .T. ) ;
#173 = CARTESIAN_POINT ( 'NONE',  ( 1.836970198721030181E-16, 0.0000000000000000000, 1.500000000000000222 ) ) ;
#174 = CARTESIAN_POINT ( 'NONE',  ( 0.2497500000000001941, 0.0000000000000000000, 1.500000000000000222 ) ) ;
#175 = DIRECTION ( 'NONE',  ( -1.000000000000000000, 0.0000000000000000000, 1.224646799147353454E-16 ) ) ;
#176 = ADVANCED_FACE ( 'NONE', ( #119 ), #113, .T. ) ;
#177 = DIRECTION ( 'NONE',  ( -0.0000000000000000000, -0.0000000000000000000, -1.000000000000000000 ) ) ;
#178 = VERTEX_POINT ( 'NONE', #184 ) ;
#179 = PLANE ( 'NONE',  #267 ) ;
#180 = PRODUCT_DEFINITION ( 'UNKNOWN', '', #212, #195 ) ;
#181 = DIRECTION ( 'NONE',  ( 1.000000000000000000, 0.0000000000000000000, 0.0000000000000000000 ) ) ;
#182 = EDGE_LOOP ( 'NONE', ( #231, #28, #205, #281 ) ) ;
#183 = DIRECTION ( 'NONE',  ( -1.224646799147353207E-16, -0.0000000000000000000, -1.000000000000000000 ) ) ;
#184 = CARTESIAN_POINT ( 'NONE',  ( 0.2500000000000000000, 3.061616997868383018E-17, 3.985000000000000320 ) ) ;
#185 = AXIS2_PLACEMENT_3D ( 'NONE', #52, #82, #32 ) ;
#186 = UNCERTAINTY_MEASURE_WITH_UNIT (LENGTH_MEASURE( 1.000000000000000082E-05 ), #260, 'distance_accuracy_value', 'NONE');
#187 = ORIENTED_EDGE ( 'NONE', *, *, #156, .F. ) ;
#188 = LENGTH_MEASURE_WITH_UNIT ( LENGTH_MEASURE( 0.02539999999999999897 ), #233 );
#189 = DIRECTION ( 'NONE',  ( -1.224646799147353207E-16, -0.0000000000000000000, -1.000000000000000000 ) ) ;
#190 = ORIENTED_EDGE ( 'NONE', *, *, #78, .F. ) ;
#191 = EDGE_CURVE ( 'NONE', #93, #138, #256, .T. ) ;
#192 = AXIS2_PLACEMENT_3D ( 'NONE', #103, #75, #197 ) ;
#193 = DIRECTION ( 'NONE',  ( -1.000000000000000000, 0.0000000000000000000, 0.0000000000000000000 ) ) ;
#194 = CARTESIAN_POINT ( 'NONE',  ( -0.2497499999999998332, 3.058555380870514950E-17, 1.500000000000000222 ) ) ;
#195 = PRODUCT_DEFINITION_CONTEXT ( 'detailed design', #80, 'design' ) ;
#196 = CARTESIAN_POINT ( 'NONE',  ( 0.0000000000000000000, 0.0000000000000000000, 4.000000000000000000 ) ) ;
#197 = DIRECTION ( 'NONE',  ( 1.000000000000000000, 0.0000000000000000000, 0.0000000000000000000 ) ) ;
#198 = VERTEX_POINT ( 'NONE', #25 ) ;
#199 = AXIS2_PLACEMENT_3D ( 'NONE', #207, #183, #47 ) ;
#200 = CARTESIAN_POINT ( 'NONE',  ( 0.2500000000000001665, 3.061616997868384867E-17, 1.501417820454904462 ) ) ;
#201 = CARTESIAN_POINT ( 'NONE',  ( -0.2350000000000006251, 0.0000000000000000000, 4.000000000000000000 ) ) ;
#202 = FACE_OUTER_BOUND ( 'NONE', #70, .T. ) ;
#203 = CONICAL_SURFACE ( 'NONE', #18, 0.2350000000000006251, 0.7853981633974369547 ) ;
#204 = ORIENTED_EDGE ( 'NONE', *, *, #84, .T. ) ;
#205 = ORIENTED_EDGE ( 'NONE', *, *, #297, .T. ) ;
#206 = COLOUR_RGB ( '',0.7921568627450980005, 0.8196078431372548767, 0.9333333333333333481 ) ;
#207 = CARTESIAN_POINT ( 'NONE',  ( 1.836970198721030181E-16, 0.0000000000000000000, 1.500000000000000222 ) ) ;
#208 = DIRECTION ( 'NONE',  ( -0.7071067811865394681, 0.0000000000000000000, -0.7071067811865555663 ) ) ;
#209 = EDGE_CURVE ( 'NONE', #138, #210, #164, .T. ) ;
#210 = VERTEX_POINT ( 'NONE', #272 ) ;
#211 = DIRECTION ( 'NONE',  ( 1.224646799147353207E-16, 0.0000000000000000000, 1.000000000000000000 ) ) ;
#212 = PRODUCT_DEFINITION_FORMATION_WITH_SPECIFIED_SOURCE ( 'ANY', '', #291, .NOT_KNOWN. ) ;
#213 = APPLICATION_PROTOCOL_DEFINITION ( 'draft international standard', 'automotive_design', 1998, #245 ) ;
#214 = ORIENTED_EDGE ( 'NONE', *, *, #96, .F. ) ;
#215 =( CONVERSION_BASED_UNIT ( 'INCH', #188 ) LENGTH_UNIT ( ) NAMED_UNIT ( #42 ) );
#216 = AXIS2_PLACEMENT_3D ( 'NONE', #161, #116, #40 ) ;
#217 =( NAMED_UNIT ( * ) PLANE_ANGLE_UNIT ( ) SI_UNIT ( $, .RADIAN. ) );
#218 =( NAMED_UNIT ( * ) SI_UNIT ( $, .STERADIAN. ) SOLID_ANGLE_UNIT ( ) );
#219 = UNCERTAINTY_MEASURE_WITH_UNIT (LENGTH_MEASURE( 1.000000000000000082E-05 ), #20, 'distance_accuracy_value', 'NONE');
#220 = PRESENTATION_STYLE_ASSIGNMENT (( #266 ) ) ;
#221 = FACE_OUTER_BOUND ( 'NONE', #112, .T. ) ;
#222 = CARTESIAN_POINT ( 'NONE',  ( 0.0000000000000000000, 0.0000000000000000000, 0.0000000000000000000 ) ) ;
#223 = DIRECTION ( 'NONE',  ( -1.000000000000000000, 0.0000000000000000000, 0.0000000000000000000 ) ) ;
#224 = CIRCLE ( 'NONE', #122, 0.2497499999999999998 ) ;
#225 = CIRCLE ( 'NONE', #48, 0.2500000000000000000 ) ;
#226 = ORIENTED_EDGE ( 'NONE', *, *, #172, .T. ) ;
#227 = CYLINDRICAL_SURFACE ( 'NONE', #22, 0.2500000000000000000 ) ;
#228 = CARTESIAN_POINT ( 'NONE',  ( 0.0000000000000000000, 0.0000000000000000000, 4.000000000000000000 ) ) ;
#229 = EDGE_LOOP ( 'NONE', ( #55, #257, #204, #33 ) ) ;
#230 = DIRECTION ( 'NONE',  ( 1.000000000000000000, 0.0000000000000000000, 0.0000000000000000000 ) ) ;
#231 = ORIENTED_EDGE ( 'NONE', *, *, #167, .F. ) ;
#232 = ORIENTED_EDGE ( 'NONE', *, *, #30, .F. ) ;
#233 =( LENGTH_UNIT ( ) NAMED_UNIT ( * ) SI_UNIT ( $, .METRE. ) );
#234 = CONICAL_SURFACE ( 'NONE', #137, 0.2497499999999999998, 0.1745329251994338915 ) ;
#235 = ADVANCED_FACE ( 'NONE', ( #117 ), #203, .T. ) ;
#236 = PRESENTATION_STYLE_ASSIGNMENT (( #76 ) ) ;
#237 = FILL_AREA_STYLE_COLOUR ( '', #206 ) ;
#238 = ORIENTED_EDGE ( 'NONE', *, *, #273, .F. ) ;
#239 = SURFACE_STYLE_FILL_AREA ( #166 ) ;
#240 = AXIS2_PLACEMENT_3D ( 'NONE', #196, #12, #50 ) ;
#241 = ADVANCED_BREP_SHAPE_REPRESENTATION ( 'Micro_SFA-500-812', ( #57, #192 ), #282 ) ;
#242 =( LENGTH_UNIT ( ) NAMED_UNIT ( * ) SI_UNIT ( $, .METRE. ) );
#243 = MECHANICAL_DESIGN_GEOMETRIC_PRESENTATION_REPRESENTATION (  '', ( #71 ), #34 ) ;
#244 =( GEOMETRIC_REPRESENTATION_CONTEXT ( 3 ) GLOBAL_UNCERTAINTY_ASSIGNED_CONTEXT ( ( #104 ) ) GLOBAL_UNIT_ASSIGNED_CONTEXT ( ( #215, #217, #285 ) ) REPRESENTATION_CONTEXT ( 'NONE', 'WORKASPACE' ) );
#245 = APPLICATION_CONTEXT ( 'automotive_design' ) ;
#246 = CARTESIAN_POINT ( 'NONE',  ( -0.2500000000000000000, 0.0000000000000000000, 4.000000000000000000 ) ) ;
#247 = DIRECTION ( 'NONE',  ( 0.0000000000000000000, 0.0000000000000000000, -1.000000000000000000 ) ) ;
#248 = STYLED_ITEM ( 'NONE', ( #236 ), #241 ) ;
#249 = FACE_OUTER_BOUND ( 'NONE', #89, .T. ) ;
#250 = ORIENTED_EDGE ( 'NONE', *, *, #156, .T. ) ;
#251 = LINE ( 'NONE', #41, #106 ) ;
#252 = ORIENTED_EDGE ( 'NONE', *, *, #39, .T. ) ;
#253 = CONICAL_SURFACE ( 'NONE', #286, 0.2350000000000006251, 0.7853981633974369547 ) ;
#254 = VECTOR ( 'NONE', #85, 39.37007874015748143 ) ;
#255 = LINE ( 'NONE', #46, #2 ) ;
#256 = LINE ( 'NONE', #275, #152 ) ;
#257 = ORIENTED_EDGE ( 'NONE', *, *, #125, .T. ) ;
#258 = DIMENSIONAL_EXPONENTS ( 1.000000000000000000, 0.0000000000000000000, 0.0000000000000000000, 0.0000000000000000000, 0.0000000000000000000, 0.0000000000000000000, 0.0000000000000000000 ) ;
#259 = AXIS2_PLACEMENT_3D ( 'NONE', #222, #87, #175 ) ;
#260 =( CONVERSION_BASED_UNIT ( 'INCH', #100 ) LENGTH_UNIT ( ) NAMED_UNIT ( #258 ) );
#261 = ORIENTED_EDGE ( 'NONE', *, *, #5, .T. ) ;
#262 = EDGE_CURVE ( 'NONE', #210, #138, #225, .T. ) ;
#263 =( NAMED_UNIT ( * ) SI_UNIT ( $, .STERADIAN. ) SOLID_ANGLE_UNIT ( ) );
#264 = CONICAL_SURFACE ( 'NONE', #216, 0.2497499999999999998, 0.1745329251994338915 ) ;
#265 = PLANE ( 'NONE',  #17 ) ;
#266 = SURFACE_STYLE_USAGE ( .BOTH. , #145 ) ;
#267 = AXIS2_PLACEMENT_3D ( 'NONE', #289, #154, #294 ) ;
#268 = CARTESIAN_POINT ( 'NONE',  ( 0.2350000000000006251, 2.969768487932335429E-17, 4.000000000000000000 ) ) ;
#269 = DIRECTION ( 'NONE',  ( 0.0000000000000000000, 0.0000000000000000000, -1.000000000000000000 ) ) ;
#270 = ORIENTED_EDGE ( 'NONE', *, *, #30, .T. ) ;
#271 = LINE ( 'NONE', #59, #53 ) ;
#272 = CARTESIAN_POINT ( 'NONE',  ( -0.2499999999999998335, 0.0000000000000000000, 1.501417820454904462 ) ) ;
#273 = EDGE_CURVE ( 'NONE', #93, #19, #4, .T. ) ;
#274 = EDGE_LOOP ( 'NONE', ( #250, #158, #190, #214 ) ) ;
#275 = CARTESIAN_POINT ( 'NONE',  ( 0.2497500000000001941, 0.0000000000000000000, 1.500000000000000222 ) ) ;
#276 = CIRCLE ( 'NONE', #146, 0.2350000000000006251 ) ;
#277 = DIRECTION ( 'NONE',  ( 0.0000000000000000000, 0.0000000000000000000, 1.000000000000000000 ) ) ;
#278 = CARTESIAN_POINT ( 'NONE',  ( 0.2497499999999999998, 3.058555380870514950E-17, -3.058555380870514950E-17 ) ) ;
#279 = ORIENTED_EDGE ( 'NONE', *, *, #262, .F. ) ;
#280 =( NAMED_UNIT ( * ) PLANE_ANGLE_UNIT ( ) SI_UNIT ( $, .RADIAN. ) );
#281 = ORIENTED_EDGE ( 'NONE', *, *, #125, .F. ) ;
#282 =( GEOMETRIC_REPRESENTATION_CONTEXT ( 3 ) GLOBAL_UNCERTAINTY_ASSIGNED_CONTEXT ( ( #219 ) ) GLOBAL_UNIT_ASSIGNED_CONTEXT ( ( #20, #26, #263 ) ) REPRESENTATION_CONTEXT ( 'NONE', 'WORKASPACE' ) );
#283 = DIRECTION ( 'NONE',  ( -1.000000000000000000, 0.0000000000000000000, 1.224646799147353454E-16 ) ) ;
#284 = DIRECTION ( 'NONE',  ( -1.000000000000000000, 0.0000000000000000000, 0.0000000000000000000 ) ) ;
#285 =( NAMED_UNIT ( * ) SI_UNIT ( $, .STERADIAN. ) SOLID_ANGLE_UNIT ( ) );
#286 = AXIS2_PLACEMENT_3D ( 'NONE', #126, #144, #284 ) ;
#287 = CARTESIAN_POINT ( 'NONE',  ( 3.745650057197989622E-33, 0.0000000000000000000, 3.058555380870514950E-17 ) ) ;
#288 = ADVANCED_FACE ( 'NONE', ( #249 ), #264, .T. ) ;
#289 = CARTESIAN_POINT ( 'NONE',  ( 0.0000000000000000000, 0.0000000000000000000, 0.0000000000000000000 ) ) ;
#290 = ORIENTED_EDGE ( 'NONE', *, *, #141, .F. ) ;
#291 = PRODUCT ( 'Micro_SFA-500-812', 'Micro_SFA-500-812', '', ( #170 ) ) ;
#292 = CYLINDRICAL_SURFACE ( 'NONE', #259, 0.2497499999999999998 ) ;
#293 = AXIS2_PLACEMENT_3D ( 'NONE', #134, #269, #132 ) ;
#294 = DIRECTION ( 'NONE',  ( 1.000000000000000000, 0.0000000000000000000, -0.0000000000000000000 ) ) ;
#295 = ORIENTED_EDGE ( 'NONE', *, *, #84, .F. ) ;
#296 = CARTESIAN_POINT ( 'NONE',  ( 0.0000000000000000000, 0.0000000000000000000, 4.000000000000000000 ) ) ;
#297 = EDGE_CURVE ( 'NONE', #127, #148, #255, .T. ) ;
#298 = CARTESIAN_POINT ( 'NONE',  ( 0.0000000000000000000, 0.0000000000000000000, 4.000000000000000000 ) ) ;
#299 = DIRECTION ( 'NONE',  ( -1.000000000000000000, 0.0000000000000000000, 1.224646799147353454E-16 ) ) ;
ENDSEC;
END-ISO-10303-21;
