ISO-10303-21;
HEADER;
FILE_DESCRIPTION (( 'STEP AP214' ),
    '1' );
FILE_NAME ('Micro_RNC-375-1.STEP',
    '2021-09-03T17:37:47',
    ( '' ),
    ( '' ),
    'SwSTEP 2.0',
    'SolidWorks 2020',
    '' );
FILE_SCHEMA (( 'AUTOMOTIVE_DESIGN' ));
ENDSEC;

DATA;
#1 = DIRECTION ( 'NONE',  ( 0.0000000000000000000, 0.0000000000000000000, -1.000000000000000000 ) ) ;
#2 = CARTESIAN_POINT ( 'NONE',  ( 0.0000000000000000000, 0.0000000000000000000, 2.500000000000000000 ) ) ;
#3 = ADVANCED_FACE ( 'NONE', ( #192 ), #61, .T. ) ;
#4 =( LENGTH_UNIT ( ) NAMED_UNIT ( * ) SI_UNIT ( $, .METRE. ) );
#5 = DIRECTION ( 'NONE',  ( 0.0000000000000000000, 0.0000000000000000000, 1.000000000000000000 ) ) ;
#6 = CARTESIAN_POINT ( 'NONE',  ( 0.0000000000000000000, 0.0000000000000000000, 0.0000000000000000000 ) ) ;
#7 = DIRECTION ( 'NONE',  ( 1.000000000000000000, 0.0000000000000000000, 0.0000000000000000000 ) ) ;
#8 = AXIS2_PLACEMENT_3D ( 'NONE', #10, #164, #40 ) ;
#9 = CARTESIAN_POINT ( 'NONE',  ( 0.0000000000000000000, 0.0000000000000000000, 0.0000000000000000000 ) ) ;
#10 = CARTESIAN_POINT ( 'NONE',  ( 0.0000000000000000000, 0.0000000000000000000, 0.0000000000000000000 ) ) ;
#11 = EDGE_CURVE ( 'NONE', #247, #121, #243, .T. ) ;
#12 = ORIENTED_EDGE ( 'NONE', *, *, #240, .T. ) ;
#13 = AXIS2_PLACEMENT_3D ( 'NONE', #75, #1, #249 ) ;
#14 = ORIENTED_EDGE ( 'NONE', *, *, #15, .F. ) ;
#15 = EDGE_CURVE ( 'NONE', #20, #145, #50, .T. ) ;
#16 = SURFACE_STYLE_FILL_AREA ( #126 ) ;
#17 = CARTESIAN_POINT ( 'NONE',  ( 0.1875000000000000278, 2.296212748401287726E-17, 2.500000000000000000 ) ) ;
#18 = VECTOR ( 'NONE', #81, 39.37007874015748143 ) ;
#19 = DIRECTION ( 'NONE',  ( -0.0000000000000000000, -0.0000000000000000000, -1.000000000000000000 ) ) ;
#20 = VERTEX_POINT ( 'NONE', #36 ) ;
#21 = DIRECTION ( 'NONE',  ( 1.000000000000000000, 0.0000000000000000000, 0.0000000000000000000 ) ) ;
#22 = CLOSED_SHELL ( 'NONE', ( #174, #3, #188, #221, #219, #47, #102, #87 ) ) ;
#23 =( GEOMETRIC_REPRESENTATION_CONTEXT ( 3 ) GLOBAL_UNCERTAINTY_ASSIGNED_CONTEXT ( ( #58 ) ) GLOBAL_UNIT_ASSIGNED_CONTEXT ( ( #155, #210, #190 ) ) REPRESENTATION_CONTEXT ( 'NONE', 'WORKASPACE' ) );
#24 = LINE ( 'NONE', #101, #18 ) ;
#25 = CARTESIAN_POINT ( 'NONE',  ( 0.1724999999999995981, 2.112515728529179297E-17, 2.500000000000000000 ) ) ;
#26 = EDGE_CURVE ( 'NONE', #144, #191, #244, .T. ) ;
#27 = EDGE_CURVE ( 'NONE', #241, #247, #183, .T. ) ;
#28 = AXIS2_PLACEMENT_3D ( 'NONE', #85, #94, #115 ) ;
#29 = PRODUCT_RELATED_PRODUCT_CATEGORY ( 'part', '', ( #34 ) ) ;
#30 = AXIS2_PLACEMENT_3D ( 'NONE', #198, #238, #7 ) ;
#31 =( GEOMETRIC_REPRESENTATION_CONTEXT ( 3 ) GLOBAL_UNCERTAINTY_ASSIGNED_CONTEXT ( ( #153 ) ) GLOBAL_UNIT_ASSIGNED_CONTEXT ( ( #114, #59, #80 ) ) REPRESENTATION_CONTEXT ( 'NONE', 'WORKASPACE' ) );
#32 = ORIENTED_EDGE ( 'NONE', *, *, #235, .T. ) ;
#33 = EDGE_LOOP ( 'NONE', ( #193, #12, #65, #88 ) ) ;
#34 = PRODUCT ( 'Micro_RNC-375-1', 'Micro_RNC-375-1', '', ( #159 ) ) ;
#35 = ORIENTED_EDGE ( 'NONE', *, *, #240, .F. ) ;
#36 = CARTESIAN_POINT ( 'NONE',  ( 0.003999999999999999216, 0.0000000000000000000, 0.0000000000000000000 ) ) ;
#37 = DIRECTION ( 'NONE',  ( -1.000000000000000000, 0.0000000000000000000, 0.0000000000000000000 ) ) ;
#38 = FACE_OUTER_BOUND ( 'NONE', #123, .T. ) ;
#39 = AXIS2_PLACEMENT_3D ( 'NONE', #131, #172, #176 ) ;
#40 = DIRECTION ( 'NONE',  ( -1.000000000000000000, 0.0000000000000000000, 0.0000000000000000000 ) ) ;
#41 = DIRECTION ( 'NONE',  ( -0.0000000000000000000, -0.0000000000000000000, -1.000000000000000000 ) ) ;
#42 = CARTESIAN_POINT ( 'NONE',  ( 0.1875000000000000278, 2.296212748401287726E-17, 0.1834999999999992193 ) ) ;
#43 = VECTOR ( 'NONE', #57, 39.37007874015748854 ) ;
#44 = MANIFOLD_SOLID_BREP ( 'Cut-Revolve1', #22 ) ;
#45 = ORIENTED_EDGE ( 'NONE', *, *, #227, .F. ) ;
#46 = CIRCLE ( 'NONE', #8, 0.003999999999999999216 ) ;
#47 = ADVANCED_FACE ( 'NONE', ( #93 ), #86, .T. ) ;
#48 = ORIENTED_EDGE ( 'NONE', *, *, #27, .T. ) ;
#49 = FILL_AREA_STYLE_COLOUR ( '', #171 ) ;
#50 = CIRCLE ( 'NONE', #146, 0.003999999999999999216 ) ;
#51 = PLANE ( 'NONE',  #161 ) ;
#52 = ORIENTED_EDGE ( 'NONE', *, *, #187, .T. ) ;
#53 = CARTESIAN_POINT ( 'NONE',  ( 0.0000000000000000000, 0.0000000000000000000, 2.500000000000000000 ) ) ;
#54 = SURFACE_STYLE_USAGE ( .BOTH. , #128 ) ;
#55 = DIRECTION ( 'NONE',  ( -0.0000000000000000000, -0.0000000000000000000, -1.000000000000000000 ) ) ;
#56 = DIRECTION ( 'NONE',  ( -1.000000000000000000, 0.0000000000000000000, 0.0000000000000000000 ) ) ;
#57 = DIRECTION ( 'NONE',  ( -0.7071067811865490160, 8.659560562354951347E-17, 0.7071067811865459074 ) ) ;
#58 = UNCERTAINTY_MEASURE_WITH_UNIT (LENGTH_MEASURE( 1.000000000000000082E-05 ), #155, 'distance_accuracy_value', 'NONE');
#59 =( NAMED_UNIT ( * ) PLANE_ANGLE_UNIT ( ) SI_UNIT ( $, .RADIAN. ) );
#60 = LINE ( 'NONE', #97, #43 ) ;
#61 = CONICAL_SURFACE ( 'NONE', #39, 0.1724999999999995981, 0.7853981633974357335 ) ;
#62 = CARTESIAN_POINT ( 'NONE',  ( -0.1875000000000000278, 0.0000000000000000000, 0.1834999999999992193 ) ) ;
#63 = CARTESIAN_POINT ( 'NONE',  ( 0.0000000000000000000, 0.0000000000000000000, 0.0000000000000000000 ) ) ;
#64 = PRESENTATION_LAYER_ASSIGNMENT (  '', '', ( #177 ) ) ;
#65 = ORIENTED_EDGE ( 'NONE', *, *, #199, .F. ) ;
#66 = ORIENTED_EDGE ( 'NONE', *, *, #234, .T. ) ;
#67 = PRODUCT_DEFINITION_SHAPE ( 'NONE', 'NONE',  #169 ) ;
#68 = AXIS2_PLACEMENT_3D ( 'NONE', #134, #189, #149 ) ;
#69 = PRODUCT_DEFINITION_FORMATION_WITH_SPECIFIED_SOURCE ( 'ANY', '', #34, .NOT_KNOWN. ) ;
#70 = LENGTH_MEASURE_WITH_UNIT ( LENGTH_MEASURE( 0.02539999999999999897 ), #200 );
#71 = EDGE_CURVE ( 'NONE', #179, #191, #239, .T. ) ;
#72 = COLOUR_RGB ( '',0.7921568627450980005, 0.8196078431372548767, 0.9333333333333333481 ) ;
#73 = PRESENTATION_STYLE_ASSIGNMENT (( #54 ) ) ;
#74 = SURFACE_SIDE_STYLE ('',( #224 ) ) ;
#75 = CARTESIAN_POINT ( 'NONE',  ( 0.0000000000000000000, 0.0000000000000000000, 2.500000000000000000 ) ) ;
#76 = DIMENSIONAL_EXPONENTS ( 1.000000000000000000, 0.0000000000000000000, 0.0000000000000000000, 0.0000000000000000000, 0.0000000000000000000, 0.0000000000000000000, 0.0000000000000000000 ) ;
#77 = DIRECTION ( 'NONE',  ( -0.7071067811865385799, 0.0000000000000000000, -0.7071067811865563435 ) ) ;
#78 = CARTESIAN_POINT ( 'NONE',  ( 0.0000000000000000000, 0.0000000000000000000, 0.1834999999999992193 ) ) ;
#79 = CARTESIAN_POINT ( 'NONE',  ( 0.0000000000000000000, 0.0000000000000000000, 2.484999999999999432 ) ) ;
#80 =( NAMED_UNIT ( * ) SI_UNIT ( $, .STERADIAN. ) SOLID_ANGLE_UNIT ( ) );
#81 = DIRECTION ( 'NONE',  ( -0.0000000000000000000, -0.0000000000000000000, -1.000000000000000000 ) ) ;
#82 = EDGE_CURVE ( 'NONE', #144, #121, #122, .T. ) ;
#83 = FACE_OUTER_BOUND ( 'NONE', #109, .T. ) ;
#84 = CARTESIAN_POINT ( 'NONE',  ( 0.0000000000000000000, 0.0000000000000000000, 2.500000000000000000 ) ) ;
#85 = CARTESIAN_POINT ( 'NONE',  ( 0.0000000000000000000, 0.0000000000000000000, 2.500000000000000000 ) ) ;
#86 = CONICAL_SURFACE ( 'NONE', #13, 0.1724999999999995981, 0.7853981633974357335 ) ;
#87 = ADVANCED_FACE ( 'NONE', ( #222 ), #51, .F. ) ;
#88 = ORIENTED_EDGE ( 'NONE', *, *, #11, .F. ) ;
#89 = AXIS2_PLACEMENT_3D ( 'NONE', #84, #163, #236 ) ;
#90 = ORIENTED_EDGE ( 'NONE', *, *, #187, .F. ) ;
#91 = FILL_AREA_STYLE ('',( #49 ) ) ;
#92 = MECHANICAL_DESIGN_GEOMETRIC_PRESENTATION_REPRESENTATION (  '', ( #107 ), #23 ) ;
#93 = FACE_OUTER_BOUND ( 'NONE', #228, .T. ) ;
#94 = DIRECTION ( 'NONE',  ( 0.0000000000000000000, 0.0000000000000000000, 1.000000000000000000 ) ) ;
#95 = MECHANICAL_DESIGN_GEOMETRIC_PRESENTATION_REPRESENTATION (  '', ( #177 ), #31 ) ;
#96 = CARTESIAN_POINT ( 'NONE',  ( -0.003999999999999999216, 1.172599310183590719E-17, 0.0000000000000000000 ) ) ;
#97 = CARTESIAN_POINT ( 'NONE',  ( -0.003999999999999999216, 4.898587196589411612E-19, 0.0000000000000000000 ) ) ;
#98 = UNCERTAINTY_MEASURE_WITH_UNIT (LENGTH_MEASURE( 1.000000000000000082E-05 ), #166, 'distance_accuracy_value', 'NONE');
#99 = CYLINDRICAL_SURFACE ( 'NONE', #175, 0.1875000000000000278 ) ;
#100 = VECTOR ( 'NONE', #162, 39.37007874015748854 ) ;
#101 = CARTESIAN_POINT ( 'NONE',  ( -0.1875000000000000278, 0.0000000000000000000, 2.500000000000000000 ) ) ;
#102 = ADVANCED_FACE ( 'NONE', ( #215 ), #125, .T. ) ;
#103 = CONICAL_SURFACE ( 'NONE', #112, 0.003999999999999999216, 0.7853981633974504994 ) ;
#104 = ORIENTED_EDGE ( 'NONE', *, *, #82, .T. ) ;
#105 =( NAMED_UNIT ( * ) PLANE_ANGLE_UNIT ( ) SI_UNIT ( $, .RADIAN. ) );
#106 = ORIENTED_EDGE ( 'NONE', *, *, #232, .T. ) ;
#107 = STYLED_ITEM ( 'NONE', ( #73 ), #44 ) ;
#108 = CARTESIAN_POINT ( 'NONE',  ( 0.0000000000000000000, 0.0000000000000000000, 0.0000000000000000000 ) ) ;
#109 = EDGE_LOOP ( 'NONE', ( #130, #206, #204, #170 ) ) ;
#110 = AXIS2_PLACEMENT_3D ( 'NONE', #184, #185, #160 ) ;
#111 = ORIENTED_EDGE ( 'NONE', *, *, #127, .F. ) ;
#112 = AXIS2_PLACEMENT_3D ( 'NONE', #113, #212, #21 ) ;
#113 = CARTESIAN_POINT ( 'NONE',  ( 0.0000000000000000000, 0.0000000000000000000, 0.0000000000000000000 ) ) ;
#114 =( CONVERSION_BASED_UNIT ( 'INCH', #135 ) LENGTH_UNIT ( ) NAMED_UNIT ( #76 ) );
#115 = DIRECTION ( 'NONE',  ( 1.000000000000000000, 0.0000000000000000000, -0.0000000000000000000 ) ) ;
#116 = PLANE ( 'NONE',  #28 ) ;
#117 = CIRCLE ( 'NONE', #110, 0.1875000000000000278 ) ;
#118 = PRODUCT_DEFINITION_CONTEXT ( 'detailed design', #165, 'design' ) ;
#119 = ORIENTED_EDGE ( 'NONE', *, *, #199, .T. ) ;
#120 = EDGE_LOOP ( 'NONE', ( #45, #14, #106, #52 ) ) ;
#121 = VERTEX_POINT ( 'NONE', #217 ) ;
#122 = CIRCLE ( 'NONE', #68, 0.1875000000000000278 ) ;
#123 = EDGE_LOOP ( 'NONE', ( #32, #48 ) ) ;
#124 = SURFACE_STYLE_USAGE ( .BOTH. , #74 ) ;
#125 = CONICAL_SURFACE ( 'NONE', #223, 0.003999999999999999216, 0.7853981633974504994 ) ;
#126 = FILL_AREA_STYLE ('',( #133 ) ) ;
#127 = EDGE_CURVE ( 'NONE', #121, #179, #24, .T. ) ;
#128 = SURFACE_SIDE_STYLE ('',( #16 ) ) ;
#129 = APPLICATION_PROTOCOL_DEFINITION ( 'draft international standard', 'automotive_design', 1998, #165 ) ;
#130 = ORIENTED_EDGE ( 'NONE', *, *, #234, .F. ) ;
#131 = CARTESIAN_POINT ( 'NONE',  ( 0.0000000000000000000, 0.0000000000000000000, 2.500000000000000000 ) ) ;
#132 =( GEOMETRIC_REPRESENTATION_CONTEXT ( 3 ) GLOBAL_UNCERTAINTY_ASSIGNED_CONTEXT ( ( #98 ) ) GLOBAL_UNIT_ASSIGNED_CONTEXT ( ( #166, #105, #167 ) ) REPRESENTATION_CONTEXT ( 'NONE', 'WORKASPACE' ) );
#133 = FILL_AREA_STYLE_COLOUR ( '', #72 ) ;
#134 = CARTESIAN_POINT ( 'NONE',  ( 0.0000000000000000000, 0.0000000000000000000, 2.484999999999999432 ) ) ;
#135 = LENGTH_MEASURE_WITH_UNIT ( LENGTH_MEASURE( 0.02539999999999999897 ), #4 );
#136 = DIRECTION ( 'NONE',  ( 1.000000000000000000, 0.0000000000000000000, 0.0000000000000000000 ) ) ;
#137 = CIRCLE ( 'NONE', #150, 0.1875000000000000278 ) ;
#138 = LINE ( 'NONE', #213, #230 ) ;
#139 = APPLICATION_PROTOCOL_DEFINITION ( 'draft international standard', 'automotive_design', 1998, #148 ) ;
#140 = LINE ( 'NONE', #25, #100 ) ;
#141 = CARTESIAN_POINT ( 'NONE',  ( 0.1875000000000000278, 2.296212748401287726E-17, 2.484999999999999432 ) ) ;
#142 = DIRECTION ( 'NONE',  ( 1.000000000000000000, 0.0000000000000000000, 0.0000000000000000000 ) ) ;
#143 = PRESENTATION_LAYER_ASSIGNMENT (  '', '', ( #107 ) ) ;
#144 = VERTEX_POINT ( 'NONE', #141 ) ;
#145 = VERTEX_POINT ( 'NONE', #96 ) ;
#146 = AXIS2_PLACEMENT_3D ( 'NONE', #108, #19, #37 ) ;
#147 = ORIENTED_EDGE ( 'NONE', *, *, #71, .F. ) ;
#148 = APPLICATION_CONTEXT ( 'automotive_design' ) ;
#149 = DIRECTION ( 'NONE',  ( 1.000000000000000000, 0.0000000000000000000, 0.0000000000000000000 ) ) ;
#150 = AXIS2_PLACEMENT_3D ( 'NONE', #79, #180, #142 ) ;
#151 = ORIENTED_EDGE ( 'NONE', *, *, #11, .T. ) ;
#152 =( LENGTH_UNIT ( ) NAMED_UNIT ( * ) SI_UNIT ( $, .METRE. ) );
#153 = UNCERTAINTY_MEASURE_WITH_UNIT (LENGTH_MEASURE( 1.000000000000000082E-05 ), #114, 'distance_accuracy_value', 'NONE');
#154 = DIRECTION ( 'NONE',  ( 1.000000000000000000, 0.0000000000000000000, 0.0000000000000000000 ) ) ;
#155 =( CONVERSION_BASED_UNIT ( 'INCH', #207 ) LENGTH_UNIT ( ) NAMED_UNIT ( #157 ) );
#156 = DIRECTION ( 'NONE',  ( -0.0000000000000000000, -0.0000000000000000000, -1.000000000000000000 ) ) ;
#157 = DIMENSIONAL_EXPONENTS ( 1.000000000000000000, 0.0000000000000000000, 0.0000000000000000000, 0.0000000000000000000, 0.0000000000000000000, 0.0000000000000000000, 0.0000000000000000000 ) ;
#158 = DIRECTION ( 'NONE',  ( -1.000000000000000000, 0.0000000000000000000, 0.0000000000000000000 ) ) ;
#159 = PRODUCT_CONTEXT ( 'NONE', #148, 'mechanical' ) ;
#160 = DIRECTION ( 'NONE',  ( -1.000000000000000000, 0.0000000000000000000, 0.0000000000000000000 ) ) ;
#161 = AXIS2_PLACEMENT_3D ( 'NONE', #9, #5, #194 ) ;
#162 = DIRECTION ( 'NONE',  ( 0.7071067811865385799, 8.659560562354823157E-17, -0.7071067811865563435 ) ) ;
#163 = DIRECTION ( 'NONE',  ( -0.0000000000000000000, -0.0000000000000000000, -1.000000000000000000 ) ) ;
#164 = DIRECTION ( 'NONE',  ( -0.0000000000000000000, -0.0000000000000000000, -1.000000000000000000 ) ) ;
#165 = APPLICATION_CONTEXT ( 'automotive_design' ) ;
#166 =( CONVERSION_BASED_UNIT ( 'INCH', #70 ) LENGTH_UNIT ( ) NAMED_UNIT ( #182 ) );
#167 =( NAMED_UNIT ( * ) SI_UNIT ( $, .STERADIAN. ) SOLID_ANGLE_UNIT ( ) );
#168 = EDGE_LOOP ( 'NONE', ( #231, #104, #218, #90 ) ) ;
#169 = PRODUCT_DEFINITION ( 'UNKNOWN', '', #69, #118 ) ;
#170 = ORIENTED_EDGE ( 'NONE', *, *, #232, .F. ) ;
#171 = COLOUR_RGB ( '',0.7921568627450980005, 0.8196078431372548767, 0.9333333333333333481 ) ;
#172 = DIRECTION ( 'NONE',  ( 0.0000000000000000000, 0.0000000000000000000, -1.000000000000000000 ) ) ;
#173 = SHAPE_DEFINITION_REPRESENTATION ( #67, #242 ) ;
#174 = ADVANCED_FACE ( 'NONE', ( #83 ), #103, .T. ) ;
#175 = AXIS2_PLACEMENT_3D ( 'NONE', #2, #41, #158 ) ;
#176 = DIRECTION ( 'NONE',  ( -1.000000000000000000, 0.0000000000000000000, 0.0000000000000000000 ) ) ;
#177 = STYLED_ITEM ( 'NONE', ( #226 ), #242 ) ;
#178 = FACE_OUTER_BOUND ( 'NONE', #168, .T. ) ;
#179 = VERTEX_POINT ( 'NONE', #62 ) ;
#180 = DIRECTION ( 'NONE',  ( 0.0000000000000000000, 0.0000000000000000000, -1.000000000000000000 ) ) ;
#181 = DIRECTION ( 'NONE',  ( 0.0000000000000000000, 0.0000000000000000000, 1.000000000000000000 ) ) ;
#182 = DIMENSIONAL_EXPONENTS ( 1.000000000000000000, 0.0000000000000000000, 0.0000000000000000000, 0.0000000000000000000, 0.0000000000000000000, 0.0000000000000000000, 0.0000000000000000000 ) ;
#183 = CIRCLE ( 'NONE', #216, 0.1724999999999995981 ) ;
#184 = CARTESIAN_POINT ( 'NONE',  ( 0.0000000000000000000, 0.0000000000000000000, 0.1834999999999992193 ) ) ;
#185 = DIRECTION ( 'NONE',  ( -0.0000000000000000000, -0.0000000000000000000, -1.000000000000000000 ) ) ;
#186 = ORIENTED_EDGE ( 'NONE', *, *, #82, .F. ) ;
#187 = EDGE_CURVE ( 'NONE', #191, #179, #117, .T. ) ;
#188 = ADVANCED_FACE ( 'NONE', ( #202 ), #197, .T. ) ;
#189 = DIRECTION ( 'NONE',  ( 0.0000000000000000000, 0.0000000000000000000, -1.000000000000000000 ) ) ;
#190 =( NAMED_UNIT ( * ) SI_UNIT ( $, .STERADIAN. ) SOLID_ANGLE_UNIT ( ) );
#191 = VERTEX_POINT ( 'NONE', #42 ) ;
#192 = FACE_OUTER_BOUND ( 'NONE', #33, .T. ) ;
#193 = ORIENTED_EDGE ( 'NONE', *, *, #27, .F. ) ;
#194 = DIRECTION ( 'NONE',  ( 1.000000000000000000, 0.0000000000000000000, -0.0000000000000000000 ) ) ;
#195 = VECTOR ( 'NONE', #55, 39.37007874015748143 ) ;
#196 = DIRECTION ( 'NONE',  ( 0.0000000000000000000, 0.0000000000000000000, 1.000000000000000000 ) ) ;
#197 = CYLINDRICAL_SURFACE ( 'NONE', #89, 0.1875000000000000278 ) ;
#198 = CARTESIAN_POINT ( 'NONE',  ( 0.0000000000000000000, 0.0000000000000000000, 2.500000000000000000 ) ) ;
#199 = EDGE_CURVE ( 'NONE', #121, #144, #137, .T. ) ;
#200 =( LENGTH_UNIT ( ) NAMED_UNIT ( * ) SI_UNIT ( $, .METRE. ) );
#201 = VECTOR ( 'NONE', #77, 39.37007874015748854 ) ;
#202 = FACE_OUTER_BOUND ( 'NONE', #220, .T. ) ;
#203 = AXIS2_PLACEMENT_3D ( 'NONE', #6, #196, #154 ) ;
#204 = ORIENTED_EDGE ( 'NONE', *, *, #71, .T. ) ;
#205 = ORIENTED_EDGE ( 'NONE', *, *, #15, .T. ) ;
#206 = ORIENTED_EDGE ( 'NONE', *, *, #227, .T. ) ;
#207 = LENGTH_MEASURE_WITH_UNIT ( LENGTH_MEASURE( 0.02539999999999999897 ), #152 );
#208 = DIRECTION ( 'NONE',  ( 0.0000000000000000000, 0.0000000000000000000, 1.000000000000000000 ) ) ;
#209 = CIRCLE ( 'NONE', #30, 0.1724999999999995981 ) ;
#210 =( NAMED_UNIT ( * ) PLANE_ANGLE_UNIT ( ) SI_UNIT ( $, .RADIAN. ) );
#211 = CARTESIAN_POINT ( 'NONE',  ( -0.1724999999999995981, 0.0000000000000000000, 2.500000000000000000 ) ) ;
#212 = DIRECTION ( 'NONE',  ( 0.0000000000000000000, 0.0000000000000000000, 1.000000000000000000 ) ) ;
#213 = CARTESIAN_POINT ( 'NONE',  ( 0.003999999999999999216, 0.0000000000000000000, 0.0000000000000000000 ) ) ;
#214 = CARTESIAN_POINT ( 'NONE',  ( -0.1724999999999995981, 0.0000000000000000000, 2.500000000000000000 ) ) ;
#215 = FACE_OUTER_BOUND ( 'NONE', #120, .T. ) ;
#216 = AXIS2_PLACEMENT_3D ( 'NONE', #53, #208, #246 ) ;
#217 = CARTESIAN_POINT ( 'NONE',  ( -0.1875000000000000278, 0.0000000000000000000, 2.484999999999999432 ) ) ;
#218 = ORIENTED_EDGE ( 'NONE', *, *, #127, .T. ) ;
#219 = ADVANCED_FACE ( 'NONE', ( #38 ), #116, .T. ) ;
#220 = EDGE_LOOP ( 'NONE', ( #119, #229, #147, #111 ) ) ;
#221 = ADVANCED_FACE ( 'NONE', ( #178 ), #99, .T. ) ;
#222 = FACE_OUTER_BOUND ( 'NONE', #248, .T. ) ;
#223 = AXIS2_PLACEMENT_3D ( 'NONE', #63, #181, #136 ) ;
#224 = SURFACE_STYLE_FILL_AREA ( #91 ) ;
#225 = ORIENTED_EDGE ( 'NONE', *, *, #235, .F. ) ;
#226 = PRESENTATION_STYLE_ASSIGNMENT (( #124 ) ) ;
#227 = EDGE_CURVE ( 'NONE', #145, #179, #60, .T. ) ;
#228 = EDGE_LOOP ( 'NONE', ( #35, #225, #151, #186 ) ) ;
#229 = ORIENTED_EDGE ( 'NONE', *, *, #26, .T. ) ;
#230 = VECTOR ( 'NONE', #233, 39.37007874015748854 ) ;
#231 = ORIENTED_EDGE ( 'NONE', *, *, #26, .F. ) ;
#232 = EDGE_CURVE ( 'NONE', #20, #191, #138, .T. ) ;
#233 = DIRECTION ( 'NONE',  ( 0.7071067811865490160, 0.0000000000000000000, 0.7071067811865459074 ) ) ;
#234 = EDGE_CURVE ( 'NONE', #145, #20, #46, .T. ) ;
#235 = EDGE_CURVE ( 'NONE', #247, #241, #209, .T. ) ;
#236 = DIRECTION ( 'NONE',  ( -1.000000000000000000, 0.0000000000000000000, 0.0000000000000000000 ) ) ;
#237 = CARTESIAN_POINT ( 'NONE',  ( 0.1724999999999995981, 2.204364238465233357E-17, 2.500000000000000000 ) ) ;
#238 = DIRECTION ( 'NONE',  ( 0.0000000000000000000, 0.0000000000000000000, 1.000000000000000000 ) ) ;
#239 = CIRCLE ( 'NONE', #245, 0.1875000000000000278 ) ;
#240 = EDGE_CURVE ( 'NONE', #241, #144, #140, .T. ) ;
#241 = VERTEX_POINT ( 'NONE', #237 ) ;
#242 = ADVANCED_BREP_SHAPE_REPRESENTATION ( 'Micro_RNC-375-1', ( #44, #203 ), #132 ) ;
#243 = LINE ( 'NONE', #211, #201 ) ;
#244 = LINE ( 'NONE', #17, #195 ) ;
#245 = AXIS2_PLACEMENT_3D ( 'NONE', #78, #156, #56 ) ;
#246 = DIRECTION ( 'NONE',  ( 1.000000000000000000, 0.0000000000000000000, 0.0000000000000000000 ) ) ;
#247 = VERTEX_POINT ( 'NONE', #214 ) ;
#248 = EDGE_LOOP ( 'NONE', ( #205, #66 ) ) ;
#249 = DIRECTION ( 'NONE',  ( -1.000000000000000000, 0.0000000000000000000, 0.0000000000000000000 ) ) ;
ENDSEC;
END-ISO-10303-21;
