ISO-10303-21;
HEADER;
FILE_DESCRIPTION (( 'STEP AP214' ),
    '1' );
FILE_NAME ('Micro_RDA-80.STEP',
    '2021-08-31T16:59:13',
    ( '' ),
    ( '' ),
    'SwSTEP 2.0',
    'SolidWorks 2020',
    '' );
FILE_SCHEMA (( 'AUTOMOTIVE_DESIGN' ));
ENDSEC;

DATA;
#1 = FACE_OUTER_BOUND ( 'NONE', #129, .T. ) ;
#2 = VECTOR ( 'NONE', #161, 39.37007874015748143 ) ;
#3 =( NAMED_UNIT ( * ) SI_UNIT ( $, .STERADIAN. ) SOLID_ANGLE_UNIT ( ) );
#4 = EDGE_CURVE ( 'NONE', #63, #273, #59, .T. ) ;
#5 = LINE ( 'NONE', #231, #292 ) ;
#6 = FILL_AREA_STYLE ('',( #115 ) ) ;
#7 = VECTOR ( 'NONE', #164, 39.37007874015748854 ) ;
#8 = CARTESIAN_POINT ( 'NONE',  ( 0.1248749999999999999, 1.529277690435257475E-17, -1.529277690435257783E-17 ) ) ;
#9 = AXIS2_PLACEMENT_3D ( 'NONE', #92, #206, #182 ) ;
#10 = ORIENTED_EDGE ( 'NONE', *, *, #20, .F. ) ;
#11 = DIRECTION ( 'NONE',  ( 0.0000000000000000000, 0.0000000000000000000, -1.000000000000000000 ) ) ;
#12 = EDGE_CURVE ( 'NONE', #225, #296, #128, .T. ) ;
#13 = CARTESIAN_POINT ( 'NONE',  ( 0.0000000000000000000, 0.0000000000000000000, 0.0000000000000000000 ) ) ;
#14 = DIRECTION ( 'NONE',  ( -1.224646799147353454E-16, -0.0000000000000000000, -1.000000000000000000 ) ) ;
#15 = VERTEX_POINT ( 'NONE', #227 ) ;
#16 = DIRECTION ( 'NONE',  ( -0.0000000000000000000, -0.0000000000000000000, -1.000000000000000000 ) ) ;
#17 = FILL_AREA_STYLE ('',( #295 ) ) ;
#18 = ORIENTED_EDGE ( 'NONE', *, *, #256, .T. ) ;
#19 = DIRECTION ( 'NONE',  ( -1.224646799147353454E-16, -0.0000000000000000000, -1.000000000000000000 ) ) ;
#20 = EDGE_CURVE ( 'NONE', #222, #63, #280, .T. ) ;
#21 = AXIS2_PLACEMENT_3D ( 'NONE', #293, #14, #64 ) ;
#22 = CONICAL_SURFACE ( 'NONE', #42, 0.1100000000000004446, 0.7853981633974613796 ) ;
#23 = CARTESIAN_POINT ( 'NONE',  ( -0.1248749999999998889, 1.529277690435257475E-17, 1.000000000000000000 ) ) ;
#24 = DIRECTION ( 'NONE',  ( 0.0000000000000000000, 0.0000000000000000000, 1.000000000000000000 ) ) ;
#25 = PRODUCT_DEFINITION_FORMATION_WITH_SPECIFIED_SOURCE ( 'ANY', '', #184, .NOT_KNOWN. ) ;
#26 =( NAMED_UNIT ( * ) PLANE_ANGLE_UNIT ( ) SI_UNIT ( $, .RADIAN. ) );
#27 = DIRECTION ( 'NONE',  ( -1.000000000000000000, 0.0000000000000000000, 0.0000000000000000000 ) ) ;
#28 = CARTESIAN_POINT ( 'NONE',  ( 0.0000000000000000000, 0.0000000000000000000, 3.000000000000000444 ) ) ;
#29 = VECTOR ( 'NONE', #230, 39.37007874015748143 ) ;
#30 = CARTESIAN_POINT ( 'NONE',  ( -0.1250000000000000000, 0.0000000000000000000, 2.985000000000001208 ) ) ;
#31 = ORIENTED_EDGE ( 'NONE', *, *, #189, .F. ) ;
#32 = DIRECTION ( 'NONE',  ( 0.0000000000000000000, 0.0000000000000000000, 1.000000000000000000 ) ) ;
#33 = EDGE_CURVE ( 'NONE', #63, #222, #265, .T. ) ;
#34 =( CONVERSION_BASED_UNIT ( 'INCH', #244 ) LENGTH_UNIT ( ) NAMED_UNIT ( #270 ) );
#35 = CARTESIAN_POINT ( 'NONE',  ( 0.0000000000000000000, 0.0000000000000000000, 3.000000000000000444 ) ) ;
#36 =( LENGTH_UNIT ( ) NAMED_UNIT ( * ) SI_UNIT ( $, .METRE. ) );
#37 = CARTESIAN_POINT ( 'NONE',  ( 0.0000000000000000000, 0.0000000000000000000, 2.985000000000001208 ) ) ;
#38 = ORIENTED_EDGE ( 'NONE', *, *, #84, .F. ) ;
#39 = DIRECTION ( 'NONE',  ( 1.000000000000000000, 0.0000000000000000000, 0.0000000000000000000 ) ) ;
#40 = ORIENTED_EDGE ( 'NONE', *, *, #12, .F. ) ;
#41 = AXIS2_PLACEMENT_3D ( 'NONE', #202, #16, #78 ) ;
#42 = AXIS2_PLACEMENT_3D ( 'NONE', #28, #169, #99 ) ;
#43 = LENGTH_MEASURE_WITH_UNIT ( LENGTH_MEASURE( 0.02539999999999999897 ), #112 );
#44 = SURFACE_SIDE_STYLE ('',( #93 ) ) ;
#45 = FACE_OUTER_BOUND ( 'NONE', #83, .T. ) ;
#46 = CARTESIAN_POINT ( 'NONE',  ( 0.1248750000000001248, 0.0000000000000000000, 1.000000000000000000 ) ) ;
#47 = ADVANCED_FACE ( 'NONE', ( #198 ), #291, .T. ) ;
#48 = DIRECTION ( 'NONE',  ( -1.000000000000000000, 0.0000000000000000000, 0.0000000000000000000 ) ) ;
#49 = ORIENTED_EDGE ( 'NONE', *, *, #269, .T. ) ;
#50 = AXIS2_PLACEMENT_3D ( 'NONE', #13, #32, #51 ) ;
#51 = DIRECTION ( 'NONE',  ( 1.000000000000000000, 0.0000000000000000000, -0.0000000000000000000 ) ) ;
#52 = VERTEX_POINT ( 'NONE', #109 ) ;
#53 = EDGE_CURVE ( 'NONE', #15, #288, #94, .T. ) ;
#54 = DIRECTION ( 'NONE',  ( 1.000000000000000000, 0.0000000000000000000, 0.0000000000000000000 ) ) ;
#55 = STYLED_ITEM ( 'NONE', ( #207 ), #62 ) ;
#56 = EDGE_CURVE ( 'NONE', #288, #225, #82, .T. ) ;
#57 = CIRCLE ( 'NONE', #114, 0.1250000000000000000 ) ;
#58 = DIRECTION ( 'NONE',  ( 0.1736481776669313859, 0.0000000000000000000, 0.9848077530122077983 ) ) ;
#59 = LINE ( 'NONE', #153, #297 ) ;
#60 = ORIENTED_EDGE ( 'NONE', *, *, #150, .T. ) ;
#61 = PRESENTATION_LAYER_ASSIGNMENT (  '', '', ( #75 ) ) ;
#62 = MANIFOLD_SOLID_BREP ( 'Cut-Revolve1', #156 ) ;
#63 = VERTEX_POINT ( 'NONE', #46 ) ;
#64 = DIRECTION ( 'NONE',  ( -1.000000000000000000, 0.0000000000000000000, 0.0000000000000000000 ) ) ;
#65 = CARTESIAN_POINT ( 'NONE',  ( 0.1248749999999999999, 1.529277690435257475E-17, 0.0000000000000000000 ) ) ;
#66 = AXIS2_PLACEMENT_3D ( 'NONE', #262, #11, #48 ) ;
#67 = CYLINDRICAL_SURFACE ( 'NONE', #79, 0.1250000000000000000 ) ;
#68 =( CONVERSION_BASED_UNIT ( 'INCH', #43 ) LENGTH_UNIT ( ) NAMED_UNIT ( #89 ) );
#69 = CARTESIAN_POINT ( 'NONE',  ( -0.1100000000000004446, 0.0000000000000000000, 3.000000000000000444 ) ) ;
#70 = CIRCLE ( 'NONE', #277, 0.1248749999999999999 ) ;
#71 = CARTESIAN_POINT ( 'NONE',  ( -0.1248749999999999999, 0.0000000000000000000, 1.529277690435257783E-17 ) ) ;
#72 = DIRECTION ( 'NONE',  ( 1.224646799147353454E-16, 0.0000000000000000000, 1.000000000000000000 ) ) ;
#73 = ORIENTED_EDGE ( 'NONE', *, *, #194, .F. ) ;
#74 = CARTESIAN_POINT ( 'NONE',  ( -0.1248749999999998889, 1.530043094684724646E-17, 1.000000000000000000 ) ) ;
#75 = STYLED_ITEM ( 'NONE', ( #248 ), #81 ) ;
#76 =( NAMED_UNIT ( * ) SI_UNIT ( $, .STERADIAN. ) SOLID_ANGLE_UNIT ( ) );
#77 = CARTESIAN_POINT ( 'NONE',  ( 1.225514963788285700E-16, 0.0000000000000000000, 1.000708910227452231 ) ) ;
#78 = DIRECTION ( 'NONE',  ( -1.000000000000000000, 0.0000000000000000000, 0.0000000000000000000 ) ) ;
#79 = AXIS2_PLACEMENT_3D ( 'NONE', #257, #159, #27 ) ;
#80 = SHAPE_DEFINITION_REPRESENTATION ( #134, #81 ) ;
#81 = ADVANCED_BREP_SHAPE_REPRESENTATION ( 'Micro_RDA-80', ( #62, #177 ), #95 ) ;
#82 = LINE ( 'NONE', #245, #7 ) ;
#83 = EDGE_LOOP ( 'NONE', ( #237, #294, #131, #18 ) ) ;
#84 = EDGE_CURVE ( 'NONE', #296, #103, #181, .T. ) ;
#85 = ORIENTED_EDGE ( 'NONE', *, *, #216, .T. ) ;
#86 = PRODUCT_CONTEXT ( 'NONE', #190, 'mechanical' ) ;
#87 = ORIENTED_EDGE ( 'NONE', *, *, #56, .F. ) ;
#88 = EDGE_CURVE ( 'NONE', #222, #103, #157, .T. ) ;
#89 = DIMENSIONAL_EXPONENTS ( 1.000000000000000000, 0.0000000000000000000, 0.0000000000000000000, 0.0000000000000000000, 0.0000000000000000000, 0.0000000000000000000, 0.0000000000000000000 ) ;
#90 = DIRECTION ( 'NONE',  ( -1.000000000000000000, 0.0000000000000000000, 1.224646799147353700E-16 ) ) ;
#91 = CARTESIAN_POINT ( 'NONE',  ( -0.1250000000000000000, 0.0000000000000000000, 3.000000000000000444 ) ) ;
#92 = CARTESIAN_POINT ( 'NONE',  ( 0.0000000000000000000, 0.0000000000000000000, 2.985000000000001208 ) ) ;
#93 = SURFACE_STYLE_FILL_AREA ( #6 ) ;
#94 = CIRCLE ( 'NONE', #212, 0.1100000000000004446 ) ;
#95 =( GEOMETRIC_REPRESENTATION_CONTEXT ( 3 ) GLOBAL_UNCERTAINTY_ASSIGNED_CONTEXT ( ( #123 ) ) GLOBAL_UNIT_ASSIGNED_CONTEXT ( ( #143, #239, #76 ) ) REPRESENTATION_CONTEXT ( 'NONE', 'WORKASPACE' ) );
#96 = PLANE ( 'NONE',  #195 ) ;
#97 = ORIENTED_EDGE ( 'NONE', *, *, #53, .T. ) ;
#98 = FACE_OUTER_BOUND ( 'NONE', #167, .T. ) ;
#99 = DIRECTION ( 'NONE',  ( -1.000000000000000000, 0.0000000000000000000, 0.0000000000000000000 ) ) ;
#100 = PLANE ( 'NONE',  #50 ) ;
#101 = LENGTH_MEASURE_WITH_UNIT ( LENGTH_MEASURE( 0.02539999999999999897 ), #215 );
#102 = ADVANCED_FACE ( 'NONE', ( #45 ), #148, .T. ) ;
#103 = VERTEX_POINT ( 'NONE', #136 ) ;
#104 = AXIS2_PLACEMENT_3D ( 'NONE', #233, #24, #113 ) ;
#105 = EDGE_LOOP ( 'NONE', ( #87, #135, #60, #40 ) ) ;
#106 = ORIENTED_EDGE ( 'NONE', *, *, #256, .F. ) ;
#107 = EDGE_LOOP ( 'NONE', ( #176, #272, #251, #38 ) ) ;
#108 = AXIS2_PLACEMENT_3D ( 'NONE', #37, #179, #39 ) ;
#109 = CARTESIAN_POINT ( 'NONE',  ( -0.1248749999999999999, 0.0000000000000000000, 3.058555380870515566E-17 ) ) ;
#110 = CIRCLE ( 'NONE', #219, 0.1248749999999999999 ) ;
#111 = SURFACE_STYLE_USAGE ( .BOTH. , #44 ) ;
#112 =( LENGTH_UNIT ( ) NAMED_UNIT ( * ) SI_UNIT ( $, .METRE. ) );
#113 = DIRECTION ( 'NONE',  ( 1.000000000000000000, 0.0000000000000000000, 0.0000000000000000000 ) ) ;
#114 = AXIS2_PLACEMENT_3D ( 'NONE', #77, #214, #54 ) ;
#115 = FILL_AREA_STYLE_COLOUR ( '', #147 ) ;
#116 = CARTESIAN_POINT ( 'NONE',  ( 1.872825028598995495E-33, 0.0000000000000000000, 1.529277690435257783E-17 ) ) ;
#117 = CARTESIAN_POINT ( 'NONE',  ( 1.224646799147353454E-16, 0.0000000000000000000, 1.000000000000000000 ) ) ;
#118 = CONICAL_SURFACE ( 'NONE', #188, 0.1248749999999999999, 0.1745329251994338915 ) ;
#119 = CARTESIAN_POINT ( 'NONE',  ( 0.1250000000000000000, 1.530808498934191201E-17, 2.985000000000001208 ) ) ;
#120 = DIRECTION ( 'NONE',  ( -1.224646799147353454E-16, -0.0000000000000000000, -1.000000000000000000 ) ) ;
#121 = ORIENTED_EDGE ( 'NONE', *, *, #189, .T. ) ;
#122 = FACE_OUTER_BOUND ( 'NONE', #268, .T. ) ;
#123 = UNCERTAINTY_MEASURE_WITH_UNIT (LENGTH_MEASURE( 1.000000000000000082E-05 ), #143, 'distance_accuracy_value', 'NONE');
#124 = ORIENTED_EDGE ( 'NONE', *, *, #274, .T. ) ;
#125 =( NAMED_UNIT ( * ) PLANE_ANGLE_UNIT ( ) SI_UNIT ( $, .RADIAN. ) );
#126 = DIRECTION ( 'NONE',  ( -1.000000000000000000, 0.0000000000000000000, 0.0000000000000000000 ) ) ;
#127 = SURFACE_STYLE_USAGE ( .BOTH. , #226 ) ;
#128 = CIRCLE ( 'NONE', #108, 0.1250000000000000000 ) ;
#129 = EDGE_LOOP ( 'NONE', ( #178, #85, #241, #31 ) ) ;
#130 = APPLICATION_PROTOCOL_DEFINITION ( 'draft international standard', 'automotive_design', 1998, #209 ) ;
#131 = ORIENTED_EDGE ( 'NONE', *, *, #4, .T. ) ;
#132 =( NAMED_UNIT ( * ) SI_UNIT ( $, .STERADIAN. ) SOLID_ANGLE_UNIT ( ) );
#133 = ORIENTED_EDGE ( 'NONE', *, *, #4, .F. ) ;
#134 = PRODUCT_DEFINITION_SHAPE ( 'NONE', 'NONE',  #289 ) ;
#135 = ORIENTED_EDGE ( 'NONE', *, *, #53, .F. ) ;
#136 = CARTESIAN_POINT ( 'NONE',  ( -0.1249999999999998751, 0.0000000000000000000, 1.000708910227452231 ) ) ;
#137 = ADVANCED_FACE ( 'NONE', ( #1 ), #208, .T. ) ;
#138 = DIRECTION ( 'NONE',  ( -0.1736481776669311916, 2.126576849575783316E-17, 0.9848077530122080203 ) ) ;
#139 = LINE ( 'NONE', #69, #229 ) ;
#140 = EDGE_CURVE ( 'NONE', #225, #273, #5, .T. ) ;
#141 = DIRECTION ( 'NONE',  ( -1.224646799147353454E-16, -0.0000000000000000000, -1.000000000000000000 ) ) ;
#142 = COLOUR_RGB ( '',0.7921568627450980005, 0.8196078431372548767, 0.9333333333333333481 ) ;
#143 =( CONVERSION_BASED_UNIT ( 'INCH', #101 ) LENGTH_UNIT ( ) NAMED_UNIT ( #254 ) );
#144 = FACE_OUTER_BOUND ( 'NONE', #299, .T. ) ;
#145 = LINE ( 'NONE', #8, #238 ) ;
#146 = EDGE_CURVE ( 'NONE', #296, #225, #284, .T. ) ;
#147 = COLOUR_RGB ( '',0.7921568627450980005, 0.8196078431372548767, 0.9333333333333333481 ) ;
#148 = CONICAL_SURFACE ( 'NONE', #163, 0.1248749999999999999, 0.1745329251994338915 ) ;
#149 = ORIENTED_EDGE ( 'NONE', *, *, #146, .F. ) ;
#150 = EDGE_CURVE ( 'NONE', #15, #296, #139, .T. ) ;
#151 = ORIENTED_EDGE ( 'NONE', *, *, #12, .T. ) ;
#152 = ORIENTED_EDGE ( 'NONE', *, *, #140, .F. ) ;
#153 = CARTESIAN_POINT ( 'NONE',  ( 0.1248750000000001248, 0.0000000000000000000, 1.000000000000000000 ) ) ;
#154 = VERTEX_POINT ( 'NONE', #65 ) ;
#155 = ADVANCED_FACE ( 'NONE', ( #162 ), #67, .T. ) ;
#156 = CLOSED_SHELL ( 'NONE', ( #137, #232, #264, #155, #47, #249, #210, #102, #247, #220 ) ) ;
#157 = LINE ( 'NONE', #23, #200 ) ;
#158 = AXIS2_PLACEMENT_3D ( 'NONE', #286, #287, #168 ) ;
#159 = DIRECTION ( 'NONE',  ( -0.0000000000000000000, -0.0000000000000000000, -1.000000000000000000 ) ) ;
#160 = EDGE_CURVE ( 'NONE', #52, #154, #110, .T. ) ;
#161 = DIRECTION ( 'NONE',  ( -0.0000000000000000000, -0.0000000000000000000, -1.000000000000000000 ) ) ;
#162 = FACE_OUTER_BOUND ( 'NONE', #107, .T. ) ;
#163 = AXIS2_PLACEMENT_3D ( 'NONE', #253, #234, #185 ) ;
#164 = DIRECTION ( 'NONE',  ( 0.7071067811865566766, 8.659560562355046257E-17, -0.7071067811865382469 ) ) ;
#165 = APPLICATION_PROTOCOL_DEFINITION ( 'draft international standard', 'automotive_design', 1998, #190 ) ;
#166 = ORIENTED_EDGE ( 'NONE', *, *, #216, .F. ) ;
#167 = EDGE_LOOP ( 'NONE', ( #203, #124 ) ) ;
#168 = DIRECTION ( 'NONE',  ( 1.000000000000000000, 0.0000000000000000000, 0.0000000000000000000 ) ) ;
#169 = DIRECTION ( 'NONE',  ( 0.0000000000000000000, 0.0000000000000000000, -1.000000000000000000 ) ) ;
#170 = UNCERTAINTY_MEASURE_WITH_UNIT (LENGTH_MEASURE( 1.000000000000000082E-05 ), #68, 'distance_accuracy_value', 'NONE');
#171 = DIRECTION ( 'NONE',  ( 1.000000000000000000, 0.0000000000000000000, 0.0000000000000000000 ) ) ;
#172 = EDGE_LOOP ( 'NONE', ( #10, #218, #49, #133 ) ) ;
#173 = AXIS2_PLACEMENT_3D ( 'NONE', #246, #19, #126 ) ;
#174 = ORIENTED_EDGE ( 'NONE', *, *, #84, .T. ) ;
#175 = ORIENTED_EDGE ( 'NONE', *, *, #150, .F. ) ;
#176 = ORIENTED_EDGE ( 'NONE', *, *, #146, .T. ) ;
#177 = AXIS2_PLACEMENT_3D ( 'NONE', #223, #298, #271 ) ;
#178 = ORIENTED_EDGE ( 'NONE', *, *, #20, .T. ) ;
#179 = DIRECTION ( 'NONE',  ( 0.0000000000000000000, 0.0000000000000000000, -1.000000000000000000 ) ) ;
#180 = PRODUCT_RELATED_PRODUCT_CATEGORY ( 'part', '', ( #184 ) ) ;
#181 = LINE ( 'NONE', #91, #2 ) ;
#182 = DIRECTION ( 'NONE',  ( 1.000000000000000000, 0.0000000000000000000, 0.0000000000000000000 ) ) ;
#183 = AXIS2_PLACEMENT_3D ( 'NONE', #276, #279, #90 ) ;
#184 = PRODUCT ( 'Micro_RDA-80', 'Micro_RDA-80', '', ( #86 ) ) ;
#185 = DIRECTION ( 'NONE',  ( 1.000000000000000000, 0.0000000000000000000, 0.0000000000000000000 ) ) ;
#186 = DIRECTION ( 'NONE',  ( -1.224646799147353454E-16, -0.0000000000000000000, -1.000000000000000000 ) ) ;
#187 = PRESENTATION_LAYER_ASSIGNMENT (  '', '', ( #55 ) ) ;
#188 = AXIS2_PLACEMENT_3D ( 'NONE', #117, #72, #171 ) ;
#189 = EDGE_CURVE ( 'NONE', #222, #52, #259, .T. ) ;
#190 = APPLICATION_CONTEXT ( 'automotive_design' ) ;
#191 = EDGE_LOOP ( 'NONE', ( #73, #224, #149, #175 ) ) ;
#192 = CARTESIAN_POINT ( 'NONE',  ( 0.0000000000000000000, 0.0000000000000000000, 0.0000000000000000000 ) ) ;
#193 = CYLINDRICAL_SURFACE ( 'NONE', #199, 0.1248749999999999999 ) ;
#194 = EDGE_CURVE ( 'NONE', #288, #15, #252, .T. ) ;
#195 = AXIS2_PLACEMENT_3D ( 'NONE', #263, #240, #197 ) ;
#196 = FACE_OUTER_BOUND ( 'NONE', #105, .T. ) ;
#197 = DIRECTION ( 'NONE',  ( 1.000000000000000000, 0.0000000000000000000, -0.0000000000000000000 ) ) ;
#198 = FACE_OUTER_BOUND ( 'NONE', #250, .T. ) ;
#199 = AXIS2_PLACEMENT_3D ( 'NONE', #192, #120, #211 ) ;
#200 = VECTOR ( 'NONE', #138, 39.37007874015747433 ) ;
#201 = ORIENTED_EDGE ( 'NONE', *, *, #33, .T. ) ;
#202 = CARTESIAN_POINT ( 'NONE',  ( 0.0000000000000000000, 0.0000000000000000000, 3.000000000000000444 ) ) ;
#203 = ORIENTED_EDGE ( 'NONE', *, *, #160, .T. ) ;
#204 = CIRCLE ( 'NONE', #158, 0.1250000000000000000 ) ;
#205 = DIRECTION ( 'NONE',  ( 0.0000000000000000000, 0.0000000000000000000, 1.000000000000000000 ) ) ;
#206 = DIRECTION ( 'NONE',  ( 0.0000000000000000000, 0.0000000000000000000, -1.000000000000000000 ) ) ;
#207 = PRESENTATION_STYLE_ASSIGNMENT (( #111 ) ) ;
#208 = CYLINDRICAL_SURFACE ( 'NONE', #183, 0.1248749999999999999 ) ;
#209 = APPLICATION_CONTEXT ( 'automotive_design' ) ;
#210 = ADVANCED_FACE ( 'NONE', ( #196 ), #22, .T. ) ;
#211 = DIRECTION ( 'NONE',  ( -1.000000000000000000, 0.0000000000000000000, 1.224646799147353700E-16 ) ) ;
#212 = AXIS2_PLACEMENT_3D ( 'NONE', #35, #205, #267 ) ;
#213 = MECHANICAL_DESIGN_GEOMETRIC_PRESENTATION_REPRESENTATION (  '', ( #75 ), #261 ) ;
#214 = DIRECTION ( 'NONE',  ( -1.224646799147353454E-16, -0.0000000000000000000, -1.000000000000000000 ) ) ;
#215 =( LENGTH_UNIT ( ) NAMED_UNIT ( * ) SI_UNIT ( $, .METRE. ) );
#216 = EDGE_CURVE ( 'NONE', #63, #154, #145, .T. ) ;
#217 = FACE_OUTER_BOUND ( 'NONE', #172, .T. ) ;
#218 = ORIENTED_EDGE ( 'NONE', *, *, #88, .T. ) ;
#219 = AXIS2_PLACEMENT_3D ( 'NONE', #116, #186, #281 ) ;
#220 = ADVANCED_FACE ( 'NONE', ( #98 ), #100, .F. ) ;
#221 = ORIENTED_EDGE ( 'NONE', *, *, #194, .T. ) ;
#222 = VERTEX_POINT ( 'NONE', #74 ) ;
#223 = CARTESIAN_POINT ( 'NONE',  ( 0.0000000000000000000, 0.0000000000000000000, 0.0000000000000000000 ) ) ;
#224 = ORIENTED_EDGE ( 'NONE', *, *, #56, .T. ) ;
#225 = VERTEX_POINT ( 'NONE', #119 ) ;
#226 = SURFACE_SIDE_STYLE ('',( #290 ) ) ;
#227 = CARTESIAN_POINT ( 'NONE',  ( -0.1100000000000004446, 0.0000000000000000000, 3.000000000000000444 ) ) ;
#228 = MECHANICAL_DESIGN_GEOMETRIC_PRESENTATION_REPRESENTATION (  '', ( #55 ), #266 ) ;
#229 = VECTOR ( 'NONE', #278, 39.37007874015748854 ) ;
#230 = DIRECTION ( 'NONE',  ( -1.224646799147353454E-16, -0.0000000000000000000, -1.000000000000000000 ) ) ;
#231 = CARTESIAN_POINT ( 'NONE',  ( 0.1250000000000000000, 1.530808498934191201E-17, 3.000000000000000444 ) ) ;
#232 = ADVANCED_FACE ( 'NONE', ( #217 ), #118, .T. ) ;
#233 = CARTESIAN_POINT ( 'NONE',  ( 0.0000000000000000000, 0.0000000000000000000, 3.000000000000000444 ) ) ;
#234 = DIRECTION ( 'NONE',  ( 1.224646799147353454E-16, 0.0000000000000000000, 1.000000000000000000 ) ) ;
#235 = DIRECTION ( 'NONE',  ( -1.000000000000000000, 0.0000000000000000000, 1.224646799147353700E-16 ) ) ;
#236 = FACE_OUTER_BOUND ( 'NONE', #191, .T. ) ;
#237 = ORIENTED_EDGE ( 'NONE', *, *, #88, .F. ) ;
#238 = VECTOR ( 'NONE', #141, 39.37007874015748143 ) ;
#239 =( NAMED_UNIT ( * ) PLANE_ANGLE_UNIT ( ) SI_UNIT ( $, .RADIAN. ) );
#240 = DIRECTION ( 'NONE',  ( 0.0000000000000000000, 0.0000000000000000000, 1.000000000000000000 ) ) ;
#241 = ORIENTED_EDGE ( 'NONE', *, *, #160, .F. ) ;
#242 = CARTESIAN_POINT ( 'NONE',  ( 0.1100000000000004446, 1.438959988998142687E-17, 3.000000000000000444 ) ) ;
#243 = UNCERTAINTY_MEASURE_WITH_UNIT (LENGTH_MEASURE( 1.000000000000000082E-05 ), #34, 'distance_accuracy_value', 'NONE');
#244 = LENGTH_MEASURE_WITH_UNIT ( LENGTH_MEASURE( 0.02539999999999999897 ), #36 );
#245 = CARTESIAN_POINT ( 'NONE',  ( 0.1100000000000004446, 1.347111479062094019E-17, 3.000000000000000444 ) ) ;
#246 = CARTESIAN_POINT ( 'NONE',  ( 1.224646799147353454E-16, 0.0000000000000000000, 1.000000000000000000 ) ) ;
#247 = ADVANCED_FACE ( 'NONE', ( #122 ), #193, .T. ) ;
#248 = PRESENTATION_STYLE_ASSIGNMENT (( #127 ) ) ;
#249 = ADVANCED_FACE ( 'NONE', ( #144 ), #96, .T. ) ;
#250 = EDGE_LOOP ( 'NONE', ( #152, #151, #174, #106 ) ) ;
#251 = ORIENTED_EDGE ( 'NONE', *, *, #269, .F. ) ;
#252 = CIRCLE ( 'NONE', #104, 0.1100000000000004446 ) ;
#253 = CARTESIAN_POINT ( 'NONE',  ( 1.224646799147353454E-16, 0.0000000000000000000, 1.000000000000000000 ) ) ;
#254 = DIMENSIONAL_EXPONENTS ( 1.000000000000000000, 0.0000000000000000000, 0.0000000000000000000, 0.0000000000000000000, 0.0000000000000000000, 0.0000000000000000000, 0.0000000000000000000 ) ;
#255 = DIRECTION ( 'NONE',  ( -0.0000000000000000000, -0.0000000000000000000, -1.000000000000000000 ) ) ;
#256 = EDGE_CURVE ( 'NONE', #273, #103, #204, .T. ) ;
#257 = CARTESIAN_POINT ( 'NONE',  ( 0.0000000000000000000, 0.0000000000000000000, 3.000000000000000444 ) ) ;
#258 = CONICAL_SURFACE ( 'NONE', #66, 0.1100000000000004446, 0.7853981633974613796 ) ;
#259 = LINE ( 'NONE', #71, #29 ) ;
#260 = DIRECTION ( 'NONE',  ( -1.224646799147353454E-16, -0.0000000000000000000, -1.000000000000000000 ) ) ;
#261 =( GEOMETRIC_REPRESENTATION_CONTEXT ( 3 ) GLOBAL_UNCERTAINTY_ASSIGNED_CONTEXT ( ( #243 ) ) GLOBAL_UNIT_ASSIGNED_CONTEXT ( ( #34, #125, #132 ) ) REPRESENTATION_CONTEXT ( 'NONE', 'WORKASPACE' ) );
#262 = CARTESIAN_POINT ( 'NONE',  ( 0.0000000000000000000, 0.0000000000000000000, 3.000000000000000444 ) ) ;
#263 = CARTESIAN_POINT ( 'NONE',  ( 0.0000000000000000000, 0.0000000000000000000, 3.000000000000000444 ) ) ;
#264 = ADVANCED_FACE ( 'NONE', ( #236 ), #258, .T. ) ;
#265 = CIRCLE ( 'NONE', #21, 0.1248749999999999999 ) ;
#266 =( GEOMETRIC_REPRESENTATION_CONTEXT ( 3 ) GLOBAL_UNCERTAINTY_ASSIGNED_CONTEXT ( ( #170 ) ) GLOBAL_UNIT_ASSIGNED_CONTEXT ( ( #68, #26, #3 ) ) REPRESENTATION_CONTEXT ( 'NONE', 'WORKASPACE' ) );
#267 = DIRECTION ( 'NONE',  ( 1.000000000000000000, 0.0000000000000000000, 0.0000000000000000000 ) ) ;
#268 = EDGE_LOOP ( 'NONE', ( #166, #201, #121, #275 ) ) ;
#269 = EDGE_CURVE ( 'NONE', #103, #273, #57, .T. ) ;
#270 = DIMENSIONAL_EXPONENTS ( 1.000000000000000000, 0.0000000000000000000, 0.0000000000000000000, 0.0000000000000000000, 0.0000000000000000000, 0.0000000000000000000, 0.0000000000000000000 ) ;
#271 = DIRECTION ( 'NONE',  ( 1.000000000000000000, 0.0000000000000000000, 0.0000000000000000000 ) ) ;
#272 = ORIENTED_EDGE ( 'NONE', *, *, #140, .T. ) ;
#273 = VERTEX_POINT ( 'NONE', #282 ) ;
#274 = EDGE_CURVE ( 'NONE', #154, #52, #70, .T. ) ;
#275 = ORIENTED_EDGE ( 'NONE', *, *, #274, .F. ) ;
#276 = CARTESIAN_POINT ( 'NONE',  ( 0.0000000000000000000, 0.0000000000000000000, 0.0000000000000000000 ) ) ;
#277 = AXIS2_PLACEMENT_3D ( 'NONE', #283, #260, #235 ) ;
#278 = DIRECTION ( 'NONE',  ( -0.7071067811865566766, 0.0000000000000000000, -0.7071067811865382469 ) ) ;
#279 = DIRECTION ( 'NONE',  ( -1.224646799147353454E-16, -0.0000000000000000000, -1.000000000000000000 ) ) ;
#280 = CIRCLE ( 'NONE', #173, 0.1248749999999999999 ) ;
#281 = DIRECTION ( 'NONE',  ( -1.000000000000000000, 0.0000000000000000000, 1.224646799147353700E-16 ) ) ;
#282 = CARTESIAN_POINT ( 'NONE',  ( 0.1250000000000001110, 1.530808498934192433E-17, 1.000708910227452231 ) ) ;
#283 = CARTESIAN_POINT ( 'NONE',  ( 1.872825028598995495E-33, 0.0000000000000000000, 1.529277690435257783E-17 ) ) ;
#284 = CIRCLE ( 'NONE', #9, 0.1250000000000000000 ) ;
#285 = PRODUCT_DEFINITION_CONTEXT ( 'detailed design', #209, 'design' ) ;
#286 = CARTESIAN_POINT ( 'NONE',  ( 1.225514963788285700E-16, 0.0000000000000000000, 1.000708910227452231 ) ) ;
#287 = DIRECTION ( 'NONE',  ( -1.224646799147353454E-16, -0.0000000000000000000, -1.000000000000000000 ) ) ;
#288 = VERTEX_POINT ( 'NONE', #242 ) ;
#289 = PRODUCT_DEFINITION ( 'UNKNOWN', '', #25, #285 ) ;
#290 = SURFACE_STYLE_FILL_AREA ( #17 ) ;
#291 = CYLINDRICAL_SURFACE ( 'NONE', #41, 0.1250000000000000000 ) ;
#292 = VECTOR ( 'NONE', #255, 39.37007874015748143 ) ;
#293 = CARTESIAN_POINT ( 'NONE',  ( 1.224646799147353454E-16, 0.0000000000000000000, 1.000000000000000000 ) ) ;
#294 = ORIENTED_EDGE ( 'NONE', *, *, #33, .F. ) ;
#295 = FILL_AREA_STYLE_COLOUR ( '', #142 ) ;
#296 = VERTEX_POINT ( 'NONE', #30 ) ;
#297 = VECTOR ( 'NONE', #58, 39.37007874015748143 ) ;
#298 = DIRECTION ( 'NONE',  ( 0.0000000000000000000, 0.0000000000000000000, 1.000000000000000000 ) ) ;
#299 = EDGE_LOOP ( 'NONE', ( #97, #221 ) ) ;
ENDSEC;
END-ISO-10303-21;
