ISO-10303-21;
HEADER;
FILE_DESCRIPTION (( 'STEP AP214' ),
    '1' );
FILE_NAME ('86036.STEP',
    '2023-06-23T15:52:24',
    ( '' ),
    ( '' ),
    'SwSTEP 2.0',
    'SolidWorks 2023',
    '' );
FILE_SCHEMA (( 'AUTOMOTIVE_DESIGN' ));
ENDSEC;

DATA;
#1 = APPLICATION_PROTOCOL_DEFINITION ( 'draft international standard', 'automotive_design', 1998, #243 ) ;
#2 = SURFACE_SIDE_STYLE ('',( #32 ) ) ;
#3 = CARTESIAN_POINT ( 'NONE',  ( 3.061616997868383018E-17, 3.125000000000000000, 0.2500000000000000000 ) ) ;
#4 = AXIS2_PLACEMENT_3D ( 'NONE', #213, #60, #150 ) ;
#5 = PRODUCT_DEFINITION_FORMATION_WITH_SPECIFIED_SOURCE ( 'ANY', '', #26, .NOT_KNOWN. ) ;
#6 = DIRECTION ( 'NONE',  ( 1.000000000000000000, 4.259641040512536405E-17, 0.000000000000000000 ) ) ;
#7 = EDGE_CURVE ( 'NONE', #163, #161, #74, .T. ) ;
#8 = VERTEX_POINT ( 'NONE', #113 ) ;
#9 =( NAMED_UNIT ( * ) SI_UNIT ( $, .STERADIAN. ) SOLID_ANGLE_UNIT ( ) );
#10 = AXIS2_PLACEMENT_3D ( 'NONE', #182, #162, #6 ) ;
#11 = EDGE_CURVE ( 'NONE', #63, #163, #242, .T. ) ;
#12 = MECHANICAL_DESIGN_GEOMETRIC_PRESENTATION_REPRESENTATION (  '', ( #147 ), #232 ) ;
#13 = APPLICATION_PROTOCOL_DEFINITION ( 'draft international standard', 'automotive_design', 1998, #136 ) ;
#14 = DIRECTION ( 'NONE',  ( 0.000000000000000000, 0.000000000000000000, -1.000000000000000000 ) ) ;
#15 = DIRECTION ( 'NONE',  ( 0.000000000000000000, 0.000000000000000000, -1.000000000000000000 ) ) ;
#16 = DIRECTION ( 'NONE',  ( -0.000000000000000000, -1.000000000000000000, -0.000000000000000000 ) ) ;
#17 = EDGE_CURVE ( 'NONE', #63, #85, #287, .T. ) ;
#18 = DIRECTION ( 'NONE',  ( 0.000000000000000000, 0.000000000000000000, -1.000000000000000000 ) ) ;
#19 = LENGTH_MEASURE_WITH_UNIT ( LENGTH_MEASURE( 0.02539999999999999897 ), #112 );
#20 = DIRECTION ( 'NONE',  ( 0.000000000000000000, 0.000000000000000000, -1.000000000000000000 ) ) ;
#21 = CARTESIAN_POINT ( 'NONE',  ( -0.2500000000000002776, 6.000000000000000888, 0.000000000000000000 ) ) ;
#22 = COLOUR_RGB ( '',0.7921568627450980005, 0.8196078431372548767, 0.9333333333333333481 ) ;
#23 = ADVANCED_FACE ( 'NONE', ( #24 ), #169, .T. ) ;
#24 = FACE_OUTER_BOUND ( 'NONE', #223, .T. ) ;
#25 =( NAMED_UNIT ( * ) SI_UNIT ( $, .STERADIAN. ) SOLID_ANGLE_UNIT ( ) );
#26 = PRODUCT ( '86036', '86036', '', ( #289 ) ) ;
#27 = UNCERTAINTY_MEASURE_WITH_UNIT (LENGTH_MEASURE( 1.000000000000000082E-05 ), #274, 'distance_accuracy_value', 'NONE');
#28 = CYLINDRICAL_SURFACE ( 'NONE', #57, 0.2500000000000000555 ) ;
#29 = DIRECTION ( 'NONE',  ( -1.000000000000000000, 0.000000000000000000, 0.000000000000000000 ) ) ;
#30 = STYLED_ITEM ( 'NONE', ( #231 ), #82 ) ;
#31 = EDGE_CURVE ( 'NONE', #85, #161, #86, .T. ) ;
#32 = SURFACE_STYLE_FILL_AREA ( #154 ) ;
#33 = CARTESIAN_POINT ( 'NONE',  ( 0.2500000000000000555, 3.125000000000000000, 3.061616997868384251E-17 ) ) ;
#34 = DIMENSIONAL_EXPONENTS ( 1.000000000000000000, 0.000000000000000000, 0.000000000000000000, 0.000000000000000000, 0.000000000000000000, 0.000000000000000000, 0.000000000000000000 ) ;
#35 = EDGE_LOOP ( 'NONE', ( #66, #220, #297, #276 ) ) ;
#36 = AXIS2_PLACEMENT_3D ( 'NONE', #227, #288, #18 ) ;
#37 = FACE_OUTER_BOUND ( 'NONE', #271, .T. ) ;
#38 = DIMENSIONAL_EXPONENTS ( 1.000000000000000000, 0.000000000000000000, 0.000000000000000000, 0.000000000000000000, 0.000000000000000000, 0.000000000000000000, 0.000000000000000000 ) ;
#39 =( NAMED_UNIT ( * ) PLANE_ANGLE_UNIT ( ) SI_UNIT ( $, .RADIAN. ) );
#40 = ORIENTED_EDGE ( 'NONE', *, *, #250, .T. ) ;
#41 = PLANE ( 'NONE',  #10 ) ;
#42 = EDGE_LOOP ( 'NONE', ( #160, #134 ) ) ;
#43 = AXIS2_PLACEMENT_3D ( 'NONE', #255, #186, #258 ) ;
#44 = PRESENTATION_STYLE_ASSIGNMENT (( #282 ) ) ;
#45 =( CONVERSION_BASED_UNIT ( 'INCH', #305 ) LENGTH_UNIT ( ) NAMED_UNIT ( #178 ) );
#46 = CARTESIAN_POINT ( 'NONE',  ( 0.000000000000000000, 0.000000000000000000, 0.000000000000000000 ) ) ;
#47 = CARTESIAN_POINT ( 'NONE',  ( 0.000000000000000000, 3.125000000000000000, 0.000000000000000000 ) ) ;
#48 = COLOUR_RGB ( '',1.000000000000000000, 0.000000000000000000, 0.000000000000000000 ) ;
#49 = SURFACE_STYLE_FILL_AREA ( #93 ) ;
#50 = DIRECTION ( 'NONE',  ( 0.000000000000000000, -1.000000000000000000, -0.000000000000000000 ) ) ;
#51 =( NAMED_UNIT ( * ) SI_UNIT ( $, .STERADIAN. ) SOLID_ANGLE_UNIT ( ) );
#52 = ORIENTED_EDGE ( 'NONE', *, *, #7, .F. ) ;
#53 = FILL_AREA_STYLE_COLOUR ( '', #22 ) ;
#54 = PLANE ( 'NONE',  #272 ) ;
#55 =( LENGTH_UNIT ( ) NAMED_UNIT ( * ) SI_UNIT ( $, .METRE. ) );
#56 = CIRCLE ( 'NONE', #197, 0.2500000000000001110 ) ;
#57 = AXIS2_PLACEMENT_3D ( 'NONE', #100, #98, #123 ) ;
#58 = EDGE_CURVE ( 'NONE', #161, #85, #101, .T. ) ;
#59 =( CONVERSION_BASED_UNIT ( 'INCH', #149 ) LENGTH_UNIT ( ) NAMED_UNIT ( #38 ) );
#60 = DIRECTION ( 'NONE',  ( -4.259641040512536405E-17, 1.000000000000000000, -0.000000000000000000 ) ) ;
#61 = DIRECTION ( 'NONE',  ( 0.000000000000000000, 1.000000000000000000, 0.000000000000000000 ) ) ;
#62 = VECTOR ( 'NONE', #214, 39.37007874015748143 ) ;
#63 = VERTEX_POINT ( 'NONE', #140 ) ;
#64 = VERTEX_POINT ( 'NONE', #117 ) ;
#65 = AXIS2_PLACEMENT_3D ( 'NONE', #47, #211, #118 ) ;
#66 = ORIENTED_EDGE ( 'NONE', *, *, #164, .F. ) ;
#67 = PRESENTATION_STYLE_ASSIGNMENT (( #230 ) ) ;
#68 = SURFACE_STYLE_FILL_AREA ( #306 ) ;
#69 = FACE_OUTER_BOUND ( 'NONE', #42, .T. ) ;
#70 = AXIS2_PLACEMENT_3D ( 'NONE', #206, #16, #20 ) ;
#71 =( LENGTH_UNIT ( ) NAMED_UNIT ( * ) SI_UNIT ( $, .METRE. ) );
#72 = DIRECTION ( 'NONE',  ( -1.000000000000000000, -4.259641040512536405E-17, 0.000000000000000000 ) ) ;
#73 = EDGE_CURVE ( 'NONE', #163, #63, #152, .T. ) ;
#74 = LINE ( 'NONE', #256, #114 ) ;
#75 = CARTESIAN_POINT ( 'NONE',  ( 0.000000000000000000, 3.125000000000000000, 0.000000000000000000 ) ) ;
#76 =( NAMED_UNIT ( * ) PLANE_ANGLE_UNIT ( ) SI_UNIT ( $, .RADIAN. ) );
#77 = CLOSED_SHELL ( 'NONE', ( #83, #78, #253, #195 ) ) ;
#78 = ADVANCED_FACE ( 'NONE', ( #69 ), #54, .F. ) ;
#79 = CARTESIAN_POINT ( 'NONE',  ( 0.2499999999999999167, 6.000000000000000888, 3.061616997868383634E-17 ) ) ;
#80 = CARTESIAN_POINT ( 'NONE',  ( -1.224646799147354440E-16, 6.000000000000000888, 0.000000000000000000 ) ) ;
#81 = STYLED_ITEM ( 'NONE', ( #44 ), #205 ) ;
#82 = MANIFOLD_SOLID_BREP ( 'Revolve - Tool Body (Straight Shanked)', #77 ) ;
#83 = ADVANCED_FACE ( 'NONE', ( #266 ), #307, .T. ) ;
#84 = FILL_AREA_STYLE_COLOUR ( '', #48 ) ;
#85 = VERTEX_POINT ( 'NONE', #102 ) ;
#86 = CIRCLE ( 'NONE', #36, 0.2500000000000000000 ) ;
#87 = SURFACE_SIDE_STYLE ('',( #179 ) ) ;
#88 = ORIENTED_EDGE ( 'NONE', *, *, #73, .F. ) ;
#89 =( NAMED_UNIT ( * ) PLANE_ANGLE_UNIT ( ) SI_UNIT ( $, .RADIAN. ) );
#90 = ORIENTED_EDGE ( 'NONE', *, *, #11, .T. ) ;
#91 =( GEOMETRIC_REPRESENTATION_CONTEXT ( 3 ) GLOBAL_UNCERTAINTY_ASSIGNED_CONTEXT ( ( #240 ) ) GLOBAL_UNIT_ASSIGNED_CONTEXT ( ( #302, #280, #226 ) ) REPRESENTATION_CONTEXT ( 'NONE', 'WORKASPACE' ) );
#92 = SURFACE_STYLE_USAGE ( .BOTH. , #121 ) ;
#93 = FILL_AREA_STYLE ('',( #53 ) ) ;
#94 = DIRECTION ( 'NONE',  ( -0.000000000000000000, -1.000000000000000000, -0.000000000000000000 ) ) ;
#95 = FILL_AREA_STYLE ('',( #146 ) ) ;
#96 =( GEOMETRIC_REPRESENTATION_CONTEXT ( 3 ) GLOBAL_UNCERTAINTY_ASSIGNED_CONTEXT ( ( #27 ) ) GLOBAL_UNIT_ASSIGNED_CONTEXT ( ( #274, #248, #9 ) ) REPRESENTATION_CONTEXT ( 'NONE', 'WORKASPACE' ) );
#97 = SURFACE_SIDE_STYLE ('',( #209 ) ) ;
#98 = DIRECTION ( 'NONE',  ( -4.259641040512536405E-17, 1.000000000000000000, -0.000000000000000000 ) ) ;
#99 =( NAMED_UNIT ( * ) PLANE_ANGLE_UNIT ( ) SI_UNIT ( $, .RADIAN. ) );
#100 = CARTESIAN_POINT ( 'NONE',  ( -1.224646799147354440E-16, 6.000000000000000888, 0.000000000000000000 ) ) ;
#101 = CIRCLE ( 'NONE', #70, 0.2500000000000000000 ) ;
#102 = CARTESIAN_POINT ( 'NONE',  ( 0.000000000000000000, 0.000000000000000000, -0.2500000000000000000 ) ) ;
#103 = UNCERTAINTY_MEASURE_WITH_UNIT (LENGTH_MEASURE( 1.000000000000000082E-05 ), #262, 'distance_accuracy_value', 'NONE');
#104 = PRESENTATION_STYLE_ASSIGNMENT (( #126 ) ) ;
#105 = SHAPE_DEFINITION_REPRESENTATION ( #292, #133 ) ;
#106 = DIRECTION ( 'NONE',  ( -4.259641040512536405E-17, 1.000000000000000000, -0.000000000000000000 ) ) ;
#107 = LENGTH_MEASURE_WITH_UNIT ( LENGTH_MEASURE( 0.02539999999999999897 ), #269 );
#108 = VERTEX_POINT ( 'NONE', #33 ) ;
#109 = MECHANICAL_DESIGN_GEOMETRIC_PRESENTATION_REPRESENTATION (  '', ( #30 ), #155 ) ;
#110 = EDGE_LOOP ( 'NONE', ( #201, #298 ) ) ;
#111 =( CONVERSION_BASED_UNIT ( 'INCH', #107 ) LENGTH_UNIT ( ) NAMED_UNIT ( #34 ) );
#112 =( LENGTH_UNIT ( ) NAMED_UNIT ( * ) SI_UNIT ( $, .METRE. ) );
#113 = CARTESIAN_POINT ( 'NONE',  ( 0.2500000000000000555, 6.000000000000000888, 3.061616997868384251E-17 ) ) ;
#114 = VECTOR ( 'NONE', #208, 39.37007874015748143 ) ;
#115 = CIRCLE ( 'NONE', #285, 0.2500000000000000000 ) ;
#116 = CARTESIAN_POINT ( 'NONE',  ( 0.000000000000000000, 3.125000000000000000, 0.000000000000000000 ) ) ;
#117 = CARTESIAN_POINT ( 'NONE',  ( -0.2500000000000000000, 3.125000000000000000, 0.000000000000000000 ) ) ;
#118 = DIRECTION ( 'NONE',  ( 0.000000000000000000, 0.000000000000000000, -1.000000000000000000 ) ) ;
#119 = CIRCLE ( 'NONE', #224, 0.2500000000000001110 ) ;
#120 = AXIS2_PLACEMENT_3D ( 'NONE', #124, #268, #235 ) ;
#121 = SURFACE_SIDE_STYLE ('',( #259 ) ) ;
#122 =( LENGTH_UNIT ( ) NAMED_UNIT ( * ) SI_UNIT ( $, .METRE. ) );
#123 = DIRECTION ( 'NONE',  ( -1.000000000000000000, 0.000000000000000000, 0.000000000000000000 ) ) ;
#124 = CARTESIAN_POINT ( 'NONE',  ( 0.000000000000000000, 3.125000000000000000, 0.000000000000000000 ) ) ;
#125 =( GEOMETRIC_REPRESENTATION_CONTEXT ( 3 ) GLOBAL_UNCERTAINTY_ASSIGNED_CONTEXT ( ( #187 ) ) GLOBAL_UNIT_ASSIGNED_CONTEXT ( ( #166, #89, #51 ) ) REPRESENTATION_CONTEXT ( 'NONE', 'WORKASPACE' ) );
#126 = SURFACE_STYLE_USAGE ( .BOTH. , #2 ) ;
#127 = CARTESIAN_POINT ( 'NONE',  ( -1.224646799147354440E-16, 6.000000000000000888, 0.000000000000000000 ) ) ;
#128 = PRESENTATION_LAYER_ASSIGNMENT (  '', '', ( #30 ) ) ;
#129 = ORIENTED_EDGE ( 'NONE', *, *, #17, .F. ) ;
#130 = ORIENTED_EDGE ( 'NONE', *, *, #58, .F. ) ;
#131 =( NAMED_UNIT ( * ) SI_UNIT ( $, .STERADIAN. ) SOLID_ANGLE_UNIT ( ) );
#132 = ORIENTED_EDGE ( 'NONE', *, *, #164, .T. ) ;
#133 = ADVANCED_BREP_SHAPE_REPRESENTATION ( '86036', ( #205, #82, #153 ), #225 ) ;
#134 = ORIENTED_EDGE ( 'NONE', *, *, #290, .F. ) ;
#135 = CIRCLE ( 'NONE', #120, 0.2500000000000000000 ) ;
#136 = APPLICATION_CONTEXT ( 'automotive_design' ) ;
#137 = ORIENTED_EDGE ( 'NONE', *, *, #73, .T. ) ;
#138 = DIRECTION ( 'NONE',  ( 0.000000000000000000, 0.000000000000000000, 1.000000000000000000 ) ) ;
#139 = DIRECTION ( 'NONE',  ( -0.000000000000000000, -1.000000000000000000, -0.000000000000000000 ) ) ;
#140 = CARTESIAN_POINT ( 'NONE',  ( 0.000000000000000000, 3.125000000000000000, -0.2500000000000000000 ) ) ;
#141 = PRESENTATION_LAYER_ASSIGNMENT (  '', '', ( #263 ) ) ;
#142 = AXIS2_PLACEMENT_3D ( 'NONE', #46, #139, #15 ) ;
#143 = DIRECTION ( 'NONE',  ( -4.259641040512536405E-17, 1.000000000000000000, -0.000000000000000000 ) ) ;
#144 =( NAMED_UNIT ( * ) SI_UNIT ( $, .STERADIAN. ) SOLID_ANGLE_UNIT ( ) );
#145 = FACE_OUTER_BOUND ( 'NONE', #167, .T. ) ;
#146 = FILL_AREA_STYLE_COLOUR ( '', #299 ) ;
#147 = STYLED_ITEM ( 'NONE', ( #304 ), #23 ) ;
#148 = STYLED_ITEM ( 'NONE', ( #67 ), #236 ) ;
#149 = LENGTH_MEASURE_WITH_UNIT ( LENGTH_MEASURE( 0.02539999999999999897 ), #55 );
#150 = DIRECTION ( 'NONE',  ( -1.000000000000000000, 0.000000000000000000, 0.000000000000000000 ) ) ;
#151 = LINE ( 'NONE', #79, #210 ) ;
#152 = CIRCLE ( 'NONE', #246, 0.2500000000000000000 ) ;
#153 = AXIS2_PLACEMENT_3D ( 'NONE', #229, #138, #156 ) ;
#154 = FILL_AREA_STYLE ('',( #176 ) ) ;
#155 =( GEOMETRIC_REPRESENTATION_CONTEXT ( 3 ) GLOBAL_UNCERTAINTY_ASSIGNED_CONTEXT ( ( #103 ) ) GLOBAL_UNIT_ASSIGNED_CONTEXT ( ( #262, #234, #25 ) ) REPRESENTATION_CONTEXT ( 'NONE', 'WORKASPACE' ) );
#156 = DIRECTION ( 'NONE',  ( 1.000000000000000000, 0.000000000000000000, 0.000000000000000000 ) ) ;
#157 = CARTESIAN_POINT ( 'NONE',  ( 0.000000000000000000, 3.125000000000000000, 0.000000000000000000 ) ) ;
#158 = PRESENTATION_LAYER_ASSIGNMENT (  '', '', ( #148 ) ) ;
#159 = EDGE_CURVE ( 'NONE', #8, #204, #119, .T. ) ;
#160 = ORIENTED_EDGE ( 'NONE', *, *, #250, .F. ) ;
#161 = VERTEX_POINT ( 'NONE', #291 ) ;
#162 = DIRECTION ( 'NONE',  ( 4.259641040512536405E-17, -1.000000000000000000, 0.000000000000000000 ) ) ;
#163 = VERTEX_POINT ( 'NONE', #3 ) ;
#164 = EDGE_CURVE ( 'NONE', #108, #8, #151, .T. ) ;
#165 = MECHANICAL_DESIGN_GEOMETRIC_PRESENTATION_REPRESENTATION (  '', ( #81 ), #125 ) ;
#166 =( CONVERSION_BASED_UNIT ( 'INCH', #173 ) LENGTH_UNIT ( ) NAMED_UNIT ( #216 ) );
#167 = EDGE_LOOP ( 'NONE', ( #90, #257, #300, #129 ) ) ;
#168 = CYLINDRICAL_SURFACE ( 'NONE', #142, 0.2500000000000000000 ) ;
#169 = PLANE ( 'NONE',  #278 ) ;
#170 = SURFACE_SIDE_STYLE ('',( #68 ) ) ;
#171 = DIRECTION ( 'NONE',  ( -4.259641040512536405E-17, 1.000000000000000000, 0.000000000000000000 ) ) ;
#172 = EDGE_CURVE ( 'NONE', #204, #8, #56, .T. ) ;
#173 = LENGTH_MEASURE_WITH_UNIT ( LENGTH_MEASURE( 0.02539999999999999897 ), #71 );
#174 = FILL_AREA_STYLE_COLOUR ( '', #203 ) ;
#175 = CARTESIAN_POINT ( 'NONE',  ( 0.000000000000000000, 0.000000000000000000, -0.2500000000000000000 ) ) ;
#176 = FILL_AREA_STYLE_COLOUR ( '', #239 ) ;
#177 = UNCERTAINTY_MEASURE_WITH_UNIT (LENGTH_MEASURE( 1.000000000000000082E-05 ), #45, 'distance_accuracy_value', 'NONE');
#178 = DIMENSIONAL_EXPONENTS ( 1.000000000000000000, 0.000000000000000000, 0.000000000000000000, 0.000000000000000000, 0.000000000000000000, 0.000000000000000000, 0.000000000000000000 ) ;
#179 = SURFACE_STYLE_FILL_AREA ( #296 ) ;
#180 = EDGE_LOOP ( 'NONE', ( #301, #88 ) ) ;
#181 = ADVANCED_FACE ( 'NONE', ( #309 ), #196, .T. ) ;
#182 = CARTESIAN_POINT ( 'NONE',  ( 0.2500000000000000000, 6.000000000000000888, 0.000000000000000000 ) ) ;
#183 = PRODUCT_DEFINITION_CONTEXT ( 'detailed design', #136, 'design' ) ;
#184 = ORIENTED_EDGE ( 'NONE', *, *, #172, .F. ) ;
#185 = CLOSED_SHELL ( 'NONE', ( #236, #181, #199, #23 ) ) ;
#186 = DIRECTION ( 'NONE',  ( -0.000000000000000000, -1.000000000000000000, -0.000000000000000000 ) ) ;
#187 = UNCERTAINTY_MEASURE_WITH_UNIT (LENGTH_MEASURE( 1.000000000000000082E-05 ), #166, 'distance_accuracy_value', 'NONE');
#188 =( LENGTH_UNIT ( ) NAMED_UNIT ( * ) SI_UNIT ( $, .METRE. ) );
#189 = SURFACE_SIDE_STYLE ('',( #49 ) ) ;
#190 = ORIENTED_EDGE ( 'NONE', *, *, #31, .T. ) ;
#191 = STYLED_ITEM ( 'NONE', ( #221 ), #199 ) ;
#192 = SURFACE_STYLE_USAGE ( .BOTH. , #97 ) ;
#193 = DIRECTION ( 'NONE',  ( 0.000000000000000000, 0.000000000000000000, -1.000000000000000000 ) ) ;
#194 = DIRECTION ( 'NONE',  ( -1.000000000000000000, 0.000000000000000000, 0.000000000000000000 ) ) ;
#195 = ADVANCED_FACE ( 'NONE', ( #218 ), #41, .F. ) ;
#196 = PLANE ( 'NONE',  #207 ) ;
#197 = AXIS2_PLACEMENT_3D ( 'NONE', #80, #238, #29 ) ;
#198 = DIMENSIONAL_EXPONENTS ( 1.000000000000000000, 0.000000000000000000, 0.000000000000000000, 0.000000000000000000, 0.000000000000000000, 0.000000000000000000, 0.000000000000000000 ) ;
#199 = ADVANCED_FACE ( 'NONE', ( #37 ), #200, .T. ) ;
#200 = CYLINDRICAL_SURFACE ( 'NONE', #43, 0.2500000000000000000 ) ;
#201 = ORIENTED_EDGE ( 'NONE', *, *, #172, .T. ) ;
#202 = LENGTH_MEASURE_WITH_UNIT ( LENGTH_MEASURE( 0.02539999999999999897 ), #247 );
#203 = COLOUR_RGB ( '',1.000000000000000000, 0.000000000000000000, 0.000000000000000000 ) ;
#204 = VERTEX_POINT ( 'NONE', #21 ) ;
#205 = MANIFOLD_SOLID_BREP ( 'Revolve - Cutting Edge', #185 ) ;
#206 = CARTESIAN_POINT ( 'NONE',  ( 0.000000000000000000, 0.000000000000000000, 0.000000000000000000 ) ) ;
#207 = AXIS2_PLACEMENT_3D ( 'NONE', #157, #61, #251 ) ;
#208 = DIRECTION ( 'NONE',  ( -0.000000000000000000, -1.000000000000000000, -0.000000000000000000 ) ) ;
#209 = SURFACE_STYLE_FILL_AREA ( #95 ) ;
#210 = VECTOR ( 'NONE', #215, 39.37007874015748143 ) ;
#211 = DIRECTION ( 'NONE',  ( -0.000000000000000000, -1.000000000000000000, -0.000000000000000000 ) ) ;
#212 = PRESENTATION_LAYER_ASSIGNMENT (  '', '', ( #191 ) ) ;
#213 = CARTESIAN_POINT ( 'NONE',  ( -1.224646799147354440E-16, 6.000000000000000888, 0.000000000000000000 ) ) ;
#214 = DIRECTION ( 'NONE',  ( -4.259641040512536405E-17, 1.000000000000000000, -0.000000000000000000 ) ) ;
#215 = DIRECTION ( 'NONE',  ( -4.259641040512536405E-17, 1.000000000000000000, -0.000000000000000000 ) ) ;
#216 = DIMENSIONAL_EXPONENTS ( 1.000000000000000000, 0.000000000000000000, 0.000000000000000000, 0.000000000000000000, 0.000000000000000000, 0.000000000000000000, 0.000000000000000000 ) ;
#217 = MECHANICAL_DESIGN_GEOMETRIC_PRESENTATION_REPRESENTATION (  '', ( #191 ), #96 ) ;
#218 = FACE_OUTER_BOUND ( 'NONE', #110, .T. ) ;
#219 = ORIENTED_EDGE ( 'NONE', *, *, #294, .F. ) ;
#220 = ORIENTED_EDGE ( 'NONE', *, *, #290, .T. ) ;
#221 = PRESENTATION_STYLE_ASSIGNMENT (( #270 ) ) ;
#222 = EDGE_LOOP ( 'NONE', ( #40, #132, #184, #219 ) ) ;
#223 = EDGE_LOOP ( 'NONE', ( #190, #275 ) ) ;
#224 = AXIS2_PLACEMENT_3D ( 'NONE', #127, #106, #194 ) ;
#225 =( GEOMETRIC_REPRESENTATION_CONTEXT ( 3 ) GLOBAL_UNCERTAINTY_ASSIGNED_CONTEXT ( ( #244 ) ) GLOBAL_UNIT_ASSIGNED_CONTEXT ( ( #59, #76, #264 ) ) REPRESENTATION_CONTEXT ( 'NONE', 'WORKASPACE' ) );
#226 =( NAMED_UNIT ( * ) SI_UNIT ( $, .STERADIAN. ) SOLID_ANGLE_UNIT ( ) );
#227 = CARTESIAN_POINT ( 'NONE',  ( 0.000000000000000000, 0.000000000000000000, 0.000000000000000000 ) ) ;
#228 = DIRECTION ( 'NONE',  ( -0.000000000000000000, -1.000000000000000000, -0.000000000000000000 ) ) ;
#229 = CARTESIAN_POINT ( 'NONE',  ( 0.000000000000000000, 0.000000000000000000, 0.000000000000000000 ) ) ;
#230 = SURFACE_STYLE_USAGE ( .BOTH. , #170 ) ;
#231 = PRESENTATION_STYLE_ASSIGNMENT (( #192 ) ) ;
#232 =( GEOMETRIC_REPRESENTATION_CONTEXT ( 3 ) GLOBAL_UNCERTAINTY_ASSIGNED_CONTEXT ( ( #177 ) ) GLOBAL_UNIT_ASSIGNED_CONTEXT ( ( #45, #99, #144 ) ) REPRESENTATION_CONTEXT ( 'NONE', 'WORKASPACE' ) );
#233 = DIRECTION ( 'NONE',  ( -1.000000000000000000, 0.000000000000000000, 0.000000000000000000 ) ) ;
#234 =( NAMED_UNIT ( * ) PLANE_ANGLE_UNIT ( ) SI_UNIT ( $, .RADIAN. ) );
#235 = DIRECTION ( 'NONE',  ( -1.000000000000000000, 0.000000000000000000, 0.000000000000000000 ) ) ;
#236 = ADVANCED_FACE ( 'NONE', ( #145 ), #168, .T. ) ;
#237 = FACE_OUTER_BOUND ( 'NONE', #35, .T. ) ;
#238 = DIRECTION ( 'NONE',  ( -4.259641040512536405E-17, 1.000000000000000000, -0.000000000000000000 ) ) ;
#239 = COLOUR_RGB ( '',1.000000000000000000, 0.000000000000000000, 0.000000000000000000 ) ;
#240 = UNCERTAINTY_MEASURE_WITH_UNIT (LENGTH_MEASURE( 1.000000000000000082E-05 ), #302, 'distance_accuracy_value', 'NONE');
#241 = COLOUR_RGB ( '',1.000000000000000000, 0.000000000000000000, 0.000000000000000000 ) ;
#242 = CIRCLE ( 'NONE', #65, 0.2500000000000000000 ) ;
#243 = APPLICATION_CONTEXT ( 'automotive_design' ) ;
#244 = UNCERTAINTY_MEASURE_WITH_UNIT (LENGTH_MEASURE( 1.000000000000000082E-05 ), #59, 'distance_accuracy_value', 'NONE');
#245 = DIMENSIONAL_EXPONENTS ( 1.000000000000000000, 0.000000000000000000, 0.000000000000000000, 0.000000000000000000, 0.000000000000000000, 0.000000000000000000, 0.000000000000000000 ) ;
#246 = AXIS2_PLACEMENT_3D ( 'NONE', #75, #94, #14 ) ;
#247 =( LENGTH_UNIT ( ) NAMED_UNIT ( * ) SI_UNIT ( $, .METRE. ) );
#248 =( NAMED_UNIT ( * ) PLANE_ANGLE_UNIT ( ) SI_UNIT ( $, .RADIAN. ) );
#249 = ORIENTED_EDGE ( 'NONE', *, *, #17, .T. ) ;
#250 = EDGE_CURVE ( 'NONE', #64, #108, #115, .T. ) ;
#251 = DIRECTION ( 'NONE',  ( 0.000000000000000000, -0.000000000000000000, 1.000000000000000000 ) ) ;
#252 = PRESENTATION_LAYER_ASSIGNMENT (  '', '', ( #147 ) ) ;
#253 = ADVANCED_FACE ( 'NONE', ( #237 ), #28, .T. ) ;
#254 = FILL_AREA_STYLE_COLOUR ( '', #241 ) ;
#255 = CARTESIAN_POINT ( 'NONE',  ( 0.000000000000000000, 0.000000000000000000, 0.000000000000000000 ) ) ;
#256 = CARTESIAN_POINT ( 'NONE',  ( 3.061616997868383018E-17, 0.000000000000000000, 0.2500000000000000000 ) ) ;
#257 = ORIENTED_EDGE ( 'NONE', *, *, #7, .T. ) ;
#258 = DIRECTION ( 'NONE',  ( 0.000000000000000000, 0.000000000000000000, -1.000000000000000000 ) ) ;
#259 = SURFACE_STYLE_FILL_AREA ( #284 ) ;
#260 = CARTESIAN_POINT ( 'NONE',  ( 0.000000000000000000, 0.000000000000000000, 0.000000000000000000 ) ) ;
#261 = CARTESIAN_POINT ( 'NONE',  ( -0.2500000000000002220, 6.000000000000000888, 0.000000000000000000 ) ) ;
#262 =( CONVERSION_BASED_UNIT ( 'INCH', #267 ) LENGTH_UNIT ( ) NAMED_UNIT ( #273 ) );
#263 = STYLED_ITEM ( 'NONE', ( #104 ), #181 ) ;
#264 =( NAMED_UNIT ( * ) SI_UNIT ( $, .STERADIAN. ) SOLID_ANGLE_UNIT ( ) );
#265 = PRODUCT_RELATED_PRODUCT_CATEGORY ( 'part', '', ( #26 ) ) ;
#266 = FACE_OUTER_BOUND ( 'NONE', #222, .T. ) ;
#267 = LENGTH_MEASURE_WITH_UNIT ( LENGTH_MEASURE( 0.02539999999999999897 ), #122 );
#268 = DIRECTION ( 'NONE',  ( -4.259641040512536405E-17, 1.000000000000000000, -0.000000000000000000 ) ) ;
#269 =( LENGTH_UNIT ( ) NAMED_UNIT ( * ) SI_UNIT ( $, .METRE. ) );
#270 = SURFACE_STYLE_USAGE ( .BOTH. , #87 ) ;
#271 = EDGE_LOOP ( 'NONE', ( #52, #137, #249, #130 ) ) ;
#272 = AXIS2_PLACEMENT_3D ( 'NONE', #281, #171, #72 ) ;
#273 = DIMENSIONAL_EXPONENTS ( 1.000000000000000000, 0.000000000000000000, 0.000000000000000000, 0.000000000000000000, 0.000000000000000000, 0.000000000000000000, 0.000000000000000000 ) ;
#274 =( CONVERSION_BASED_UNIT ( 'INCH', #202 ) LENGTH_UNIT ( ) NAMED_UNIT ( #198 ) );
#275 = ORIENTED_EDGE ( 'NONE', *, *, #58, .T. ) ;
#276 = ORIENTED_EDGE ( 'NONE', *, *, #159, .F. ) ;
#277 = PRODUCT_DEFINITION ( 'UNKNOWN', '', #5, #183 ) ;
#278 = AXIS2_PLACEMENT_3D ( 'NONE', #260, #50, #193 ) ;
#279 = MECHANICAL_DESIGN_GEOMETRIC_PRESENTATION_REPRESENTATION (  '', ( #148 ), #91 ) ;
#280 =( NAMED_UNIT ( * ) PLANE_ANGLE_UNIT ( ) SI_UNIT ( $, .RADIAN. ) );
#281 = CARTESIAN_POINT ( 'NONE',  ( 2.268067724252340606E-34, 3.125000000000000000, 0.000000000000000000 ) ) ;
#282 = SURFACE_STYLE_USAGE ( .BOTH. , #189 ) ;
#283 =( GEOMETRIC_REPRESENTATION_CONTEXT ( 3 ) GLOBAL_UNCERTAINTY_ASSIGNED_CONTEXT ( ( #303 ) ) GLOBAL_UNIT_ASSIGNED_CONTEXT ( ( #111, #39, #131 ) ) REPRESENTATION_CONTEXT ( 'NONE', 'WORKASPACE' ) );
#284 = FILL_AREA_STYLE ('',( #174 ) ) ;
#285 = AXIS2_PLACEMENT_3D ( 'NONE', #116, #143, #233 ) ;
#286 = VECTOR ( 'NONE', #228, 39.37007874015748143 ) ;
#287 = LINE ( 'NONE', #175, #286 ) ;
#288 = DIRECTION ( 'NONE',  ( -0.000000000000000000, -1.000000000000000000, -0.000000000000000000 ) ) ;
#289 = PRODUCT_CONTEXT ( 'NONE', #243, 'mechanical' ) ;
#290 = EDGE_CURVE ( 'NONE', #108, #64, #135, .T. ) ;
#291 = CARTESIAN_POINT ( 'NONE',  ( 3.061616997868383018E-17, 0.000000000000000000, 0.2500000000000000000 ) ) ;
#292 = PRODUCT_DEFINITION_SHAPE ( 'NONE', 'NONE',  #277 ) ;
#293 = LINE ( 'NONE', #261, #62 ) ;
#294 = EDGE_CURVE ( 'NONE', #64, #204, #293, .T. ) ;
#295 = PRESENTATION_LAYER_ASSIGNMENT (  '', '', ( #81 ) ) ;
#296 = FILL_AREA_STYLE ('',( #84 ) ) ;
#297 = ORIENTED_EDGE ( 'NONE', *, *, #294, .T. ) ;
#298 = ORIENTED_EDGE ( 'NONE', *, *, #159, .T. ) ;
#299 = COLOUR_RGB ( '',0.7921568627450980005, 0.8196078431372548767, 0.9333333333333333481 ) ;
#300 = ORIENTED_EDGE ( 'NONE', *, *, #31, .F. ) ;
#301 = ORIENTED_EDGE ( 'NONE', *, *, #11, .F. ) ;
#302 =( CONVERSION_BASED_UNIT ( 'INCH', #19 ) LENGTH_UNIT ( ) NAMED_UNIT ( #245 ) );
#303 = UNCERTAINTY_MEASURE_WITH_UNIT (LENGTH_MEASURE( 1.000000000000000082E-05 ), #111, 'distance_accuracy_value', 'NONE');
#304 = PRESENTATION_STYLE_ASSIGNMENT (( #92 ) ) ;
#305 = LENGTH_MEASURE_WITH_UNIT ( LENGTH_MEASURE( 0.02539999999999999897 ), #188 );
#306 = FILL_AREA_STYLE ('',( #254 ) ) ;
#307 = CYLINDRICAL_SURFACE ( 'NONE', #4, 0.2500000000000000555 ) ;
#308 = MECHANICAL_DESIGN_GEOMETRIC_PRESENTATION_REPRESENTATION (  '', ( #263 ), #283 ) ;
#309 = FACE_OUTER_BOUND ( 'NONE', #180, .T. ) ;
ENDSEC;
END-ISO-10303-21;
