ISO-10303-21;
HEADER;
FILE_DESCRIPTION (( 'STEP AP214' ),
    '1' );
FILE_NAME ('59454.STEP',
    '2023-06-30T22:20:57',
    ( '' ),
    ( '' ),
    'SwSTEP 2.0',
    'SolidWorks 2023',
    '' );
FILE_SCHEMA (( 'AUTOMOTIVE_DESIGN' ));
ENDSEC;

DATA;
#1 = DIRECTION ( 'NONE',  ( -0.000000000000000000, -1.000000000000000000, -0.000000000000000000 ) ) ;
#2 =( GEOMETRIC_REPRESENTATION_CONTEXT ( 3 ) GLOBAL_UNCERTAINTY_ASSIGNED_CONTEXT ( ( #166 ) ) GLOBAL_UNIT_ASSIGNED_CONTEXT ( ( #23, #245, #133 ) ) REPRESENTATION_CONTEXT ( 'NONE', 'WORKASPACE' ) );
#3 = ORIENTED_EDGE ( 'NONE', *, *, #273, .T. ) ;
#4 = FILL_AREA_STYLE ('',( #222 ) ) ;
#5 = EDGE_CURVE ( 'NONE', #280, #29, #209, .T. ) ;
#6 =( NAMED_UNIT ( * ) PLANE_ANGLE_UNIT ( ) SI_UNIT ( $, .RADIAN. ) );
#7 = CARTESIAN_POINT ( 'NONE',  ( 0.000000000000000000, 0.3750000000000001110, 0.000000000000000000 ) ) ;
#8 = MECHANICAL_DESIGN_GEOMETRIC_PRESENTATION_REPRESENTATION (  '', ( #171 ), #266 ) ;
#9 = SURFACE_SIDE_STYLE ('',( #258 ) ) ;
#10 = DIRECTION ( 'NONE',  ( 0.000000000000000000, 0.000000000000000000, -1.000000000000000000 ) ) ;
#11 = LINE ( 'NONE', #114, #366 ) ;
#12 = DIRECTION ( 'NONE',  ( -1.226110798522842545E-16, 1.000000000000000000, -0.000000000000000000 ) ) ;
#13 = CLOSED_SHELL ( 'NONE', ( #179, #338, #128, #92 ) ) ;
#14 = DIRECTION ( 'NONE',  ( 1.000000000000000000, 0.000000000000000000, 0.000000000000000000 ) ) ;
#15 = DIRECTION ( 'NONE',  ( -1.000000000000000000, 0.000000000000000000, 0.000000000000000000 ) ) ;
#16 = SURFACE_STYLE_USAGE ( .BOTH. , #360 ) ;
#17 = APPLICATION_PROTOCOL_DEFINITION ( 'draft international standard', 'automotive_design', 1998, #67 ) ;
#18 = COLOUR_RGB ( '',1.000000000000000000, 0.000000000000000000, 0.000000000000000000 ) ;
#19 = DIRECTION ( 'NONE',  ( -1.226110798522842545E-16, 1.000000000000000000, -0.000000000000000000 ) ) ;
#20 = FILL_AREA_STYLE ('',( #215 ) ) ;
#21 = DIRECTION ( 'NONE',  ( 1.000000000000000000, 0.000000000000000000, 0.000000000000000000 ) ) ;
#22 = LENGTH_MEASURE_WITH_UNIT ( LENGTH_MEASURE( 0.02539999999999999897 ), #302 );
#23 =( CONVERSION_BASED_UNIT ( 'INCH', #126 ) LENGTH_UNIT ( ) NAMED_UNIT ( #282 ) );
#24 = VERTEX_POINT ( 'NONE', #104 ) ;
#25 = VERTEX_POINT ( 'NONE', #213 ) ;
#26 = DIRECTION ( 'NONE',  ( 0.000000000000000000, 0.000000000000000000, 1.000000000000000000 ) ) ;
#27 = DIRECTION ( 'NONE',  ( 0.000000000000000000, 0.000000000000000000, -1.000000000000000000 ) ) ;
#28 = LENGTH_MEASURE_WITH_UNIT ( LENGTH_MEASURE( 0.02539999999999999897 ), #335 );
#29 = VERTEX_POINT ( 'NONE', #109 ) ;
#30 = LENGTH_MEASURE_WITH_UNIT ( LENGTH_MEASURE( 0.02539999999999999897 ), #321 );
#31 = CARTESIAN_POINT ( 'NONE',  ( 0.000000000000000000, 0.3750000000000001110, -0.3749999999999998890 ) ) ;
#32 = CARTESIAN_POINT ( 'NONE',  ( 0.000000000000000000, 1.000000000000000000, 0.000000000000000000 ) ) ;
#33 = FACE_OUTER_BOUND ( 'NONE', #367, .T. ) ;
#34 = DIRECTION ( 'NONE',  ( 1.226110798522842545E-16, -1.000000000000000000, 0.000000000000000000 ) ) ;
#35 = AXIS2_PLACEMENT_3D ( 'NONE', #206, #94, #334 ) ;
#36 = CARTESIAN_POINT ( 'NONE',  ( 0.3749999999999998890, 3.000000000000000444, 0.000000000000000000 ) ) ;
#37 = DIRECTION ( 'NONE',  ( 0.000000000000000000, 1.000000000000000000, 0.000000000000000000 ) ) ;
#38 = DIRECTION ( 'NONE',  ( -1.000000000000000000, 0.000000000000000000, 0.000000000000000000 ) ) ;
#39 = MECHANICAL_DESIGN_GEOMETRIC_PRESENTATION_REPRESENTATION (  '', ( #336 ), #49 ) ;
#40 = AXIS2_PLACEMENT_3D ( 'NONE', #293, #363, #327 ) ;
#41 =( CONVERSION_BASED_UNIT ( 'INCH', #236 ) LENGTH_UNIT ( ) NAMED_UNIT ( #46 ) );
#42 = ADVANCED_FACE ( 'NONE', ( #163 ), #136, .T. ) ;
#43 = DIRECTION ( 'NONE',  ( 0.000000000000000000, 0.000000000000000000, -1.000000000000000000 ) ) ;
#44 = MECHANICAL_DESIGN_GEOMETRIC_PRESENTATION_REPRESENTATION (  '', ( #250 ), #137 ) ;
#45 = CARTESIAN_POINT ( 'NONE',  ( 6.123233995736761105E-17, 3.000000000000000444, 0.000000000000000000 ) ) ;
#46 = DIMENSIONAL_EXPONENTS ( 1.000000000000000000, 0.000000000000000000, 0.000000000000000000, 0.000000000000000000, 0.000000000000000000, 0.000000000000000000, 0.000000000000000000 ) ;
#47 =( NAMED_UNIT ( * ) PLANE_ANGLE_UNIT ( ) SI_UNIT ( $, .RADIAN. ) );
#48 = ORIENTED_EDGE ( 'NONE', *, *, #61, .F. ) ;
#49 =( GEOMETRIC_REPRESENTATION_CONTEXT ( 3 ) GLOBAL_UNCERTAINTY_ASSIGNED_CONTEXT ( ( #315 ) ) GLOBAL_UNIT_ASSIGNED_CONTEXT ( ( #41, #71, #118 ) ) REPRESENTATION_CONTEXT ( 'NONE', 'WORKASPACE' ) );
#50 = COLOUR_RGB ( '',0.7921568627450980005, 0.8196078431372548767, 0.9333333333333333481 ) ;
#51 = ORIENTED_EDGE ( 'NONE', *, *, #102, .T. ) ;
#52 = LENGTH_MEASURE_WITH_UNIT ( LENGTH_MEASURE( 0.02539999999999999897 ), #160 );
#53 = ORIENTED_EDGE ( 'NONE', *, *, #237, .F. ) ;
#54 = ORIENTED_EDGE ( 'NONE', *, *, #289, .T. ) ;
#55 = CARTESIAN_POINT ( 'NONE',  ( 6.123233995736759873E-17, 3.000000000000000444, 0.000000000000000000 ) ) ;
#56 = AXIS2_PLACEMENT_3D ( 'NONE', #200, #230, #10 ) ;
#57 = MECHANICAL_DESIGN_GEOMETRIC_PRESENTATION_REPRESENTATION (  '', ( #201 ), #368 ) ;
#58 = APPLICATION_CONTEXT ( 'automotive_design' ) ;
#59 = FACE_OUTER_BOUND ( 'NONE', #134, .T. ) ;
#60 = DIMENSIONAL_EXPONENTS ( 1.000000000000000000, 0.000000000000000000, 0.000000000000000000, 0.000000000000000000, 0.000000000000000000, 0.000000000000000000, 0.000000000000000000 ) ;
#61 = EDGE_CURVE ( 'NONE', #187, #216, #130, .T. ) ;
#62 = AXIS2_PLACEMENT_3D ( 'NONE', #287, #112, #142 ) ;
#63 = SURFACE_SIDE_STYLE ('',( #353 ) ) ;
#64 = DIRECTION ( 'NONE',  ( -1.226110798522842545E-16, 1.000000000000000000, -0.000000000000000000 ) ) ;
#65 = SPHERICAL_SURFACE ( 'NONE', #257, 0.3749999999999999445 ) ;
#66 = VERTEX_POINT ( 'NONE', #31 ) ;
#67 = APPLICATION_CONTEXT ( 'automotive_design' ) ;
#68 = COLOUR_RGB ( '',0.7921568627450980005, 0.8196078431372548767, 0.9333333333333333481 ) ;
#69 = CARTESIAN_POINT ( 'NONE',  ( 0.000000000000000000, 0.3750000000000001110, 0.000000000000000000 ) ) ;
#70 = PRODUCT_DEFINITION_SHAPE ( 'NONE', 'NONE',  #350 ) ;
#71 =( NAMED_UNIT ( * ) PLANE_ANGLE_UNIT ( ) SI_UNIT ( $, .RADIAN. ) );
#72 = DIRECTION ( 'NONE',  ( 0.000000000000000000, 0.000000000000000000, -1.000000000000000000 ) ) ;
#73 = AXIS2_PLACEMENT_3D ( 'NONE', #7, #194, #259 ) ;
#74 = PRODUCT_DEFINITION_FORMATION_WITH_SPECIFIED_SOURCE ( 'ANY', '', #93, .NOT_KNOWN. ) ;
#75 = VERTEX_POINT ( 'NONE', #198 ) ;
#76 = UNCERTAINTY_MEASURE_WITH_UNIT (LENGTH_MEASURE( 1.000000000000000082E-05 ), #124, 'distance_accuracy_value', 'NONE');
#77 = SURFACE_SIDE_STYLE ('',( #158 ) ) ;
#78 = ORIENTED_EDGE ( 'NONE', *, *, #123, .F. ) ;
#79 = SURFACE_SIDE_STYLE ('',( #279 ) ) ;
#80 = AXIS2_PLACEMENT_3D ( 'NONE', #82, #1, #27 ) ;
#81 = CIRCLE ( 'NONE', #346, 0.3749999999999999445 ) ;
#82 = CARTESIAN_POINT ( 'NONE',  ( 0.000000000000000000, 1.000000000000000000, 0.000000000000000000 ) ) ;
#83 = EDGE_LOOP ( 'NONE', ( #252, #132 ) ) ;
#84 = DIRECTION ( 'NONE',  ( -1.226110798522842545E-16, 1.000000000000000000, -0.000000000000000000 ) ) ;
#85 = PRESENTATION_LAYER_ASSIGNMENT (  '', '', ( #336 ) ) ;
#86 = DIRECTION ( 'NONE',  ( -0.000000000000000000, -1.000000000000000000, -0.000000000000000000 ) ) ;
#87 = FACE_OUTER_BOUND ( 'NONE', #127, .T. ) ;
#88 = LENGTH_MEASURE_WITH_UNIT ( LENGTH_MEASURE( 0.02539999999999999897 ), #145 );
#89 = SURFACE_STYLE_USAGE ( .BOTH. , #9 ) ;
#90 = CIRCLE ( 'NONE', #355, 0.3749999999999998335 ) ;
#91 = CYLINDRICAL_SURFACE ( 'NONE', #164, 0.3749999999999996669 ) ;
#92 = ADVANCED_FACE ( 'NONE', ( #320 ), #253, .F. ) ;
#93 = PRODUCT ( '59454', '59454', '', ( #298 ) ) ;
#94 = DIRECTION ( 'NONE',  ( -0.000000000000000000, -1.000000000000000000, -0.000000000000000000 ) ) ;
#95 = CARTESIAN_POINT ( 'NONE',  ( -0.3749999999999992784, 1.000000000000000000, 0.000000000000000000 ) ) ;
#96 = CIRCLE ( 'NONE', #361, 0.3749999999999995559 ) ;
#97 = AXIS2_PLACEMENT_3D ( 'NONE', #146, #86, #197 ) ;
#98 = DIRECTION ( 'NONE',  ( 0.000000000000000000, 0.000000000000000000, 1.000000000000000000 ) ) ;
#99 = ORIENTED_EDGE ( 'NONE', *, *, #303, .F. ) ;
#100 = COLOUR_RGB ( '',1.000000000000000000, 0.000000000000000000, 0.000000000000000000 ) ;
#101 = ORIENTED_EDGE ( 'NONE', *, *, #168, .F. ) ;
#102 = EDGE_CURVE ( 'NONE', #29, #280, #265, .T. ) ;
#103 = SURFACE_STYLE_FILL_AREA ( #372 ) ;
#104 = CARTESIAN_POINT ( 'NONE',  ( 0.3749999999999998890, 0.3750000000000001110, 0.000000000000000000 ) ) ;
#105 = ORIENTED_EDGE ( 'NONE', *, *, #61, .T. ) ;
#106 = ADVANCED_FACE ( 'NONE', ( #318 ), #326, .T. ) ;
#107 = SURFACE_SIDE_STYLE ('',( #341 ) ) ;
#108 = UNCERTAINTY_MEASURE_WITH_UNIT (LENGTH_MEASURE( 1.000000000000000082E-05 ), #139, 'distance_accuracy_value', 'NONE');
#109 = CARTESIAN_POINT ( 'NONE',  ( 0.000000000000000000, 1.000000000000000000, -0.3749999999999998890 ) ) ;
#110 =( GEOMETRIC_REPRESENTATION_CONTEXT ( 3 ) GLOBAL_UNCERTAINTY_ASSIGNED_CONTEXT ( ( #211 ) ) GLOBAL_UNIT_ASSIGNED_CONTEXT ( ( #147, #292, #322 ) ) REPRESENTATION_CONTEXT ( 'NONE', 'WORKASPACE' ) );
#111 = EDGE_CURVE ( 'NONE', #216, #75, #243, .T. ) ;
#112 = DIRECTION ( 'NONE',  ( -0.000000000000000000, -1.000000000000000000, -0.000000000000000000 ) ) ;
#113 =( NAMED_UNIT ( * ) SI_UNIT ( $, .STERADIAN. ) SOLID_ANGLE_UNIT ( ) );
#114 = CARTESIAN_POINT ( 'NONE',  ( -0.3749999999999996114, 3.000000000000000444, 0.000000000000000000 ) ) ;
#115 = CARTESIAN_POINT ( 'NONE',  ( 4.592425496802572986E-17, 0.3750000000000001110, 0.3749999999999998890 ) ) ;
#116 = EDGE_CURVE ( 'NONE', #296, #277, #11, .T. ) ;
#117 = MECHANICAL_DESIGN_GEOMETRIC_PRESENTATION_REPRESENTATION (  '', ( #225 ), #2 ) ;
#118 =( NAMED_UNIT ( * ) SI_UNIT ( $, .STERADIAN. ) SOLID_ANGLE_UNIT ( ) );
#119 = CARTESIAN_POINT ( 'NONE',  ( -4.592425496802575451E-17, 0.3750000000000000555, 0.000000000000000000 ) ) ;
#120 = PRESENTATION_STYLE_ASSIGNMENT (( #16 ) ) ;
#121 = STYLED_ITEM ( 'NONE', ( #138 ), #42 ) ;
#122 = AXIS2_PLACEMENT_3D ( 'NONE', #304, #26, #21 ) ;
#123 = EDGE_CURVE ( 'NONE', #344, #25, #190, .T. ) ;
#124 =( CONVERSION_BASED_UNIT ( 'INCH', #52 ) LENGTH_UNIT ( ) NAMED_UNIT ( #371 ) );
#125 = ORIENTED_EDGE ( 'NONE', *, *, #234, .T. ) ;
#126 = LENGTH_MEASURE_WITH_UNIT ( LENGTH_MEASURE( 0.02539999999999999897 ), #365 );
#127 = EDGE_LOOP ( 'NONE', ( #78, #359, #364, #370 ) ) ;
#128 = ADVANCED_FACE ( 'NONE', ( #87 ), #314, .T. ) ;
#129 = COLOUR_RGB ( '',1.000000000000000000, 0.000000000000000000, 0.000000000000000000 ) ;
#130 = CIRCLE ( 'NONE', #73, 0.3749999999999998890 ) ;
#131 = SURFACE_SIDE_STYLE ('',( #103 ) ) ;
#132 = ORIENTED_EDGE ( 'NONE', *, *, #5, .F. ) ;
#133 =( NAMED_UNIT ( * ) SI_UNIT ( $, .STERADIAN. ) SOLID_ANGLE_UNIT ( ) );
#134 = EDGE_LOOP ( 'NONE', ( #347, #307, #54, #310, #48 ) ) ;
#135 = FACE_OUTER_BOUND ( 'NONE', #247, .T. ) ;
#136 = CYLINDRICAL_SURFACE ( 'NONE', #62, 0.3749999999999998890 ) ;
#137 =( GEOMETRIC_REPRESENTATION_CONTEXT ( 3 ) GLOBAL_UNCERTAINTY_ASSIGNED_CONTEXT ( ( #254 ) ) GLOBAL_UNIT_ASSIGNED_CONTEXT ( ( #227, #6, #113 ) ) REPRESENTATION_CONTEXT ( 'NONE', 'WORKASPACE' ) );
#138 = PRESENTATION_STYLE_ASSIGNMENT (( #283 ) ) ;
#139 =( CONVERSION_BASED_UNIT ( 'INCH', #30 ) LENGTH_UNIT ( ) NAMED_UNIT ( #60 ) );
#140 =( NAMED_UNIT ( * ) SI_UNIT ( $, .STERADIAN. ) SOLID_ANGLE_UNIT ( ) );
#141 = FILL_AREA_STYLE_COLOUR ( '', #275 ) ;
#142 = DIRECTION ( 'NONE',  ( 0.000000000000000000, 0.000000000000000000, -1.000000000000000000 ) ) ;
#143 = FILL_AREA_STYLE ('',( #141 ) ) ;
#144 = AXIS2_PLACEMENT_3D ( 'NONE', #32, #37, #291 ) ;
#145 =( LENGTH_UNIT ( ) NAMED_UNIT ( * ) SI_UNIT ( $, .METRE. ) );
#146 = CARTESIAN_POINT ( 'NONE',  ( 0.000000000000000000, 0.000000000000000000, 0.000000000000000000 ) ) ;
#147 =( CONVERSION_BASED_UNIT ( 'INCH', #88 ) LENGTH_UNIT ( ) NAMED_UNIT ( #241 ) );
#148 = PRODUCT_RELATED_PRODUCT_CATEGORY ( 'part', '', ( #93 ) ) ;
#149 = STYLED_ITEM ( 'NONE', ( #165 ), #106 ) ;
#150 = AXIS2_PLACEMENT_3D ( 'NONE', #202, #328, #173 ) ;
#151 = FILL_AREA_STYLE_COLOUR ( '', #129 ) ;
#152 = DIRECTION ( 'NONE',  ( -0.000000000000000000, -1.000000000000000000, -0.000000000000000000 ) ) ;
#153 = VECTOR ( 'NONE', #195, 39.37007874015748143 ) ;
#154 = DIRECTION ( 'NONE',  ( -1.226110798522842545E-16, 1.000000000000000000, -0.000000000000000000 ) ) ;
#155 = DIMENSIONAL_EXPONENTS ( 1.000000000000000000, 0.000000000000000000, 0.000000000000000000, 0.000000000000000000, 0.000000000000000000, 0.000000000000000000, 0.000000000000000000 ) ;
#156 = EDGE_CURVE ( 'NONE', #277, #25, #308, .T. ) ;
#157 = PRODUCT_DEFINITION_CONTEXT ( 'detailed design', #58, 'design' ) ;
#158 = SURFACE_STYLE_FILL_AREA ( #306 ) ;
#159 = CIRCLE ( 'NONE', #150, 0.3749999999999998890 ) ;
#160 =( LENGTH_UNIT ( ) NAMED_UNIT ( * ) SI_UNIT ( $, .METRE. ) );
#161 = ORIENTED_EDGE ( 'NONE', *, *, #168, .T. ) ;
#162 = ORIENTED_EDGE ( 'NONE', *, *, #237, .T. ) ;
#163 = FACE_OUTER_BOUND ( 'NONE', #240, .T. ) ;
#164 = AXIS2_PLACEMENT_3D ( 'NONE', #332, #19, #267 ) ;
#165 = PRESENTATION_STYLE_ASSIGNMENT (( #354 ) ) ;
#166 = UNCERTAINTY_MEASURE_WITH_UNIT (LENGTH_MEASURE( 1.000000000000000082E-05 ), #23, 'distance_accuracy_value', 'NONE');
#167 =( LENGTH_UNIT ( ) NAMED_UNIT ( * ) SI_UNIT ( $, .METRE. ) );
#168 = EDGE_CURVE ( 'NONE', #24, #187, #193, .T. ) ;
#169 =( NAMED_UNIT ( * ) PLANE_ANGLE_UNIT ( ) SI_UNIT ( $, .RADIAN. ) );
#170 = PRESENTATION_LAYER_ASSIGNMENT (  '', '', ( #121 ) ) ;
#171 = STYLED_ITEM ( 'NONE', ( #276 ), #311 ) ;
#172 = SHAPE_DEFINITION_REPRESENTATION ( #70, #284 ) ;
#173 = DIRECTION ( 'NONE',  ( 0.000000000000000000, 0.000000000000000000, -1.000000000000000000 ) ) ;
#174 = CARTESIAN_POINT ( 'NONE',  ( 4.592425496802572986E-17, 1.000000000000000000, 0.3749999999999998890 ) ) ;
#175 = ORIENTED_EDGE ( 'NONE', *, *, #251, .F. ) ;
#176 = PRESENTATION_LAYER_ASSIGNMENT (  '', '', ( #250 ) ) ;
#177 = LINE ( 'NONE', #295, #290 ) ;
#178 = EDGE_CURVE ( 'NONE', #25, #277, #90, .T. ) ;
#179 = ADVANCED_FACE ( 'NONE', ( #264 ), #91, .T. ) ;
#180 = FILL_AREA_STYLE_COLOUR ( '', #18 ) ;
#181 =( CONVERSION_BASED_UNIT ( 'INCH', #22 ) LENGTH_UNIT ( ) NAMED_UNIT ( #155 ) );
#182 = LINE ( 'NONE', #186, #153 ) ;
#183 = ORIENTED_EDGE ( 'NONE', *, *, #116, .F. ) ;
#184 = CIRCLE ( 'NONE', #35, 0.3749999999999998890 ) ;
#185 = AXIS2_PLACEMENT_3D ( 'NONE', #204, #219, #339 ) ;
#186 = CARTESIAN_POINT ( 'NONE',  ( 4.592425496802572986E-17, 0.000000000000000000, 0.3749999999999998890 ) ) ;
#187 = VERTEX_POINT ( 'NONE', #115 ) ;
#188 = ORIENTED_EDGE ( 'NONE', *, *, #289, .F. ) ;
#189 =( NAMED_UNIT ( * ) SI_UNIT ( $, .STERADIAN. ) SOLID_ANGLE_UNIT ( ) );
#190 = LINE ( 'NONE', #221, #324 ) ;
#191 = CLOSED_SHELL ( 'NONE', ( #214, #42, #106, #343, #311 ) ) ;
#192 = DIRECTION ( 'NONE',  ( -1.000000000000000000, -1.226110798522842545E-16, 0.000000000000000000 ) ) ;
#193 = CIRCLE ( 'NONE', #199, 0.3749999999999998890 ) ;
#194 = DIRECTION ( 'NONE',  ( -0.000000000000000000, -1.000000000000000000, -0.000000000000000000 ) ) ;
#195 = DIRECTION ( 'NONE',  ( -0.000000000000000000, -1.000000000000000000, -0.000000000000000000 ) ) ;
#196 = DIRECTION ( 'NONE',  ( -1.226110798522842545E-16, 1.000000000000000000, -0.000000000000000000 ) ) ;
#197 = DIRECTION ( 'NONE',  ( 0.000000000000000000, 0.000000000000000000, -1.000000000000000000 ) ) ;
#198 = CARTESIAN_POINT ( 'NONE',  ( -2.296212748401288342E-17, 6.829619984160658046E-17, 0.000000000000000000 ) ) ;
#199 = AXIS2_PLACEMENT_3D ( 'NONE', #69, #152, #43 ) ;
#200 = CARTESIAN_POINT ( 'NONE',  ( 0.000000000000000000, 1.000000000000000000, 0.000000000000000000 ) ) ;
#201 = STYLED_ITEM ( 'NONE', ( #239 ), #316 ) ;
#202 = CARTESIAN_POINT ( 'NONE',  ( 0.000000000000000000, 0.3750000000000001110, 0.000000000000000000 ) ) ;
#203 =( LENGTH_UNIT ( ) NAMED_UNIT ( * ) SI_UNIT ( $, .METRE. ) );
#204 = CARTESIAN_POINT ( 'NONE',  ( 3.064544996619361817E-16, 1.000000000000000000, 0.000000000000000000 ) ) ;
#205 = DIRECTION ( 'NONE',  ( -1.000000000000000000, 0.000000000000000000, 0.000000000000000000 ) ) ;
#206 = CARTESIAN_POINT ( 'NONE',  ( 0.000000000000000000, 0.3750000000000001110, 0.000000000000000000 ) ) ;
#207 = FILL_AREA_STYLE_COLOUR ( '', #50 ) ;
#208 = ORIENTED_EDGE ( 'NONE', *, *, #111, .F. ) ;
#209 = CIRCLE ( 'NONE', #80, 0.3749999999999998890 ) ;
#210 = PRESENTATION_LAYER_ASSIGNMENT (  '', '', ( #225 ) ) ;
#211 = UNCERTAINTY_MEASURE_WITH_UNIT (LENGTH_MEASURE( 1.000000000000000082E-05 ), #147, 'distance_accuracy_value', 'NONE');
#212 = ORIENTED_EDGE ( 'NONE', *, *, #251, .T. ) ;
#213 = CARTESIAN_POINT ( 'NONE',  ( 0.3749999999999998890, 3.000000000000000444, 4.592425496802571754E-17 ) ) ;
#214 = ADVANCED_FACE ( 'NONE', ( #263 ), #65, .T. ) ;
#215 = FILL_AREA_STYLE_COLOUR ( '', #68 ) ;
#216 = VERTEX_POINT ( 'NONE', #358 ) ;
#217 =( GEOMETRIC_REPRESENTATION_CONTEXT ( 3 ) GLOBAL_UNCERTAINTY_ASSIGNED_CONTEXT ( ( #268 ) ) GLOBAL_UNIT_ASSIGNED_CONTEXT ( ( #181, #256, #140 ) ) REPRESENTATION_CONTEXT ( 'NONE', 'WORKASPACE' ) );
#218 = PRESENTATION_LAYER_ASSIGNMENT (  '', '', ( #171 ) ) ;
#219 = DIRECTION ( 'NONE',  ( -1.226110798522842545E-16, 1.000000000000000000, -0.000000000000000000 ) ) ;
#220 = EDGE_LOOP ( 'NONE', ( #233, #270 ) ) ;
#221 = CARTESIAN_POINT ( 'NONE',  ( 0.3749999999999997780, 3.000000000000000444, 4.592425496802570521E-17 ) ) ;
#222 = FILL_AREA_STYLE_COLOUR ( '', #100 ) ;
#223 = MECHANICAL_DESIGN_GEOMETRIC_PRESENTATION_REPRESENTATION (  '', ( #149 ), #110 ) ;
#224 = CARTESIAN_POINT ( 'NONE',  ( 3.064544996619361324E-16, 1.000000000000000000, 0.000000000000000000 ) ) ;
#225 = STYLED_ITEM ( 'NONE', ( #271 ), #313 ) ;
#226 = CARTESIAN_POINT ( 'NONE',  ( -4.592425496802575451E-17, 0.3750000000000000555, 0.000000000000000000 ) ) ;
#227 =( CONVERSION_BASED_UNIT ( 'INCH', #255 ) LENGTH_UNIT ( ) NAMED_UNIT ( #278 ) );
#228 = DIRECTION ( 'NONE',  ( 1.000000000000000000, 1.226110798522842545E-16, 0.000000000000000000 ) ) ;
#229 = CARTESIAN_POINT ( 'NONE',  ( 0.3749999999999998335, 1.000000000000000000, 4.592425496802570521E-17 ) ) ;
#230 = DIRECTION ( 'NONE',  ( -0.000000000000000000, -1.000000000000000000, -0.000000000000000000 ) ) ;
#231 = CARTESIAN_POINT ( 'NONE',  ( 3.064544996619361817E-16, 1.000000000000000000, 0.000000000000000000 ) ) ;
#232 =( GEOMETRIC_REPRESENTATION_CONTEXT ( 3 ) GLOBAL_UNCERTAINTY_ASSIGNED_CONTEXT ( ( #108 ) ) GLOBAL_UNIT_ASSIGNED_CONTEXT ( ( #139, #325, #281 ) ) REPRESENTATION_CONTEXT ( 'NONE', 'WORKASPACE' ) );
#233 = ORIENTED_EDGE ( 'NONE', *, *, #156, .T. ) ;
#234 = EDGE_CURVE ( 'NONE', #296, #344, #96, .T. ) ;
#235 = DIRECTION ( 'NONE',  ( -0.000000000000000000, -1.000000000000000000, -0.000000000000000000 ) ) ;
#236 = LENGTH_MEASURE_WITH_UNIT ( LENGTH_MEASURE( 0.02539999999999999897 ), #203 );
#237 = EDGE_CURVE ( 'NONE', #66, #24, #184, .T. ) ;
#238 = CARTESIAN_POINT ( 'NONE',  ( -4.592425496802575451E-17, 0.3750000000000000555, 0.000000000000000000 ) ) ;
#239 = PRESENTATION_STYLE_ASSIGNMENT (( #309 ) ) ;
#240 = EDGE_LOOP ( 'NONE', ( #51, #330, #101, #53, #188 ) ) ;
#241 = DIMENSIONAL_EXPONENTS ( 1.000000000000000000, 0.000000000000000000, 0.000000000000000000, 0.000000000000000000, 0.000000000000000000, 0.000000000000000000, 0.000000000000000000 ) ;
#242 = FILL_AREA_STYLE_COLOUR ( '', #345 ) ;
#243 = CIRCLE ( 'NONE', #274, 0.3749999999999999445 ) ;
#244 = UNCERTAINTY_MEASURE_WITH_UNIT (LENGTH_MEASURE( 1.000000000000000082E-05 ), #317, 'distance_accuracy_value', 'NONE');
#245 =( NAMED_UNIT ( * ) PLANE_ANGLE_UNIT ( ) SI_UNIT ( $, .RADIAN. ) );
#246 = ORIENTED_EDGE ( 'NONE', *, *, #156, .F. ) ;
#247 = EDGE_LOOP ( 'NONE', ( #208, #3, #162, #212 ) ) ;
#248 = FILL_AREA_STYLE ('',( #242 ) ) ;
#249 = AXIS2_PLACEMENT_3D ( 'NONE', #55, #196, #38 ) ;
#250 = STYLED_ITEM ( 'NONE', ( #348 ), #343 ) ;
#251 = EDGE_CURVE ( 'NONE', #24, #75, #81, .T. ) ;
#252 = ORIENTED_EDGE ( 'NONE', *, *, #102, .F. ) ;
#253 = PLANE ( 'NONE',  #260 ) ;
#254 = UNCERTAINTY_MEASURE_WITH_UNIT (LENGTH_MEASURE( 1.000000000000000082E-05 ), #227, 'distance_accuracy_value', 'NONE');
#255 = LENGTH_MEASURE_WITH_UNIT ( LENGTH_MEASURE( 0.02539999999999999897 ), #167 );
#256 =( NAMED_UNIT ( * ) PLANE_ANGLE_UNIT ( ) SI_UNIT ( $, .RADIAN. ) );
#257 = AXIS2_PLACEMENT_3D ( 'NONE', #238, #98, #14 ) ;
#258 = SURFACE_STYLE_FILL_AREA ( #143 ) ;
#259 = DIRECTION ( 'NONE',  ( 0.000000000000000000, 0.000000000000000000, -1.000000000000000000 ) ) ;
#260 = AXIS2_PLACEMENT_3D ( 'NONE', #36, #34, #228 ) ;
#261 = PRESENTATION_LAYER_ASSIGNMENT (  '', '', ( #201 ) ) ;
#262 = DIRECTION ( 'NONE',  ( -1.000000000000000000, 0.000000000000000000, 0.000000000000000000 ) ) ;
#263 = FACE_OUTER_BOUND ( 'NONE', #305, .T. ) ;
#264 = FACE_OUTER_BOUND ( 'NONE', #373, .T. ) ;
#265 = CIRCLE ( 'NONE', #56, 0.3749999999999998890 ) ;
#266 =( GEOMETRIC_REPRESENTATION_CONTEXT ( 3 ) GLOBAL_UNCERTAINTY_ASSIGNED_CONTEXT ( ( #76 ) ) GLOBAL_UNIT_ASSIGNED_CONTEXT ( ( #124, #47, #301 ) ) REPRESENTATION_CONTEXT ( 'NONE', 'WORKASPACE' ) );
#267 = DIRECTION ( 'NONE',  ( -1.000000000000000000, 0.000000000000000000, 0.000000000000000000 ) ) ;
#268 = UNCERTAINTY_MEASURE_WITH_UNIT (LENGTH_MEASURE( 1.000000000000000082E-05 ), #181, 'distance_accuracy_value', 'NONE');
#269 = SPHERICAL_SURFACE ( 'NONE', #122, 0.3749999999999999445 ) ;
#270 = ORIENTED_EDGE ( 'NONE', *, *, #178, .T. ) ;
#271 = PRESENTATION_STYLE_ASSIGNMENT (( #342 ) ) ;
#272 = ORIENTED_EDGE ( 'NONE', *, *, #111, .T. ) ;
#273 = EDGE_CURVE ( 'NONE', #216, #66, #159, .T. ) ;
#274 = AXIS2_PLACEMENT_3D ( 'NONE', #226, #349, #352 ) ;
#275 = COLOUR_RGB ( '',1.000000000000000000, 0.000000000000000000, 0.000000000000000000 ) ;
#276 = PRESENTATION_STYLE_ASSIGNMENT (( #369 ) ) ;
#277 = VERTEX_POINT ( 'NONE', #329 ) ;
#278 = DIMENSIONAL_EXPONENTS ( 1.000000000000000000, 0.000000000000000000, 0.000000000000000000, 0.000000000000000000, 0.000000000000000000, 0.000000000000000000, 0.000000000000000000 ) ;
#279 = SURFACE_STYLE_FILL_AREA ( #20 ) ;
#280 = VERTEX_POINT ( 'NONE', #174 ) ;
#281 =( NAMED_UNIT ( * ) SI_UNIT ( $, .STERADIAN. ) SOLID_ANGLE_UNIT ( ) );
#282 = DIMENSIONAL_EXPONENTS ( 1.000000000000000000, 0.000000000000000000, 0.000000000000000000, 0.000000000000000000, 0.000000000000000000, 0.000000000000000000, 0.000000000000000000 ) ;
#283 = SURFACE_STYLE_USAGE ( .BOTH. , #107 ) ;
#284 = ADVANCED_BREP_SHAPE_REPRESENTATION ( '59454', ( #316, #313, #40 ), #232 ) ;
#285 = AXIS2_PLACEMENT_3D ( 'NONE', #45, #154, #262 ) ;
#286 = CIRCLE ( 'NONE', #185, 0.3749999999999995559 ) ;
#287 = CARTESIAN_POINT ( 'NONE',  ( 0.000000000000000000, 0.000000000000000000, 0.000000000000000000 ) ) ;
#288 = DIRECTION ( 'NONE',  ( -1.226110798522842545E-16, 1.000000000000000000, 0.000000000000000000 ) ) ;
#289 = EDGE_CURVE ( 'NONE', #29, #66, #177, .T. ) ;
#290 = VECTOR ( 'NONE', #235, 39.37007874015748143 ) ;
#291 = DIRECTION ( 'NONE',  ( 0.000000000000000000, -0.000000000000000000, 1.000000000000000000 ) ) ;
#292 =( NAMED_UNIT ( * ) PLANE_ANGLE_UNIT ( ) SI_UNIT ( $, .RADIAN. ) );
#293 = CARTESIAN_POINT ( 'NONE',  ( 0.000000000000000000, 0.000000000000000000, 0.000000000000000000 ) ) ;
#294 = PRESENTATION_LAYER_ASSIGNMENT (  '', '', ( #149 ) ) ;
#295 = CARTESIAN_POINT ( 'NONE',  ( 0.000000000000000000, 0.000000000000000000, -0.3749999999999998890 ) ) ;
#296 = VERTEX_POINT ( 'NONE', #95 ) ;
#297 = DIRECTION ( 'NONE',  ( -1.226110798522842545E-16, 1.000000000000000000, -0.000000000000000000 ) ) ;
#298 = PRODUCT_CONTEXT ( 'NONE', #67, 'mechanical' ) ;
#299 = FILL_AREA_STYLE ('',( #151 ) ) ;
#300 = CARTESIAN_POINT ( 'NONE',  ( 6.123233995736761105E-17, 3.000000000000000444, 0.000000000000000000 ) ) ;
#301 =( NAMED_UNIT ( * ) SI_UNIT ( $, .STERADIAN. ) SOLID_ANGLE_UNIT ( ) );
#302 =( LENGTH_UNIT ( ) NAMED_UNIT ( * ) SI_UNIT ( $, .METRE. ) );
#303 = EDGE_CURVE ( 'NONE', #344, #296, #286, .T. ) ;
#304 = CARTESIAN_POINT ( 'NONE',  ( -4.592425496802575451E-17, 0.3750000000000000555, 0.000000000000000000 ) ) ;
#305 = EDGE_LOOP ( 'NONE', ( #105, #272, #175, #161 ) ) ;
#306 = FILL_AREA_STYLE ('',( #180 ) ) ;
#307 = ORIENTED_EDGE ( 'NONE', *, *, #5, .T. ) ;
#308 = CIRCLE ( 'NONE', #285, 0.3749999999999998335 ) ;
#309 = SURFACE_STYLE_USAGE ( .BOTH. , #79 ) ;
#310 = ORIENTED_EDGE ( 'NONE', *, *, #273, .F. ) ;
#311 = ADVANCED_FACE ( 'NONE', ( #135 ), #269, .T. ) ;
#312 = ORIENTED_EDGE ( 'NONE', *, *, #123, .T. ) ;
#313 = MANIFOLD_SOLID_BREP ( 'Revolve - Tool Body (Straight Shanked)', #13 ) ;
#314 = CYLINDRICAL_SURFACE ( 'NONE', #249, 0.3749999999999996669 ) ;
#315 = UNCERTAINTY_MEASURE_WITH_UNIT (LENGTH_MEASURE( 1.000000000000000082E-05 ), #41, 'distance_accuracy_value', 'NONE');
#316 = MANIFOLD_SOLID_BREP ( 'Revolve - Cutting Edge', #191 ) ;
#317 =( CONVERSION_BASED_UNIT ( 'INCH', #28 ) LENGTH_UNIT ( ) NAMED_UNIT ( #323 ) );
#318 = FACE_OUTER_BOUND ( 'NONE', #83, .T. ) ;
#319 = PLANE ( 'NONE',  #337 ) ;
#320 = FACE_OUTER_BOUND ( 'NONE', #220, .T. ) ;
#321 =( LENGTH_UNIT ( ) NAMED_UNIT ( * ) SI_UNIT ( $, .METRE. ) );
#322 =( NAMED_UNIT ( * ) SI_UNIT ( $, .STERADIAN. ) SOLID_ANGLE_UNIT ( ) );
#323 = DIMENSIONAL_EXPONENTS ( 1.000000000000000000, 0.000000000000000000, 0.000000000000000000, 0.000000000000000000, 0.000000000000000000, 0.000000000000000000, 0.000000000000000000 ) ;
#324 = VECTOR ( 'NONE', #84, 39.37007874015748143 ) ;
#325 =( NAMED_UNIT ( * ) PLANE_ANGLE_UNIT ( ) SI_UNIT ( $, .RADIAN. ) );
#326 = PLANE ( 'NONE',  #144 ) ;
#327 = DIRECTION ( 'NONE',  ( 1.000000000000000000, 0.000000000000000000, 0.000000000000000000 ) ) ;
#328 = DIRECTION ( 'NONE',  ( -0.000000000000000000, -1.000000000000000000, -0.000000000000000000 ) ) ;
#329 = CARTESIAN_POINT ( 'NONE',  ( -0.3749999999999997780, 3.000000000000000444, 0.000000000000000000 ) ) ;
#330 = ORIENTED_EDGE ( 'NONE', *, *, #333, .T. ) ;
#331 = MECHANICAL_DESIGN_GEOMETRIC_PRESENTATION_REPRESENTATION (  '', ( #121 ), #217 ) ;
#332 = CARTESIAN_POINT ( 'NONE',  ( 6.123233995736759873E-17, 3.000000000000000444, 0.000000000000000000 ) ) ;
#333 = EDGE_CURVE ( 'NONE', #280, #187, #182, .T. ) ;
#334 = DIRECTION ( 'NONE',  ( 0.000000000000000000, 0.000000000000000000, -1.000000000000000000 ) ) ;
#335 =( LENGTH_UNIT ( ) NAMED_UNIT ( * ) SI_UNIT ( $, .METRE. ) );
#336 = STYLED_ITEM ( 'NONE', ( #120 ), #214 ) ;
#337 = AXIS2_PLACEMENT_3D ( 'NONE', #224, #288, #192 ) ;
#338 = ADVANCED_FACE ( 'NONE', ( #33 ), #319, .F. ) ;
#339 = DIRECTION ( 'NONE',  ( -1.000000000000000000, 0.000000000000000000, 0.000000000000000000 ) ) ;
#340 = ORIENTED_EDGE ( 'NONE', *, *, #234, .F. ) ;
#341 = SURFACE_STYLE_FILL_AREA ( #248 ) ;
#342 = SURFACE_STYLE_USAGE ( .BOTH. , #131 ) ;
#343 = ADVANCED_FACE ( 'NONE', ( #59 ), #351, .T. ) ;
#344 = VERTEX_POINT ( 'NONE', #229 ) ;
#345 = COLOUR_RGB ( '',1.000000000000000000, 0.000000000000000000, 0.000000000000000000 ) ;
#346 = AXIS2_PLACEMENT_3D ( 'NONE', #119, #72, #357 ) ;
#347 = ORIENTED_EDGE ( 'NONE', *, *, #333, .F. ) ;
#348 = PRESENTATION_STYLE_ASSIGNMENT (( #89 ) ) ;
#349 = DIRECTION ( 'NONE',  ( 1.224646799147353207E-16, -0.000000000000000000, 1.000000000000000000 ) ) ;
#350 = PRODUCT_DEFINITION ( 'UNKNOWN', '', #74, #157 ) ;
#351 = CYLINDRICAL_SURFACE ( 'NONE', #97, 0.3749999999999998890 ) ;
#352 = DIRECTION ( 'NONE',  ( 1.000000000000000000, 0.000000000000000000, -1.224646799147353207E-16 ) ) ;
#353 = SURFACE_STYLE_FILL_AREA ( #4 ) ;
#354 = SURFACE_STYLE_USAGE ( .BOTH. , #63 ) ;
#355 = AXIS2_PLACEMENT_3D ( 'NONE', #300, #297, #205 ) ;
#356 = APPLICATION_PROTOCOL_DEFINITION ( 'draft international standard', 'automotive_design', 1998, #58 ) ;
#357 = DIRECTION ( 'NONE',  ( -1.000000000000000000, 0.000000000000000000, 0.000000000000000000 ) ) ;
#358 = CARTESIAN_POINT ( 'NONE',  ( -0.3749999999999999445, 0.3750000000000001110, 4.592425496802572986E-17 ) ) ;
#359 = ORIENTED_EDGE ( 'NONE', *, *, #303, .T. ) ;
#360 = SURFACE_SIDE_STYLE ('',( #362 ) ) ;
#361 = AXIS2_PLACEMENT_3D ( 'NONE', #231, #64, #15 ) ;
#362 = SURFACE_STYLE_FILL_AREA ( #299 ) ;
#363 = DIRECTION ( 'NONE',  ( 0.000000000000000000, 0.000000000000000000, 1.000000000000000000 ) ) ;
#364 = ORIENTED_EDGE ( 'NONE', *, *, #116, .T. ) ;
#365 =( LENGTH_UNIT ( ) NAMED_UNIT ( * ) SI_UNIT ( $, .METRE. ) );
#366 = VECTOR ( 'NONE', #12, 39.37007874015748143 ) ;
#367 = EDGE_LOOP ( 'NONE', ( #340, #99 ) ) ;
#368 =( GEOMETRIC_REPRESENTATION_CONTEXT ( 3 ) GLOBAL_UNCERTAINTY_ASSIGNED_CONTEXT ( ( #244 ) ) GLOBAL_UNIT_ASSIGNED_CONTEXT ( ( #317, #169, #189 ) ) REPRESENTATION_CONTEXT ( 'NONE', 'WORKASPACE' ) );
#369 = SURFACE_STYLE_USAGE ( .BOTH. , #77 ) ;
#370 = ORIENTED_EDGE ( 'NONE', *, *, #178, .F. ) ;
#371 = DIMENSIONAL_EXPONENTS ( 1.000000000000000000, 0.000000000000000000, 0.000000000000000000, 0.000000000000000000, 0.000000000000000000, 0.000000000000000000, 0.000000000000000000 ) ;
#372 = FILL_AREA_STYLE ('',( #207 ) ) ;
#373 = EDGE_LOOP ( 'NONE', ( #125, #312, #246, #183 ) ) ;
ENDSEC;
END-ISO-10303-21;
