ISO-10303-21;
HEADER;
FILE_DESCRIPTION (( 'STEP AP214' ),
    '1' );
FILE_NAME ('81647.STEP',
    '2023-06-23T02:30:56',
    ( '' ),
    ( '' ),
    'SwSTEP 2.0',
    'SolidWorks 2023',
    '' );
FILE_SCHEMA (( 'AUTOMOTIVE_DESIGN' ));
ENDSEC;

DATA;
#1 = MECHANICAL_DESIGN_GEOMETRIC_PRESENTATION_REPRESENTATION (  '', ( #303 ), #238 ) ;
#2 = EDGE_LOOP ( 'NONE', ( #241, #219 ) ) ;
#3 = COLOUR_RGB ( '',0.7921568627450980005, 0.8196078431372548767, 0.9333333333333333481 ) ;
#4 = ORIENTED_EDGE ( 'NONE', *, *, #110, .F. ) ;
#5 = DIRECTION ( 'NONE',  ( 0.000000000000000000, 1.000000000000000000, 0.000000000000000000 ) ) ;
#6 = PRODUCT ( '81647', '81647', '', ( #119 ) ) ;
#7 =( NAMED_UNIT ( * ) PLANE_ANGLE_UNIT ( ) SI_UNIT ( $, .RADIAN. ) );
#8 = CIRCLE ( 'NONE', #234, 0.3750000000000000555 ) ;
#9 = DIMENSIONAL_EXPONENTS ( 1.000000000000000000, 0.000000000000000000, 0.000000000000000000, 0.000000000000000000, 0.000000000000000000, 0.000000000000000000, 0.000000000000000000 ) ;
#10 = DIRECTION ( 'NONE',  ( -5.442874662877125708E-17, 1.000000000000000000, -0.000000000000000000 ) ) ;
#11 = FACE_OUTER_BOUND ( 'NONE', #2, .T. ) ;
#12 = FILL_AREA_STYLE_COLOUR ( '', #256 ) ;
#13 = DIMENSIONAL_EXPONENTS ( 1.000000000000000000, 0.000000000000000000, 0.000000000000000000, 0.000000000000000000, 0.000000000000000000, 0.000000000000000000, 0.000000000000000000 ) ;
#14 = DIRECTION ( 'NONE',  ( -1.000000000000000000, 0.000000000000000000, 0.000000000000000000 ) ) ;
#15 = SURFACE_STYLE_USAGE ( .BOTH. , #228 ) ;
#16 = DIRECTION ( 'NONE',  ( -1.000000000000000000, 0.000000000000000000, 0.000000000000000000 ) ) ;
#17 = STYLED_ITEM ( 'NONE', ( #101 ), #182 ) ;
#18 = CARTESIAN_POINT ( 'NONE',  ( 0.3750000000000000555, 2.750000000000000000, 4.592425496802576684E-17 ) ) ;
#19 = CARTESIAN_POINT ( 'NONE',  ( -0.3750000000000000555, 2.750000000000000000, 0.000000000000000000 ) ) ;
#20 = PRESENTATION_LAYER_ASSIGNMENT (  '', '', ( #153 ) ) ;
#21 = UNCERTAINTY_MEASURE_WITH_UNIT (LENGTH_MEASURE( 1.000000000000000082E-05 ), #294, 'distance_accuracy_value', 'NONE');
#22 = LINE ( 'NONE', #89, #117 ) ;
#23 = LENGTH_MEASURE_WITH_UNIT ( LENGTH_MEASURE( 0.02539999999999999897 ), #212 );
#24 = AXIS2_PLACEMENT_3D ( 'NONE', #282, #156, #14 ) ;
#25 = ORIENTED_EDGE ( 'NONE', *, *, #211, .T. ) ;
#26 = FACE_OUTER_BOUND ( 'NONE', #148, .T. ) ;
#27 = CIRCLE ( 'NONE', #200, 0.3750000000000000555 ) ;
#28 = PRODUCT_DEFINITION_FORMATION_WITH_SPECIFIED_SOURCE ( 'ANY', '', #6, .NOT_KNOWN. ) ;
#29 = PLANE ( 'NONE',  #216 ) ;
#30 = FILL_AREA_STYLE_COLOUR ( '', #250 ) ;
#31 = ORIENTED_EDGE ( 'NONE', *, *, #93, .F. ) ;
#32 = PLANE ( 'NONE',  #289 ) ;
#33 = SURFACE_SIDE_STYLE ('',( #298 ) ) ;
#34 =( NAMED_UNIT ( * ) SI_UNIT ( $, .STERADIAN. ) SOLID_ANGLE_UNIT ( ) );
#35 = ADVANCED_FACE ( 'NONE', ( #300 ), #32, .T. ) ;
#36 = CARTESIAN_POINT ( 'NONE',  ( -1.224646799147353207E-16, 5.000000000000000000, 0.000000000000000000 ) ) ;
#37 = LINE ( 'NONE', #62, #169 ) ;
#38 = PRESENTATION_LAYER_ASSIGNMENT (  '', '', ( #187 ) ) ;
#39 = DIRECTION ( 'NONE',  ( -5.442874662877125091E-17, 1.000000000000000000, 0.000000000000000000 ) ) ;
#40 = CARTESIAN_POINT ( 'NONE',  ( 0.000000000000000000, 0.000000000000000000, 0.000000000000000000 ) ) ;
#41 =( GEOMETRIC_REPRESENTATION_CONTEXT ( 3 ) GLOBAL_UNCERTAINTY_ASSIGNED_CONTEXT ( ( #288 ) ) GLOBAL_UNIT_ASSIGNED_CONTEXT ( ( #71, #50, #78 ) ) REPRESENTATION_CONTEXT ( 'NONE', 'WORKASPACE' ) );
#42 =( GEOMETRIC_REPRESENTATION_CONTEXT ( 3 ) GLOBAL_UNCERTAINTY_ASSIGNED_CONTEXT ( ( #118 ) ) GLOBAL_UNIT_ASSIGNED_CONTEXT ( ( #83, #85, #64 ) ) REPRESENTATION_CONTEXT ( 'NONE', 'WORKASPACE' ) );
#43 =( NAMED_UNIT ( * ) PLANE_ANGLE_UNIT ( ) SI_UNIT ( $, .RADIAN. ) );
#44 =( CONVERSION_BASED_UNIT ( 'INCH', #23 ) LENGTH_UNIT ( ) NAMED_UNIT ( #221 ) );
#45 = CIRCLE ( 'NONE', #222, 0.3750000000000000555 ) ;
#46 = ORIENTED_EDGE ( 'NONE', *, *, #255, .T. ) ;
#47 = FILL_AREA_STYLE ('',( #92 ) ) ;
#48 = DIRECTION ( 'NONE',  ( 0.000000000000000000, -0.000000000000000000, 1.000000000000000000 ) ) ;
#49 = ORIENTED_EDGE ( 'NONE', *, *, #255, .F. ) ;
#50 =( NAMED_UNIT ( * ) PLANE_ANGLE_UNIT ( ) SI_UNIT ( $, .RADIAN. ) );
#51 = EDGE_CURVE ( 'NONE', #161, #292, #138, .T. ) ;
#52 = VERTEX_POINT ( 'NONE', #63 ) ;
#53 =( GEOMETRIC_REPRESENTATION_CONTEXT ( 3 ) GLOBAL_UNCERTAINTY_ASSIGNED_CONTEXT ( ( #284 ) ) GLOBAL_UNIT_ASSIGNED_CONTEXT ( ( #271, #224, #280 ) ) REPRESENTATION_CONTEXT ( 'NONE', 'WORKASPACE' ) );
#54 = DIRECTION ( 'NONE',  ( -5.442874662877125708E-17, 1.000000000000000000, -0.000000000000000000 ) ) ;
#55 = SURFACE_STYLE_FILL_AREA ( #201 ) ;
#56 = LENGTH_MEASURE_WITH_UNIT ( LENGTH_MEASURE( 0.02539999999999999897 ), #267 );
#57 = CARTESIAN_POINT ( 'NONE',  ( 0.000000000000000000, 2.750000000000000000, -0.3750000000000000555 ) ) ;
#58 = DIRECTION ( 'NONE',  ( -0.000000000000000000, -1.000000000000000000, -0.000000000000000000 ) ) ;
#59 = AXIS2_PLACEMENT_3D ( 'NONE', #283, #235, #240 ) ;
#60 = DIRECTION ( 'NONE',  ( -1.000000000000000000, -5.442874662877125091E-17, 0.000000000000000000 ) ) ;
#61 = ADVANCED_BREP_SHAPE_REPRESENTATION ( '81647', ( #113, #98, #133 ), #42 ) ;
#62 = CARTESIAN_POINT ( 'NONE',  ( 0.000000000000000000, 0.000000000000000000, -0.3750000000000000555 ) ) ;
#63 = CARTESIAN_POINT ( 'NONE',  ( 0.000000000000000000, 0.000000000000000000, -0.3750000000000000555 ) ) ;
#64 =( NAMED_UNIT ( * ) SI_UNIT ( $, .STERADIAN. ) SOLID_ANGLE_UNIT ( ) );
#65 = DIRECTION ( 'NONE',  ( -1.000000000000000000, 0.000000000000000000, 0.000000000000000000 ) ) ;
#66 = FACE_OUTER_BOUND ( 'NONE', #150, .T. ) ;
#67 =( LENGTH_UNIT ( ) NAMED_UNIT ( * ) SI_UNIT ( $, .METRE. ) );
#68 = SURFACE_STYLE_FILL_AREA ( #242 ) ;
#69 = VERTEX_POINT ( 'NONE', #19 ) ;
#70 = AXIS2_PLACEMENT_3D ( 'NONE', #181, #154, #203 ) ;
#71 =( CONVERSION_BASED_UNIT ( 'INCH', #56 ) LENGTH_UNIT ( ) NAMED_UNIT ( #274 ) );
#72 = FILL_AREA_STYLE ('',( #147 ) ) ;
#73 = SURFACE_STYLE_USAGE ( .BOTH. , #33 ) ;
#74 = EDGE_CURVE ( 'NONE', #52, #144, #76, .T. ) ;
#75 = EDGE_LOOP ( 'NONE', ( #297, #196 ) ) ;
#76 = CIRCLE ( 'NONE', #264, 0.3750000000000000555 ) ;
#77 = ORIENTED_EDGE ( 'NONE', *, *, #93, .T. ) ;
#78 =( NAMED_UNIT ( * ) SI_UNIT ( $, .STERADIAN. ) SOLID_ANGLE_UNIT ( ) );
#79 = ADVANCED_FACE ( 'NONE', ( #226 ), #129, .T. ) ;
#80 = CIRCLE ( 'NONE', #260, 0.3750000000000001665 ) ;
#81 = CARTESIAN_POINT ( 'NONE',  ( 0.000000000000000000, 0.000000000000000000, 0.000000000000000000 ) ) ;
#82 = AXIS2_PLACEMENT_3D ( 'NONE', #36, #130, #65 ) ;
#83 =( CONVERSION_BASED_UNIT ( 'INCH', #257 ) LENGTH_UNIT ( ) NAMED_UNIT ( #111 ) );
#84 = DIRECTION ( 'NONE',  ( -5.442874662877125708E-17, 1.000000000000000000, -0.000000000000000000 ) ) ;
#85 =( NAMED_UNIT ( * ) PLANE_ANGLE_UNIT ( ) SI_UNIT ( $, .RADIAN. ) );
#86 = CLOSED_SHELL ( 'NONE', ( #308, #231, #296, #287 ) ) ;
#87 = FILL_AREA_STYLE_COLOUR ( '', #208 ) ;
#88 = UNCERTAINTY_MEASURE_WITH_UNIT (LENGTH_MEASURE( 1.000000000000000082E-05 ), #190, 'distance_accuracy_value', 'NONE');
#89 = CARTESIAN_POINT ( 'NONE',  ( 0.3749999999999999445, 5.000000000000000000, 4.592425496802576068E-17 ) ) ;
#90 = CARTESIAN_POINT ( 'NONE',  ( 0.000000000000000000, 2.750000000000000000, 0.000000000000000000 ) ) ;
#91 = AXIS2_PLACEMENT_3D ( 'NONE', #81, #279, #199 ) ;
#92 = FILL_AREA_STYLE_COLOUR ( '', #126 ) ;
#93 = EDGE_CURVE ( 'NONE', #192, #292, #22, .T. ) ;
#94 = PRODUCT_DEFINITION_SHAPE ( 'NONE', 'NONE',  #170 ) ;
#95 = DIRECTION ( 'NONE',  ( 0.000000000000000000, 0.000000000000000000, -1.000000000000000000 ) ) ;
#96 = EDGE_LOOP ( 'NONE', ( #213, #263, #207, #49 ) ) ;
#97 = CIRCLE ( 'NONE', #205, 0.3750000000000000555 ) ;
#98 = MANIFOLD_SOLID_BREP ( 'Revolve - Tool Body (Straight Shanked)', #86 ) ;
#99 = ORIENTED_EDGE ( 'NONE', *, *, #211, .F. ) ;
#100 = PRODUCT_DEFINITION_CONTEXT ( 'detailed design', #214, 'design' ) ;
#101 = PRESENTATION_STYLE_ASSIGNMENT (( #218 ) ) ;
#102 = ORIENTED_EDGE ( 'NONE', *, *, #239, .F. ) ;
#103 = DIRECTION ( 'NONE',  ( 0.000000000000000000, 0.000000000000000000, -1.000000000000000000 ) ) ;
#104 = VECTOR ( 'NONE', #120, 39.37007874015748143 ) ;
#105 = ORIENTED_EDGE ( 'NONE', *, *, #157, .F. ) ;
#106 = CARTESIAN_POINT ( 'NONE',  ( 3.032960542342103792E-32, 2.750000000000000000, 0.000000000000000000 ) ) ;
#107 = FILL_AREA_STYLE ('',( #12 ) ) ;
#108 = PRESENTATION_STYLE_ASSIGNMENT (( #15 ) ) ;
#109 = CARTESIAN_POINT ( 'NONE',  ( 3.032960542342103792E-32, 2.750000000000000000, 0.000000000000000000 ) ) ;
#110 = EDGE_CURVE ( 'NONE', #251, #144, #309, .T. ) ;
#111 = DIMENSIONAL_EXPONENTS ( 1.000000000000000000, 0.000000000000000000, 0.000000000000000000, 0.000000000000000000, 0.000000000000000000, 0.000000000000000000, 0.000000000000000000 ) ;
#112 = FACE_OUTER_BOUND ( 'NONE', #301, .T. ) ;
#113 = MANIFOLD_SOLID_BREP ( 'Revolve - Cutting Edge', #194 ) ;
#114 =( LENGTH_UNIT ( ) NAMED_UNIT ( * ) SI_UNIT ( $, .METRE. ) );
#115 =( NAMED_UNIT ( * ) SI_UNIT ( $, .STERADIAN. ) SOLID_ANGLE_UNIT ( ) );
#116 =( NAMED_UNIT ( * ) SI_UNIT ( $, .STERADIAN. ) SOLID_ANGLE_UNIT ( ) );
#117 = VECTOR ( 'NONE', #237, 39.37007874015748143 ) ;
#118 = UNCERTAINTY_MEASURE_WITH_UNIT (LENGTH_MEASURE( 1.000000000000000082E-05 ), #83, 'distance_accuracy_value', 'NONE');
#119 = PRODUCT_CONTEXT ( 'NONE', #137, 'mechanical' ) ;
#120 = DIRECTION ( 'NONE',  ( -0.000000000000000000, -1.000000000000000000, -0.000000000000000000 ) ) ;
#121 = PRESENTATION_LAYER_ASSIGNMENT (  '', '', ( #285 ) ) ;
#122 = SURFACE_SIDE_STYLE ('',( #171 ) ) ;
#123 = DIRECTION ( 'NONE',  ( -0.000000000000000000, -1.000000000000000000, -0.000000000000000000 ) ) ;
#124 = PRODUCT_RELATED_PRODUCT_CATEGORY ( 'part', '', ( #6 ) ) ;
#125 = ORIENTED_EDGE ( 'NONE', *, *, #180, .F. ) ;
#126 = COLOUR_RGB ( '',0.7921568627450980005, 0.8196078431372548767, 0.9333333333333333481 ) ;
#127 = ORIENTED_EDGE ( 'NONE', *, *, #157, .T. ) ;
#128 = CARTESIAN_POINT ( 'NONE',  ( 5.554665861710585348E-34, 2.750000000000000000, 0.000000000000000000 ) ) ;
#129 = CYLINDRICAL_SURFACE ( 'NONE', #59, 0.3750000000000000555 ) ;
#130 = DIRECTION ( 'NONE',  ( -5.442874662877125708E-17, 1.000000000000000000, -0.000000000000000000 ) ) ;
#131 =( GEOMETRIC_REPRESENTATION_CONTEXT ( 3 ) GLOBAL_UNCERTAINTY_ASSIGNED_CONTEXT ( ( #266 ) ) GLOBAL_UNIT_ASSIGNED_CONTEXT ( ( #163, #43, #115 ) ) REPRESENTATION_CONTEXT ( 'NONE', 'WORKASPACE' ) );
#132 = EDGE_CURVE ( 'NONE', #136, #251, #45, .T. ) ;
#133 = AXIS2_PLACEMENT_3D ( 'NONE', #159, #185, #236 ) ;
#134 = PLANE ( 'NONE',  #70 ) ;
#135 = CARTESIAN_POINT ( 'NONE',  ( 0.3750000000000000555, 5.000000000000000000, 4.592425496802576684E-17 ) ) ;
#136 = VERTEX_POINT ( 'NONE', #57 ) ;
#137 = APPLICATION_CONTEXT ( 'automotive_design' ) ;
#138 = CIRCLE ( 'NONE', #230, 0.3750000000000001665 ) ;
#139 =( NAMED_UNIT ( * ) SI_UNIT ( $, .STERADIAN. ) SOLID_ANGLE_UNIT ( ) );
#140 = SURFACE_SIDE_STYLE ('',( #143 ) ) ;
#141 = PRESENTATION_STYLE_ASSIGNMENT (( #261 ) ) ;
#142 = STYLED_ITEM ( 'NONE', ( #108 ), #79 ) ;
#143 = SURFACE_STYLE_FILL_AREA ( #47 ) ;
#144 = VERTEX_POINT ( 'NONE', #151 ) ;
#145 = EDGE_LOOP ( 'NONE', ( #4, #127, #46, #125 ) ) ;
#146 = COLOUR_RGB ( '',1.000000000000000000, 0.000000000000000000, 0.000000000000000000 ) ;
#147 = FILL_AREA_STYLE_COLOUR ( '', #146 ) ;
#148 = EDGE_LOOP ( 'NONE', ( #243, #105 ) ) ;
#149 = DIRECTION ( 'NONE',  ( -1.000000000000000000, 0.000000000000000000, 0.000000000000000000 ) ) ;
#150 = EDGE_LOOP ( 'NONE', ( #102, #174 ) ) ;
#151 = CARTESIAN_POINT ( 'NONE',  ( 4.592425496802575451E-17, 0.000000000000000000, 0.3750000000000000555 ) ) ;
#152 = DIRECTION ( 'NONE',  ( 0.000000000000000000, 0.000000000000000000, -1.000000000000000000 ) ) ;
#153 = STYLED_ITEM ( 'NONE', ( #272 ), #160 ) ;
#154 = DIRECTION ( 'NONE',  ( 5.442874662877125091E-17, -1.000000000000000000, 0.000000000000000000 ) ) ;
#155 =( LENGTH_UNIT ( ) NAMED_UNIT ( * ) SI_UNIT ( $, .METRE. ) );
#156 = DIRECTION ( 'NONE',  ( -5.442874662877125708E-17, 1.000000000000000000, -0.000000000000000000 ) ) ;
#157 = EDGE_CURVE ( 'NONE', #251, #136, #168, .T. ) ;
#158 = PRESENTATION_LAYER_ASSIGNMENT (  '', '', ( #303 ) ) ;
#159 = CARTESIAN_POINT ( 'NONE',  ( 0.000000000000000000, 0.000000000000000000, 0.000000000000000000 ) ) ;
#160 = ADVANCED_FACE ( 'NONE', ( #26 ), #29, .T. ) ;
#161 = VERTEX_POINT ( 'NONE', #225 ) ;
#162 = MECHANICAL_DESIGN_GEOMETRIC_PRESENTATION_REPRESENTATION (  '', ( #187 ), #53 ) ;
#163 =( CONVERSION_BASED_UNIT ( 'INCH', #167 ) LENGTH_UNIT ( ) NAMED_UNIT ( #9 ) );
#164 = EDGE_CURVE ( 'NONE', #292, #161, #80, .T. ) ;
#165 = SURFACE_SIDE_STYLE ('',( #68 ) ) ;
#166 =( NAMED_UNIT ( * ) PLANE_ANGLE_UNIT ( ) SI_UNIT ( $, .RADIAN. ) );
#167 = LENGTH_MEASURE_WITH_UNIT ( LENGTH_MEASURE( 0.02539999999999999897 ), #114 );
#168 = CIRCLE ( 'NONE', #204, 0.3750000000000000555 ) ;
#169 = VECTOR ( 'NONE', #227, 39.37007874015748143 ) ;
#170 = PRODUCT_DEFINITION ( 'UNKNOWN', '', #28, #100 ) ;
#171 = SURFACE_STYLE_FILL_AREA ( #72 ) ;
#172 = EDGE_LOOP ( 'NONE', ( #273, #77, #246, #99 ) ) ;
#173 =( LENGTH_UNIT ( ) NAMED_UNIT ( * ) SI_UNIT ( $, .METRE. ) );
#174 = ORIENTED_EDGE ( 'NONE', *, *, #259, .F. ) ;
#175 = FACE_OUTER_BOUND ( 'NONE', #96, .T. ) ;
#176 = DIRECTION ( 'NONE',  ( -1.000000000000000000, 0.000000000000000000, 0.000000000000000000 ) ) ;
#177 = CARTESIAN_POINT ( 'NONE',  ( -0.3750000000000002220, 5.000000000000000000, 0.000000000000000000 ) ) ;
#178 = SURFACE_STYLE_USAGE ( .BOTH. , #258 ) ;
#179 = DIRECTION ( 'NONE',  ( -1.000000000000000000, 0.000000000000000000, 0.000000000000000000 ) ) ;
#180 = EDGE_CURVE ( 'NONE', #144, #52, #27, .T. ) ;
#181 = CARTESIAN_POINT ( 'NONE',  ( 0.3750000000000000555, 5.000000000000000000, 0.000000000000000000 ) ) ;
#182 = ADVANCED_FACE ( 'NONE', ( #175 ), #275, .T. ) ;
#183 = MECHANICAL_DESIGN_GEOMETRIC_PRESENTATION_REPRESENTATION (  '', ( #285 ), #293 ) ;
#184 = APPLICATION_PROTOCOL_DEFINITION ( 'draft international standard', 'automotive_design', 1998, #137 ) ;
#185 = DIRECTION ( 'NONE',  ( 0.000000000000000000, 0.000000000000000000, 1.000000000000000000 ) ) ;
#186 = PRESENTATION_STYLE_ASSIGNMENT (( #307 ) ) ;
#187 = STYLED_ITEM ( 'NONE', ( #278 ), #35 ) ;
#188 = ORIENTED_EDGE ( 'NONE', *, *, #259, .T. ) ;
#189 = SHAPE_DEFINITION_REPRESENTATION ( #94, #61 ) ;
#190 =( CONVERSION_BASED_UNIT ( 'INCH', #262 ) LENGTH_UNIT ( ) NAMED_UNIT ( #248 ) );
#191 = CARTESIAN_POINT ( 'NONE',  ( -1.224646799147353207E-16, 5.000000000000000000, 0.000000000000000000 ) ) ;
#192 = VERTEX_POINT ( 'NONE', #18 ) ;
#193 = LENGTH_MEASURE_WITH_UNIT ( LENGTH_MEASURE( 0.02539999999999999897 ), #173 );
#194 = CLOSED_SHELL ( 'NONE', ( #182, #160, #79, #35 ) ) ;
#195 = LENGTH_MEASURE_WITH_UNIT ( LENGTH_MEASURE( 0.02539999999999999897 ), #155 );
#196 = ORIENTED_EDGE ( 'NONE', *, *, #180, .T. ) ;
#197 = CYLINDRICAL_SURFACE ( 'NONE', #24, 0.3750000000000001110 ) ;
#198 = ORIENTED_EDGE ( 'NONE', *, *, #164, .F. ) ;
#199 = DIRECTION ( 'NONE',  ( 0.000000000000000000, 0.000000000000000000, -1.000000000000000000 ) ) ;
#200 = AXIS2_PLACEMENT_3D ( 'NONE', #291, #290, #95 ) ;
#201 = FILL_AREA_STYLE ('',( #87 ) ) ;
#202 = CARTESIAN_POINT ( 'NONE',  ( 4.592425496802575451E-17, 2.750000000000000000, 0.3750000000000000555 ) ) ;
#203 = DIRECTION ( 'NONE',  ( 1.000000000000000000, 5.442874662877125091E-17, 0.000000000000000000 ) ) ;
#204 = AXIS2_PLACEMENT_3D ( 'NONE', #220, #249, #215 ) ;
#205 = AXIS2_PLACEMENT_3D ( 'NONE', #106, #305, #179 ) ;
#206 = APPLICATION_PROTOCOL_DEFINITION ( 'draft international standard', 'automotive_design', 1998, #214 ) ;
#207 = ORIENTED_EDGE ( 'NONE', *, *, #74, .F. ) ;
#208 = COLOUR_RGB ( '',1.000000000000000000, 0.000000000000000000, 0.000000000000000000 ) ;
#209 =( GEOMETRIC_REPRESENTATION_CONTEXT ( 3 ) GLOBAL_UNCERTAINTY_ASSIGNED_CONTEXT ( ( #21 ) ) GLOBAL_UNIT_ASSIGNED_CONTEXT ( ( #294, #7, #34 ) ) REPRESENTATION_CONTEXT ( 'NONE', 'WORKASPACE' ) );
#210 = CARTESIAN_POINT ( 'NONE',  ( 4.592425496802575451E-17, 0.000000000000000000, 0.3750000000000000555 ) ) ;
#211 = EDGE_CURVE ( 'NONE', #69, #161, #302, .T. ) ;
#212 =( LENGTH_UNIT ( ) NAMED_UNIT ( * ) SI_UNIT ( $, .METRE. ) );
#213 = ORIENTED_EDGE ( 'NONE', *, *, #132, .T. ) ;
#214 = APPLICATION_CONTEXT ( 'automotive_design' ) ;
#215 = DIRECTION ( 'NONE',  ( 0.000000000000000000, 0.000000000000000000, -1.000000000000000000 ) ) ;
#216 = AXIS2_PLACEMENT_3D ( 'NONE', #245, #5, #48 ) ;
#217 = UNCERTAINTY_MEASURE_WITH_UNIT (LENGTH_MEASURE( 1.000000000000000082E-05 ), #44, 'distance_accuracy_value', 'NONE');
#218 = SURFACE_STYLE_USAGE ( .BOTH. , #122 ) ;
#219 = ORIENTED_EDGE ( 'NONE', *, *, #164, .T. ) ;
#220 = CARTESIAN_POINT ( 'NONE',  ( 0.000000000000000000, 2.750000000000000000, 0.000000000000000000 ) ) ;
#221 = DIMENSIONAL_EXPONENTS ( 1.000000000000000000, 0.000000000000000000, 0.000000000000000000, 0.000000000000000000, 0.000000000000000000, 0.000000000000000000, 0.000000000000000000 ) ;
#222 = AXIS2_PLACEMENT_3D ( 'NONE', #90, #123, #247 ) ;
#223 = PRESENTATION_LAYER_ASSIGNMENT (  '', '', ( #17 ) ) ;
#224 =( NAMED_UNIT ( * ) PLANE_ANGLE_UNIT ( ) SI_UNIT ( $, .RADIAN. ) );
#225 = CARTESIAN_POINT ( 'NONE',  ( -0.3750000000000002776, 5.000000000000000000, 0.000000000000000000 ) ) ;
#226 = FACE_OUTER_BOUND ( 'NONE', #145, .T. ) ;
#227 = DIRECTION ( 'NONE',  ( -0.000000000000000000, -1.000000000000000000, -0.000000000000000000 ) ) ;
#228 = SURFACE_SIDE_STYLE ('',( #232 ) ) ;
#229 =( LENGTH_UNIT ( ) NAMED_UNIT ( * ) SI_UNIT ( $, .METRE. ) );
#230 = AXIS2_PLACEMENT_3D ( 'NONE', #306, #10, #176 ) ;
#231 = ADVANCED_FACE ( 'NONE', ( #66 ), #304, .F. ) ;
#232 = SURFACE_STYLE_FILL_AREA ( #107 ) ;
#233 = MECHANICAL_DESIGN_GEOMETRIC_PRESENTATION_REPRESENTATION (  '', ( #153 ), #41 ) ;
#234 = AXIS2_PLACEMENT_3D ( 'NONE', #109, #84, #16 ) ;
#235 = DIRECTION ( 'NONE',  ( -0.000000000000000000, -1.000000000000000000, -0.000000000000000000 ) ) ;
#236 = DIRECTION ( 'NONE',  ( 1.000000000000000000, 0.000000000000000000, 0.000000000000000000 ) ) ;
#237 = DIRECTION ( 'NONE',  ( -5.442874662877125091E-17, 1.000000000000000000, -0.000000000000000000 ) ) ;
#238 =( GEOMETRIC_REPRESENTATION_CONTEXT ( 3 ) GLOBAL_UNCERTAINTY_ASSIGNED_CONTEXT ( ( #88 ) ) GLOBAL_UNIT_ASSIGNED_CONTEXT ( ( #190, #265, #139 ) ) REPRESENTATION_CONTEXT ( 'NONE', 'WORKASPACE' ) );
#239 = EDGE_CURVE ( 'NONE', #69, #192, #97, .T. ) ;
#240 = DIRECTION ( 'NONE',  ( 0.000000000000000000, 0.000000000000000000, -1.000000000000000000 ) ) ;
#241 = ORIENTED_EDGE ( 'NONE', *, *, #51, .T. ) ;
#242 = FILL_AREA_STYLE ('',( #286 ) ) ;
#243 = ORIENTED_EDGE ( 'NONE', *, *, #132, .F. ) ;
#244 = PRESENTATION_LAYER_ASSIGNMENT (  '', '', ( #142 ) ) ;
#245 = CARTESIAN_POINT ( 'NONE',  ( 0.000000000000000000, 2.750000000000000000, 0.000000000000000000 ) ) ;
#246 = ORIENTED_EDGE ( 'NONE', *, *, #51, .F. ) ;
#247 = DIRECTION ( 'NONE',  ( 0.000000000000000000, 0.000000000000000000, -1.000000000000000000 ) ) ;
#248 = DIMENSIONAL_EXPONENTS ( 1.000000000000000000, 0.000000000000000000, 0.000000000000000000, 0.000000000000000000, 0.000000000000000000, 0.000000000000000000, 0.000000000000000000 ) ;
#249 = DIRECTION ( 'NONE',  ( -0.000000000000000000, -1.000000000000000000, -0.000000000000000000 ) ) ;
#250 = COLOUR_RGB ( '',1.000000000000000000, 0.000000000000000000, 0.000000000000000000 ) ;
#251 = VERTEX_POINT ( 'NONE', #202 ) ;
#252 = DIRECTION ( 'NONE',  ( -5.442874662877125091E-17, 1.000000000000000000, -0.000000000000000000 ) ) ;
#253 = DIRECTION ( 'NONE',  ( 0.000000000000000000, -1.000000000000000000, -0.000000000000000000 ) ) ;
#254 = CYLINDRICAL_SURFACE ( 'NONE', #82, 0.3750000000000001110 ) ;
#255 = EDGE_CURVE ( 'NONE', #136, #52, #37, .T. ) ;
#256 = COLOUR_RGB ( '',1.000000000000000000, 0.000000000000000000, 0.000000000000000000 ) ;
#257 = LENGTH_MEASURE_WITH_UNIT ( LENGTH_MEASURE( 0.02539999999999999897 ), #229 );
#258 = SURFACE_SIDE_STYLE ('',( #55 ) ) ;
#259 = EDGE_CURVE ( 'NONE', #192, #69, #8, .T. ) ;
#260 = AXIS2_PLACEMENT_3D ( 'NONE', #191, #54, #149 ) ;
#261 = SURFACE_STYLE_USAGE ( .BOTH. , #165 ) ;
#262 = LENGTH_MEASURE_WITH_UNIT ( LENGTH_MEASURE( 0.02539999999999999897 ), #67 );
#263 = ORIENTED_EDGE ( 'NONE', *, *, #110, .T. ) ;
#264 = AXIS2_PLACEMENT_3D ( 'NONE', #276, #58, #152 ) ;
#265 =( NAMED_UNIT ( * ) PLANE_ANGLE_UNIT ( ) SI_UNIT ( $, .RADIAN. ) );
#266 = UNCERTAINTY_MEASURE_WITH_UNIT (LENGTH_MEASURE( 1.000000000000000082E-05 ), #163, 'distance_accuracy_value', 'NONE');
#267 =( LENGTH_UNIT ( ) NAMED_UNIT ( * ) SI_UNIT ( $, .METRE. ) );
#268 = MECHANICAL_DESIGN_GEOMETRIC_PRESENTATION_REPRESENTATION (  '', ( #142 ), #131 ) ;
#269 = FILL_AREA_STYLE ('',( #30 ) ) ;
#270 = AXIS2_PLACEMENT_3D ( 'NONE', #128, #39, #60 ) ;
#271 =( CONVERSION_BASED_UNIT ( 'INCH', #195 ) LENGTH_UNIT ( ) NAMED_UNIT ( #299 ) );
#272 = PRESENTATION_STYLE_ASSIGNMENT (( #73 ) ) ;
#273 = ORIENTED_EDGE ( 'NONE', *, *, #239, .T. ) ;
#274 = DIMENSIONAL_EXPONENTS ( 1.000000000000000000, 0.000000000000000000, 0.000000000000000000, 0.000000000000000000, 0.000000000000000000, 0.000000000000000000, 0.000000000000000000 ) ;
#275 = CYLINDRICAL_SURFACE ( 'NONE', #91, 0.3750000000000000555 ) ;
#276 = CARTESIAN_POINT ( 'NONE',  ( 0.000000000000000000, 0.000000000000000000, 0.000000000000000000 ) ) ;
#277 = VECTOR ( 'NONE', #252, 39.37007874015748143 ) ;
#278 = PRESENTATION_STYLE_ASSIGNMENT (( #178 ) ) ;
#279 = DIRECTION ( 'NONE',  ( -0.000000000000000000, -1.000000000000000000, -0.000000000000000000 ) ) ;
#280 =( NAMED_UNIT ( * ) SI_UNIT ( $, .STERADIAN. ) SOLID_ANGLE_UNIT ( ) );
#281 = FACE_OUTER_BOUND ( 'NONE', #172, .T. ) ;
#282 = CARTESIAN_POINT ( 'NONE',  ( -1.224646799147353207E-16, 5.000000000000000000, 0.000000000000000000 ) ) ;
#283 = CARTESIAN_POINT ( 'NONE',  ( 0.000000000000000000, 0.000000000000000000, 0.000000000000000000 ) ) ;
#284 = UNCERTAINTY_MEASURE_WITH_UNIT (LENGTH_MEASURE( 1.000000000000000082E-05 ), #271, 'distance_accuracy_value', 'NONE');
#285 = STYLED_ITEM ( 'NONE', ( #186 ), #98 ) ;
#286 = FILL_AREA_STYLE_COLOUR ( '', #3 ) ;
#287 = ADVANCED_FACE ( 'NONE', ( #11 ), #134, .F. ) ;
#288 = UNCERTAINTY_MEASURE_WITH_UNIT (LENGTH_MEASURE( 1.000000000000000082E-05 ), #71, 'distance_accuracy_value', 'NONE');
#289 = AXIS2_PLACEMENT_3D ( 'NONE', #40, #253, #103 ) ;
#290 = DIRECTION ( 'NONE',  ( -0.000000000000000000, -1.000000000000000000, -0.000000000000000000 ) ) ;
#291 = CARTESIAN_POINT ( 'NONE',  ( 0.000000000000000000, 0.000000000000000000, 0.000000000000000000 ) ) ;
#292 = VERTEX_POINT ( 'NONE', #135 ) ;
#293 =( GEOMETRIC_REPRESENTATION_CONTEXT ( 3 ) GLOBAL_UNCERTAINTY_ASSIGNED_CONTEXT ( ( #217 ) ) GLOBAL_UNIT_ASSIGNED_CONTEXT ( ( #44, #166, #116 ) ) REPRESENTATION_CONTEXT ( 'NONE', 'WORKASPACE' ) );
#294 =( CONVERSION_BASED_UNIT ( 'INCH', #193 ) LENGTH_UNIT ( ) NAMED_UNIT ( #13 ) );
#295 = MECHANICAL_DESIGN_GEOMETRIC_PRESENTATION_REPRESENTATION (  '', ( #17 ), #209 ) ;
#296 = ADVANCED_FACE ( 'NONE', ( #112 ), #197, .T. ) ;
#297 = ORIENTED_EDGE ( 'NONE', *, *, #74, .T. ) ;
#298 = SURFACE_STYLE_FILL_AREA ( #269 ) ;
#299 = DIMENSIONAL_EXPONENTS ( 1.000000000000000000, 0.000000000000000000, 0.000000000000000000, 0.000000000000000000, 0.000000000000000000, 0.000000000000000000, 0.000000000000000000 ) ;
#300 = FACE_OUTER_BOUND ( 'NONE', #75, .T. ) ;
#301 = EDGE_LOOP ( 'NONE', ( #31, #188, #25, #198 ) ) ;
#302 = LINE ( 'NONE', #177, #277 ) ;
#303 = STYLED_ITEM ( 'NONE', ( #141 ), #113 ) ;
#304 = PLANE ( 'NONE',  #270 ) ;
#305 = DIRECTION ( 'NONE',  ( -5.442874662877125708E-17, 1.000000000000000000, -0.000000000000000000 ) ) ;
#306 = CARTESIAN_POINT ( 'NONE',  ( -1.224646799147353207E-16, 5.000000000000000000, 0.000000000000000000 ) ) ;
#307 = SURFACE_STYLE_USAGE ( .BOTH. , #140 ) ;
#308 = ADVANCED_FACE ( 'NONE', ( #281 ), #254, .T. ) ;
#309 = LINE ( 'NONE', #210, #104 ) ;
ENDSEC;
END-ISO-10303-21;
