ISO-10303-21;
HEADER;
FILE_DESCRIPTION (( 'STEP AP214' ),
    '1' );
FILE_NAME ('81313.STEP',
    '2023-06-23T00:24:33',
    ( '' ),
    ( '' ),
    'SwSTEP 2.0',
    'SolidWorks 2023',
    '' );
FILE_SCHEMA (( 'AUTOMOTIVE_DESIGN' ));
ENDSEC;

DATA;
#1 = DIRECTION ( 'NONE',  ( 1.049697256412016700E-16, 1.000000000000000000, -0.000000000000000000 ) ) ;
#2 = SURFACE_STYLE_USAGE ( .BOTH. , #232 ) ;
#3 = EDGE_LOOP ( 'NONE', ( #155, #112 ) ) ;
#4 = CIRCLE ( 'NONE', #113, 0.1875000000000000278 ) ;
#5 = CIRCLE ( 'NONE', #264, 0.1875000000000000278 ) ;
#6 = AXIS2_PLACEMENT_3D ( 'NONE', #303, #149, #229 ) ;
#7 = EDGE_CURVE ( 'NONE', #184, #115, #5, .T. ) ;
#8 = ORIENTED_EDGE ( 'NONE', *, *, #87, .T. ) ;
#9 = FACE_OUTER_BOUND ( 'NONE', #191, .T. ) ;
#10 = CARTESIAN_POINT ( 'NONE',  ( 0.000000000000000000, 0.000000000000000000, 0.000000000000000000 ) ) ;
#11 =( NAMED_UNIT ( * ) PLANE_ANGLE_UNIT ( ) SI_UNIT ( $, .RADIAN. ) );
#12 = CLOSED_SHELL ( 'NONE', ( #33, #101, #297, #60 ) ) ;
#13 =( LENGTH_UNIT ( ) NAMED_UNIT ( * ) SI_UNIT ( $, .METRE. ) );
#14 =( NAMED_UNIT ( * ) SI_UNIT ( $, .STERADIAN. ) SOLID_ANGLE_UNIT ( ) );
#15 = FILL_AREA_STYLE_COLOUR ( '', #152 ) ;
#16 = LENGTH_MEASURE_WITH_UNIT ( LENGTH_MEASURE( 0.02539999999999999897 ), #207 );
#17 = EDGE_CURVE ( 'NONE', #137, #233, #4, .T. ) ;
#18 =( GEOMETRIC_REPRESENTATION_CONTEXT ( 3 ) GLOBAL_UNCERTAINTY_ASSIGNED_CONTEXT ( ( #240 ) ) GLOBAL_UNIT_ASSIGNED_CONTEXT ( ( #273, #222, #307 ) ) REPRESENTATION_CONTEXT ( 'NONE', 'WORKASPACE' ) );
#19 = CARTESIAN_POINT ( 'NONE',  ( 2.296212748401287726E-17, 0.7500000000000001110, 0.1875000000000000278 ) ) ;
#20 = CARTESIAN_POINT ( 'NONE',  ( 1.836970198721029688E-16, 2.500000000000000000, 0.000000000000000000 ) ) ;
#21 = FILL_AREA_STYLE_COLOUR ( '', #160 ) ;
#22 = DIRECTION ( 'NONE',  ( 0.000000000000000000, 0.000000000000000000, -1.000000000000000000 ) ) ;
#23 = MECHANICAL_DESIGN_GEOMETRIC_PRESENTATION_REPRESENTATION (  '', ( #177 ), #186 ) ;
#24 = AXIS2_PLACEMENT_3D ( 'NONE', #10, #291, #162 ) ;
#25 = CARTESIAN_POINT ( 'NONE',  ( 3.032960542342103792E-32, 0.7499999999999998890, 0.000000000000000000 ) ) ;
#26 = EDGE_LOOP ( 'NONE', ( #73, #54, #93, #309 ) ) ;
#27 = COLOUR_RGB ( '',0.7921568627450980005, 0.8196078431372548767, 0.9333333333333333481 ) ;
#28 = ORIENTED_EDGE ( 'NONE', *, *, #244, .T. ) ;
#29 = ADVANCED_FACE ( 'NONE', ( #9 ), #289, .T. ) ;
#30 = EDGE_LOOP ( 'NONE', ( #283, #212 ) ) ;
#31 = DIRECTION ( 'NONE',  ( -0.000000000000000000, -1.000000000000000000, -0.000000000000000000 ) ) ;
#32 = PLANE ( 'NONE',  #215 ) ;
#33 = ADVANCED_FACE ( 'NONE', ( #269 ), #37, .T. ) ;
#34 = SURFACE_SIDE_STYLE ('',( #268 ) ) ;
#35 = CIRCLE ( 'NONE', #6, 0.1875000000000000278 ) ;
#36 =( NAMED_UNIT ( * ) PLANE_ANGLE_UNIT ( ) SI_UNIT ( $, .RADIAN. ) );
#37 = CYLINDRICAL_SURFACE ( 'NONE', #292, 0.1875000000000000278 ) ;
#38 = UNCERTAINTY_MEASURE_WITH_UNIT (LENGTH_MEASURE( 1.000000000000000082E-05 ), #182, 'distance_accuracy_value', 'NONE');
#39 =( CONVERSION_BASED_UNIT ( 'INCH', #86 ) LENGTH_UNIT ( ) NAMED_UNIT ( #52 ) );
#40 = DIRECTION ( 'NONE',  ( -1.000000000000000000, 0.000000000000000000, 0.000000000000000000 ) ) ;
#41 = COLOUR_RGB ( '',1.000000000000000000, 0.000000000000000000, 0.000000000000000000 ) ;
#42 = CARTESIAN_POINT ( 'NONE',  ( 0.1875000000000000278, 0.7499999999999998890, 2.296212748401286493E-17 ) ) ;
#43 = PLANE ( 'NONE',  #169 ) ;
#44 = PRESENTATION_STYLE_ASSIGNMENT (( #176 ) ) ;
#45 = AXIS2_PLACEMENT_3D ( 'NONE', #66, #105, #204 ) ;
#46 = MECHANICAL_DESIGN_GEOMETRIC_PRESENTATION_REPRESENTATION (  '', ( #173 ), #257 ) ;
#47 = UNCERTAINTY_MEASURE_WITH_UNIT (LENGTH_MEASURE( 1.000000000000000082E-05 ), #245, 'distance_accuracy_value', 'NONE');
#48 = PLANE ( 'NONE',  #231 ) ;
#49 = ORIENTED_EDGE ( 'NONE', *, *, #7, .F. ) ;
#50 = DIMENSIONAL_EXPONENTS ( 1.000000000000000000, 0.000000000000000000, 0.000000000000000000, 0.000000000000000000, 0.000000000000000000, 0.000000000000000000, 0.000000000000000000 ) ;
#51 = ORIENTED_EDGE ( 'NONE', *, *, #95, .F. ) ;
#52 = DIMENSIONAL_EXPONENTS ( 1.000000000000000000, 0.000000000000000000, 0.000000000000000000, 0.000000000000000000, 0.000000000000000000, 0.000000000000000000, 0.000000000000000000 ) ;
#53 = APPLICATION_CONTEXT ( 'automotive_design' ) ;
#54 = ORIENTED_EDGE ( 'NONE', *, *, #95, .T. ) ;
#55 = ORIENTED_EDGE ( 'NONE', *, *, #276, .F. ) ;
#56 = MECHANICAL_DESIGN_GEOMETRIC_PRESENTATION_REPRESENTATION (  '', ( #98 ), #135 ) ;
#57 = DIRECTION ( 'NONE',  ( 0.000000000000000000, 0.000000000000000000, -1.000000000000000000 ) ) ;
#58 =( NAMED_UNIT ( * ) PLANE_ANGLE_UNIT ( ) SI_UNIT ( $, .RADIAN. ) );
#59 = FACE_OUTER_BOUND ( 'NONE', #3, .T. ) ;
#60 = ADVANCED_FACE ( 'NONE', ( #59 ), #32, .T. ) ;
#61 = LENGTH_MEASURE_WITH_UNIT ( LENGTH_MEASURE( 0.02539999999999999897 ), #13 );
#62 = SURFACE_SIDE_STYLE ('',( #116 ) ) ;
#63 = MECHANICAL_DESIGN_GEOMETRIC_PRESENTATION_REPRESENTATION (  '', ( #172 ), #274 ) ;
#64 = MECHANICAL_DESIGN_GEOMETRIC_PRESENTATION_REPRESENTATION (  '', ( #106 ), #114 ) ;
#65 = PRESENTATION_STYLE_ASSIGNMENT (( #299 ) ) ;
#66 = CARTESIAN_POINT ( 'NONE',  ( 0.000000000000000000, 0.000000000000000000, 0.000000000000000000 ) ) ;
#67 = CARTESIAN_POINT ( 'NONE',  ( 0.000000000000000000, 0.000000000000000000, -0.1875000000000000278 ) ) ;
#68 = PRESENTATION_LAYER_ASSIGNMENT (  '', '', ( #177 ) ) ;
#69 = DIRECTION ( 'NONE',  ( 1.049697256412016823E-16, 1.000000000000000000, -0.000000000000000000 ) ) ;
#70 = PRODUCT_CONTEXT ( 'NONE', #53, 'mechanical' ) ;
#71 = EDGE_CURVE ( 'NONE', #233, #115, #266, .T. ) ;
#72 = DIRECTION ( 'NONE',  ( -1.000000000000000000, 0.000000000000000000, 0.000000000000000000 ) ) ;
#73 = ORIENTED_EDGE ( 'NONE', *, *, #249, .T. ) ;
#74 = CLOSED_SHELL ( 'NONE', ( #200, #262, #29, #234 ) ) ;
#75 = EDGE_LOOP ( 'NONE', ( #109, #189, #237, #49 ) ) ;
#76 = CIRCLE ( 'NONE', #248, 0.1875000000000000278 ) ;
#77 = CARTESIAN_POINT ( 'NONE',  ( -0.1874999999999997502, 2.500000000000000000, 0.000000000000000000 ) ) ;
#78 = DIRECTION ( 'NONE',  ( 0.000000000000000000, -1.000000000000000000, -0.000000000000000000 ) ) ;
#79 = AXIS2_PLACEMENT_3D ( 'NONE', #180, #139, #281 ) ;
#80 = CARTESIAN_POINT ( 'NONE',  ( 0.000000000000000000, 0.000000000000000000, 0.000000000000000000 ) ) ;
#81 = LENGTH_MEASURE_WITH_UNIT ( LENGTH_MEASURE( 0.02539999999999999897 ), #127 );
#82 = DIRECTION ( 'NONE',  ( 0.000000000000000000, -0.000000000000000000, 1.000000000000000000 ) ) ;
#83 = PRESENTATION_STYLE_ASSIGNMENT (( #166 ) ) ;
#84 = PRESENTATION_LAYER_ASSIGNMENT (  '', '', ( #106 ) ) ;
#85 = CARTESIAN_POINT ( 'NONE',  ( 1.836970198721029688E-16, 2.500000000000000000, 0.000000000000000000 ) ) ;
#86 = LENGTH_MEASURE_WITH_UNIT ( LENGTH_MEASURE( 0.02539999999999999897 ), #103 );
#87 = EDGE_CURVE ( 'NONE', #235, #91, #188, .T. ) ;
#88 = DIRECTION ( 'NONE',  ( -1.000000000000000000, 1.049697256412016700E-16, 0.000000000000000000 ) ) ;
#89 = AXIS2_PLACEMENT_3D ( 'NONE', #270, #214, #218 ) ;
#90 = APPLICATION_PROTOCOL_DEFINITION ( 'draft international standard', 'automotive_design', 1998, #125 ) ;
#91 = VERTEX_POINT ( 'NONE', #111 ) ;
#92 = ORIENTED_EDGE ( 'NONE', *, *, #287, .T. ) ;
#93 = ORIENTED_EDGE ( 'NONE', *, *, #287, .F. ) ;
#94 = ORIENTED_EDGE ( 'NONE', *, *, #295, .T. ) ;
#95 = EDGE_CURVE ( 'NONE', #96, #206, #128, .T. ) ;
#96 = VERTEX_POINT ( 'NONE', #42 ) ;
#97 = SURFACE_SIDE_STYLE ('',( #195 ) ) ;
#98 = STYLED_ITEM ( 'NONE', ( #65 ), #156 ) ;
#99 = FILL_AREA_STYLE_COLOUR ( '', #27 ) ;
#100 = DIRECTION ( 'NONE',  ( 1.049697256412016823E-16, 1.000000000000000000, -0.000000000000000000 ) ) ;
#101 = ADVANCED_FACE ( 'NONE', ( #302 ), #48, .T. ) ;
#102 =( CONVERSION_BASED_UNIT ( 'INCH', #216 ) LENGTH_UNIT ( ) NAMED_UNIT ( #306 ) );
#103 =( LENGTH_UNIT ( ) NAMED_UNIT ( * ) SI_UNIT ( $, .METRE. ) );
#104 = PRESENTATION_LAYER_ASSIGNMENT (  '', '', ( #173 ) ) ;
#105 = DIRECTION ( 'NONE',  ( 0.000000000000000000, 0.000000000000000000, 1.000000000000000000 ) ) ;
#106 = STYLED_ITEM ( 'NONE', ( #197 ), #101 ) ;
#107 = AXIS2_PLACEMENT_3D ( 'NONE', #85, #267, #165 ) ;
#108 = CARTESIAN_POINT ( 'NONE',  ( 2.296212748401287726E-17, 0.000000000000000000, 0.1875000000000000278 ) ) ;
#109 = ORIENTED_EDGE ( 'NONE', *, *, #244, .F. ) ;
#110 = ORIENTED_EDGE ( 'NONE', *, *, #276, .T. ) ;
#111 = CARTESIAN_POINT ( 'NONE',  ( -0.1874999999999996669, 2.500000000000000000, 0.000000000000000000 ) ) ;
#112 = ORIENTED_EDGE ( 'NONE', *, *, #7, .T. ) ;
#113 = AXIS2_PLACEMENT_3D ( 'NONE', #239, #31, #118 ) ;
#114 =( GEOMETRIC_REPRESENTATION_CONTEXT ( 3 ) GLOBAL_UNCERTAINTY_ASSIGNED_CONTEXT ( ( #151 ) ) GLOBAL_UNIT_ASSIGNED_CONTEXT ( ( #39, #36, #171 ) ) REPRESENTATION_CONTEXT ( 'NONE', 'WORKASPACE' ) );
#115 = VERTEX_POINT ( 'NONE', #129 ) ;
#116 = SURFACE_STYLE_FILL_AREA ( #293 ) ;
#117 =( NAMED_UNIT ( * ) SI_UNIT ( $, .STERADIAN. ) SOLID_ANGLE_UNIT ( ) );
#118 = DIRECTION ( 'NONE',  ( 0.000000000000000000, 0.000000000000000000, -1.000000000000000000 ) ) ;
#119 = CARTESIAN_POINT ( 'NONE',  ( 0.000000000000000000, 0.7500000000000001110, 0.000000000000000000 ) ) ;
#120 =( NAMED_UNIT ( * ) PLANE_ANGLE_UNIT ( ) SI_UNIT ( $, .RADIAN. ) );
#121 = CIRCLE ( 'NONE', #296, 0.1875000000000000278 ) ;
#122 = CARTESIAN_POINT ( 'NONE',  ( 0.1875000000000000278, 2.500000000000000000, 2.296212748401286493E-17 ) ) ;
#123 = SURFACE_STYLE_USAGE ( .BOTH. , #62 ) ;
#124 = SURFACE_STYLE_USAGE ( .BOTH. , #34 ) ;
#125 = APPLICATION_CONTEXT ( 'automotive_design' ) ;
#126 =( NAMED_UNIT ( * ) PLANE_ANGLE_UNIT ( ) SI_UNIT ( $, .RADIAN. ) );
#127 =( LENGTH_UNIT ( ) NAMED_UNIT ( * ) SI_UNIT ( $, .METRE. ) );
#128 = LINE ( 'NONE', #132, #133 ) ;
#129 = CARTESIAN_POINT ( 'NONE',  ( 0.000000000000000000, 0.000000000000000000, -0.1875000000000000278 ) ) ;
#130 = FILL_AREA_STYLE ('',( #250 ) ) ;
#131 = DIRECTION ( 'NONE',  ( -0.000000000000000000, -1.000000000000000000, -0.000000000000000000 ) ) ;
#132 = CARTESIAN_POINT ( 'NONE',  ( 0.1875000000000000833, 2.500000000000000000, 2.296212748401286185E-17 ) ) ;
#133 = VECTOR ( 'NONE', #178, 39.37007874015748143 ) ;
#134 = FACE_OUTER_BOUND ( 'NONE', #75, .T. ) ;
#135 =( GEOMETRIC_REPRESENTATION_CONTEXT ( 3 ) GLOBAL_UNCERTAINTY_ASSIGNED_CONTEXT ( ( #47 ) ) GLOBAL_UNIT_ASSIGNED_CONTEXT ( ( #245, #58, #14 ) ) REPRESENTATION_CONTEXT ( 'NONE', 'WORKASPACE' ) );
#136 = ORIENTED_EDGE ( 'NONE', *, *, #196, .F. ) ;
#137 = VERTEX_POINT ( 'NONE', #19 ) ;
#138 = EDGE_LOOP ( 'NONE', ( #92, #110 ) ) ;
#139 = DIRECTION ( 'NONE',  ( -1.049697256412016700E-16, -1.000000000000000000, 0.000000000000000000 ) ) ;
#140 = VECTOR ( 'NONE', #282, 39.37007874015748143 ) ;
#141 = DIRECTION ( 'NONE',  ( 0.000000000000000000, 0.000000000000000000, -1.000000000000000000 ) ) ;
#142 = CARTESIAN_POINT ( 'NONE',  ( 1.836970198721029688E-16, 2.500000000000000000, 0.000000000000000000 ) ) ;
#143 = DIRECTION ( 'NONE',  ( 1.049697256412016823E-16, 1.000000000000000000, -0.000000000000000000 ) ) ;
#144 = PRESENTATION_STYLE_ASSIGNMENT (( #124 ) ) ;
#145 =( GEOMETRIC_REPRESENTATION_CONTEXT ( 3 ) GLOBAL_UNCERTAINTY_ASSIGNED_CONTEXT ( ( #38 ) ) GLOBAL_UNIT_ASSIGNED_CONTEXT ( ( #182, #288, #117 ) ) REPRESENTATION_CONTEXT ( 'NONE', 'WORKASPACE' ) );
#146 =( NAMED_UNIT ( * ) SI_UNIT ( $, .STERADIAN. ) SOLID_ANGLE_UNIT ( ) );
#147 = DIRECTION ( 'NONE',  ( 1.049697256412016700E-16, 1.000000000000000000, -0.000000000000000000 ) ) ;
#148 = PRESENTATION_LAYER_ASSIGNMENT (  '', '', ( #98 ) ) ;
#149 = DIRECTION ( 'NONE',  ( -0.000000000000000000, -1.000000000000000000, -0.000000000000000000 ) ) ;
#150 = FILL_AREA_STYLE_COLOUR ( '', #41 ) ;
#151 = UNCERTAINTY_MEASURE_WITH_UNIT (LENGTH_MEASURE( 1.000000000000000082E-05 ), #39, 'distance_accuracy_value', 'NONE');
#152 = COLOUR_RGB ( '',1.000000000000000000, 0.000000000000000000, 0.000000000000000000 ) ;
#153 = ORIENTED_EDGE ( 'NONE', *, *, #71, .F. ) ;
#154 = PLANE ( 'NONE',  #79 ) ;
#155 = ORIENTED_EDGE ( 'NONE', *, *, #196, .T. ) ;
#156 = MANIFOLD_SOLID_BREP ( 'Revolve - Cutting Edge', #12 ) ;
#157 =( NAMED_UNIT ( * ) SI_UNIT ( $, .STERADIAN. ) SOLID_ANGLE_UNIT ( ) );
#158 = DIRECTION ( 'NONE',  ( -0.000000000000000000, -1.000000000000000000, -0.000000000000000000 ) ) ;
#159 = DIMENSIONAL_EXPONENTS ( 1.000000000000000000, 0.000000000000000000, 0.000000000000000000, 0.000000000000000000, 0.000000000000000000, 0.000000000000000000, 0.000000000000000000 ) ;
#160 = COLOUR_RGB ( '',0.7921568627450980005, 0.8196078431372548767, 0.9333333333333333481 ) ;
#161 = DIRECTION ( 'NONE',  ( 0.000000000000000000, 0.000000000000000000, -1.000000000000000000 ) ) ;
#162 = DIRECTION ( 'NONE',  ( 0.000000000000000000, 0.000000000000000000, -1.000000000000000000 ) ) ;
#163 = DIRECTION ( 'NONE',  ( -1.000000000000000000, 0.000000000000000000, 0.000000000000000000 ) ) ;
#164 = FILL_AREA_STYLE ('',( #217 ) ) ;
#165 = DIRECTION ( 'NONE',  ( -1.000000000000000000, 0.000000000000000000, 0.000000000000000000 ) ) ;
#166 = SURFACE_STYLE_USAGE ( .BOTH. , #97 ) ;
#167 = COLOUR_RGB ( '',1.000000000000000000, 0.000000000000000000, 0.000000000000000000 ) ;
#168 =( CONVERSION_BASED_UNIT ( 'INCH', #81 ) LENGTH_UNIT ( ) NAMED_UNIT ( #159 ) );
#169 = AXIS2_PLACEMENT_3D ( 'NONE', #192, #1, #88 ) ;
#170 = DIRECTION ( 'NONE',  ( 0.000000000000000000, 1.000000000000000000, 0.000000000000000000 ) ) ;
#171 =( NAMED_UNIT ( * ) SI_UNIT ( $, .STERADIAN. ) SOLID_ANGLE_UNIT ( ) );
#172 = STYLED_ITEM ( 'NONE', ( #83 ), #33 ) ;
#173 = STYLED_ITEM ( 'NONE', ( #203 ), #265 ) ;
#174 = UNCERTAINTY_MEASURE_WITH_UNIT (LENGTH_MEASURE( 1.000000000000000082E-05 ), #241, 'distance_accuracy_value', 'NONE');
#175 = UNCERTAINTY_MEASURE_WITH_UNIT (LENGTH_MEASURE( 1.000000000000000082E-05 ), #168, 'distance_accuracy_value', 'NONE');
#176 = SURFACE_STYLE_USAGE ( .BOTH. , #224 ) ;
#177 = STYLED_ITEM ( 'NONE', ( #144 ), #60 ) ;
#178 = DIRECTION ( 'NONE',  ( 1.049697256412016700E-16, 1.000000000000000000, -0.000000000000000000 ) ) ;
#179 = PRODUCT_RELATED_PRODUCT_CATEGORY ( 'part', '', ( #261 ) ) ;
#180 = CARTESIAN_POINT ( 'NONE',  ( 0.1875000000000000278, 2.500000000000000000, 0.000000000000000000 ) ) ;
#181 = ORIENTED_EDGE ( 'NONE', *, *, #185, .F. ) ;
#182 =( CONVERSION_BASED_UNIT ( 'INCH', #305 ) LENGTH_UNIT ( ) NAMED_UNIT ( #255 ) );
#183 = CYLINDRICAL_SURFACE ( 'NONE', #24, 0.1875000000000000278 ) ;
#184 = VERTEX_POINT ( 'NONE', #230 ) ;
#185 = EDGE_CURVE ( 'NONE', #233, #137, #121, .T. ) ;
#186 =( GEOMETRIC_REPRESENTATION_CONTEXT ( 3 ) GLOBAL_UNCERTAINTY_ASSIGNED_CONTEXT ( ( #202 ) ) GLOBAL_UNIT_ASSIGNED_CONTEXT ( ( #102, #11, #146 ) ) REPRESENTATION_CONTEXT ( 'NONE', 'WORKASPACE' ) );
#187 = ORIENTED_EDGE ( 'NONE', *, *, #17, .F. ) ;
#188 = LINE ( 'NONE', #77, #227 ) ;
#189 = ORIENTED_EDGE ( 'NONE', *, *, #17, .T. ) ;
#190 = LINE ( 'NONE', #108, #140 ) ;
#191 = EDGE_LOOP ( 'NONE', ( #51, #94, #8, #55 ) ) ;
#192 = CARTESIAN_POINT ( 'NONE',  ( 1.032997809486483155E-33, 0.7500000000000001110, 0.000000000000000000 ) ) ;
#193 = AXIS2_PLACEMENT_3D ( 'NONE', #142, #100, #40 ) ;
#194 = PRESENTATION_LAYER_ASSIGNMENT (  '', '', ( #271 ) ) ;
#195 = SURFACE_STYLE_FILL_AREA ( #220 ) ;
#196 = EDGE_CURVE ( 'NONE', #115, #184, #35, .T. ) ;
#197 = PRESENTATION_STYLE_ASSIGNMENT (( #123 ) ) ;
#198 = AXIS2_PLACEMENT_3D ( 'NONE', #25, #69, #72 ) ;
#199 = FILL_AREA_STYLE ('',( #99 ) ) ;
#200 = ADVANCED_FACE ( 'NONE', ( #263 ), #258, .T. ) ;
#201 = AXIS2_PLACEMENT_3D ( 'NONE', #20, #277, #298 ) ;
#202 = UNCERTAINTY_MEASURE_WITH_UNIT (LENGTH_MEASURE( 1.000000000000000082E-05 ), #102, 'distance_accuracy_value', 'NONE');
#203 = PRESENTATION_STYLE_ASSIGNMENT (( #2 ) ) ;
#204 = DIRECTION ( 'NONE',  ( 1.000000000000000000, 0.000000000000000000, 0.000000000000000000 ) ) ;
#205 = EDGE_LOOP ( 'NONE', ( #181, #187 ) ) ;
#206 = VERTEX_POINT ( 'NONE', #122 ) ;
#207 =( LENGTH_UNIT ( ) NAMED_UNIT ( * ) SI_UNIT ( $, .METRE. ) );
#208 = PRODUCT_DEFINITION_SHAPE ( 'NONE', 'NONE',  #284 ) ;
#209 = ORIENTED_EDGE ( 'NONE', *, *, #185, .T. ) ;
#210 = CIRCLE ( 'NONE', #201, 0.1874999999999998335 ) ;
#211 = EDGE_LOOP ( 'NONE', ( #209, #28, #136, #153 ) ) ;
#212 = ORIENTED_EDGE ( 'NONE', *, *, #295, .F. ) ;
#213 = CARTESIAN_POINT ( 'NONE',  ( 0.000000000000000000, 0.7500000000000001110, -0.1875000000000000278 ) ) ;
#214 = DIRECTION ( 'NONE',  ( 1.049697256412016823E-16, 1.000000000000000000, -0.000000000000000000 ) ) ;
#215 = AXIS2_PLACEMENT_3D ( 'NONE', #247, #78, #161 ) ;
#216 = LENGTH_MEASURE_WITH_UNIT ( LENGTH_MEASURE( 0.02539999999999999897 ), #246 );
#217 = FILL_AREA_STYLE_COLOUR ( '', #167 ) ;
#218 = DIRECTION ( 'NONE',  ( -1.000000000000000000, 0.000000000000000000, 0.000000000000000000 ) ) ;
#219 = DIRECTION ( 'NONE',  ( -0.000000000000000000, -1.000000000000000000, -0.000000000000000000 ) ) ;
#220 = FILL_AREA_STYLE ('',( #15 ) ) ;
#221 = ADVANCED_BREP_SHAPE_REPRESENTATION ( '81313', ( #156, #265, #45 ), #18 ) ;
#222 =( NAMED_UNIT ( * ) PLANE_ANGLE_UNIT ( ) SI_UNIT ( $, .RADIAN. ) );
#223 = CARTESIAN_POINT ( 'NONE',  ( 0.000000000000000000, 0.7500000000000001110, 0.000000000000000000 ) ) ;
#224 = SURFACE_SIDE_STYLE ('',( #253 ) ) ;
#225 = SHAPE_DEFINITION_REPRESENTATION ( #208, #221 ) ;
#226 = PRODUCT_DEFINITION_CONTEXT ( 'detailed design', #125, 'design' ) ;
#227 = VECTOR ( 'NONE', #147, 39.37007874015748143 ) ;
#228 = PRODUCT_DEFINITION_FORMATION_WITH_SPECIFIED_SOURCE ( 'ANY', '', #261, .NOT_KNOWN. ) ;
#229 = DIRECTION ( 'NONE',  ( 0.000000000000000000, 0.000000000000000000, -1.000000000000000000 ) ) ;
#230 = CARTESIAN_POINT ( 'NONE',  ( 2.296212748401287726E-17, 0.000000000000000000, 0.1875000000000000278 ) ) ;
#231 = AXIS2_PLACEMENT_3D ( 'NONE', #119, #170, #82 ) ;
#232 = SURFACE_SIDE_STYLE ('',( #280 ) ) ;
#233 = VERTEX_POINT ( 'NONE', #213 ) ;
#234 = ADVANCED_FACE ( 'NONE', ( #236 ), #154, .F. ) ;
#235 = VERTEX_POINT ( 'NONE', #238 ) ;
#236 = FACE_OUTER_BOUND ( 'NONE', #138, .T. ) ;
#237 = ORIENTED_EDGE ( 'NONE', *, *, #71, .T. ) ;
#238 = CARTESIAN_POINT ( 'NONE',  ( -0.1875000000000000278, 0.7499999999999998890, 0.000000000000000000 ) ) ;
#239 = CARTESIAN_POINT ( 'NONE',  ( 0.000000000000000000, 0.7500000000000001110, 0.000000000000000000 ) ) ;
#240 = UNCERTAINTY_MEASURE_WITH_UNIT (LENGTH_MEASURE( 1.000000000000000082E-05 ), #273, 'distance_accuracy_value', 'NONE');
#241 =( CONVERSION_BASED_UNIT ( 'INCH', #242 ) LENGTH_UNIT ( ) NAMED_UNIT ( #50 ) );
#242 = LENGTH_MEASURE_WITH_UNIT ( LENGTH_MEASURE( 0.02539999999999999897 ), #290 );
#243 = CIRCLE ( 'NONE', #198, 0.1875000000000000278 ) ;
#244 = EDGE_CURVE ( 'NONE', #137, #184, #190, .T. ) ;
#245 =( CONVERSION_BASED_UNIT ( 'INCH', #61 ) LENGTH_UNIT ( ) NAMED_UNIT ( #254 ) );
#246 =( LENGTH_UNIT ( ) NAMED_UNIT ( * ) SI_UNIT ( $, .METRE. ) );
#247 = CARTESIAN_POINT ( 'NONE',  ( 0.000000000000000000, 0.000000000000000000, 0.000000000000000000 ) ) ;
#248 = AXIS2_PLACEMENT_3D ( 'NONE', #259, #143, #163 ) ;
#249 = EDGE_CURVE ( 'NONE', #235, #96, #76, .T. ) ;
#250 = FILL_AREA_STYLE_COLOUR ( '', #301 ) ;
#251 = SURFACE_STYLE_FILL_AREA ( #199 ) ;
#252 = FACE_OUTER_BOUND ( 'NONE', #30, .T. ) ;
#253 = SURFACE_STYLE_FILL_AREA ( #130 ) ;
#254 = DIMENSIONAL_EXPONENTS ( 1.000000000000000000, 0.000000000000000000, 0.000000000000000000, 0.000000000000000000, 0.000000000000000000, 0.000000000000000000, 0.000000000000000000 ) ;
#255 = DIMENSIONAL_EXPONENTS ( 1.000000000000000000, 0.000000000000000000, 0.000000000000000000, 0.000000000000000000, 0.000000000000000000, 0.000000000000000000, 0.000000000000000000 ) ;
#256 = VECTOR ( 'NONE', #219, 39.37007874015748143 ) ;
#257 =( GEOMETRIC_REPRESENTATION_CONTEXT ( 3 ) GLOBAL_UNCERTAINTY_ASSIGNED_CONTEXT ( ( #174 ) ) GLOBAL_UNIT_ASSIGNED_CONTEXT ( ( #241, #126, #157 ) ) REPRESENTATION_CONTEXT ( 'NONE', 'WORKASPACE' ) );
#258 = CYLINDRICAL_SURFACE ( 'NONE', #107, 0.1874999999999999167 ) ;
#259 = CARTESIAN_POINT ( 'NONE',  ( 3.032960542342103792E-32, 0.7499999999999998890, 0.000000000000000000 ) ) ;
#260 = FILL_AREA_STYLE ('',( #21 ) ) ;
#261 = PRODUCT ( '81313', '81313', '', ( #70 ) ) ;
#262 = ADVANCED_FACE ( 'NONE', ( #252 ), #43, .F. ) ;
#263 = FACE_OUTER_BOUND ( 'NONE', #26, .T. ) ;
#264 = AXIS2_PLACEMENT_3D ( 'NONE', #286, #158, #141 ) ;
#265 = MANIFOLD_SOLID_BREP ( 'Revolve - Tool Body (Straight Shanked)', #74 ) ;
#266 = LINE ( 'NONE', #67, #256 ) ;
#267 = DIRECTION ( 'NONE',  ( 1.049697256412016823E-16, 1.000000000000000000, -0.000000000000000000 ) ) ;
#268 = SURFACE_STYLE_FILL_AREA ( #164 ) ;
#269 = FACE_OUTER_BOUND ( 'NONE', #211, .T. ) ;
#270 = CARTESIAN_POINT ( 'NONE',  ( 1.836970198721029688E-16, 2.500000000000000000, 0.000000000000000000 ) ) ;
#271 = STYLED_ITEM ( 'NONE', ( #44 ), #297 ) ;
#272 = DIRECTION ( 'NONE',  ( -0.000000000000000000, -1.000000000000000000, -0.000000000000000000 ) ) ;
#273 =( CONVERSION_BASED_UNIT ( 'INCH', #16 ) LENGTH_UNIT ( ) NAMED_UNIT ( #308 ) );
#274 =( GEOMETRIC_REPRESENTATION_CONTEXT ( 3 ) GLOBAL_UNCERTAINTY_ASSIGNED_CONTEXT ( ( #175 ) ) GLOBAL_UNIT_ASSIGNED_CONTEXT ( ( #168, #120, #294 ) ) REPRESENTATION_CONTEXT ( 'NONE', 'WORKASPACE' ) );
#275 = SURFACE_SIDE_STYLE ('',( #251 ) ) ;
#276 = EDGE_CURVE ( 'NONE', #206, #91, #279, .T. ) ;
#277 = DIRECTION ( 'NONE',  ( 1.049697256412016823E-16, 1.000000000000000000, -0.000000000000000000 ) ) ;
#278 = APPLICATION_PROTOCOL_DEFINITION ( 'draft international standard', 'automotive_design', 1998, #53 ) ;
#279 = CIRCLE ( 'NONE', #89, 0.1874999999999998335 ) ;
#280 = SURFACE_STYLE_FILL_AREA ( #260 ) ;
#281 = DIRECTION ( 'NONE',  ( 1.000000000000000000, -1.049697256412016700E-16, 0.000000000000000000 ) ) ;
#282 = DIRECTION ( 'NONE',  ( -0.000000000000000000, -1.000000000000000000, -0.000000000000000000 ) ) ;
#283 = ORIENTED_EDGE ( 'NONE', *, *, #249, .F. ) ;
#284 = PRODUCT_DEFINITION ( 'UNKNOWN', '', #228, #226 ) ;
#285 = MECHANICAL_DESIGN_GEOMETRIC_PRESENTATION_REPRESENTATION (  '', ( #271 ), #145 ) ;
#286 = CARTESIAN_POINT ( 'NONE',  ( 0.000000000000000000, 0.000000000000000000, 0.000000000000000000 ) ) ;
#287 = EDGE_CURVE ( 'NONE', #91, #206, #210, .T. ) ;
#288 =( NAMED_UNIT ( * ) PLANE_ANGLE_UNIT ( ) SI_UNIT ( $, .RADIAN. ) );
#289 = CYLINDRICAL_SURFACE ( 'NONE', #193, 0.1874999999999999167 ) ;
#290 =( LENGTH_UNIT ( ) NAMED_UNIT ( * ) SI_UNIT ( $, .METRE. ) );
#291 = DIRECTION ( 'NONE',  ( -0.000000000000000000, -1.000000000000000000, -0.000000000000000000 ) ) ;
#292 = AXIS2_PLACEMENT_3D ( 'NONE', #80, #272, #57 ) ;
#293 = FILL_AREA_STYLE ('',( #150 ) ) ;
#294 =( NAMED_UNIT ( * ) SI_UNIT ( $, .STERADIAN. ) SOLID_ANGLE_UNIT ( ) );
#295 = EDGE_CURVE ( 'NONE', #96, #235, #243, .T. ) ;
#296 = AXIS2_PLACEMENT_3D ( 'NONE', #223, #131, #22 ) ;
#297 = ADVANCED_FACE ( 'NONE', ( #134 ), #183, .T. ) ;
#298 = DIRECTION ( 'NONE',  ( -1.000000000000000000, 0.000000000000000000, 0.000000000000000000 ) ) ;
#299 = SURFACE_STYLE_USAGE ( .BOTH. , #275 ) ;
#300 =( LENGTH_UNIT ( ) NAMED_UNIT ( * ) SI_UNIT ( $, .METRE. ) );
#301 = COLOUR_RGB ( '',1.000000000000000000, 0.000000000000000000, 0.000000000000000000 ) ;
#302 = FACE_OUTER_BOUND ( 'NONE', #205, .T. ) ;
#303 = CARTESIAN_POINT ( 'NONE',  ( 0.000000000000000000, 0.000000000000000000, 0.000000000000000000 ) ) ;
#304 = PRESENTATION_LAYER_ASSIGNMENT (  '', '', ( #172 ) ) ;
#305 = LENGTH_MEASURE_WITH_UNIT ( LENGTH_MEASURE( 0.02539999999999999897 ), #300 );
#306 = DIMENSIONAL_EXPONENTS ( 1.000000000000000000, 0.000000000000000000, 0.000000000000000000, 0.000000000000000000, 0.000000000000000000, 0.000000000000000000, 0.000000000000000000 ) ;
#307 =( NAMED_UNIT ( * ) SI_UNIT ( $, .STERADIAN. ) SOLID_ANGLE_UNIT ( ) );
#308 = DIMENSIONAL_EXPONENTS ( 1.000000000000000000, 0.000000000000000000, 0.000000000000000000, 0.000000000000000000, 0.000000000000000000, 0.000000000000000000, 0.000000000000000000 ) ;
#309 = ORIENTED_EDGE ( 'NONE', *, *, #87, .F. ) ;
ENDSEC;
END-ISO-10303-21;
