ISO-10303-21;
HEADER;
FILE_DESCRIPTION (( 'STEP AP214' ),
    '1' );
FILE_NAME ('84416.STEP',
    '2023-06-23T13:00:45',
    ( '' ),
    ( '' ),
    'SwSTEP 2.0',
    'SolidWorks 2023',
    '' );
FILE_SCHEMA (( 'AUTOMOTIVE_DESIGN' ));
ENDSEC;

DATA;
#1 = VERTEX_POINT ( 'NONE', #50 ) ;
#2 = PRESENTATION_STYLE_ASSIGNMENT (( #219 ) ) ;
#3 = ORIENTED_EDGE ( 'NONE', *, *, #276, .F. ) ;
#4 =( CONVERSION_BASED_UNIT ( 'INCH', #176 ) LENGTH_UNIT ( ) NAMED_UNIT ( #258 ) );
#5 = DIRECTION ( 'NONE',  ( 0.000000000000000000, 0.000000000000000000, -1.000000000000000000 ) ) ;
#6 = PRESENTATION_STYLE_ASSIGNMENT (( #282 ) ) ;
#7 =( NAMED_UNIT ( * ) PLANE_ANGLE_UNIT ( ) SI_UNIT ( $, .RADIAN. ) );
#8 = AXIS2_PLACEMENT_3D ( 'NONE', #90, #64, #106 ) ;
#9 = DIRECTION ( 'NONE',  ( -3.061616997868383018E-17, 1.000000000000000000, -0.000000000000000000 ) ) ;
#10 = SURFACE_STYLE_USAGE ( .BOTH. , #32 ) ;
#11 = MANIFOLD_SOLID_BREP ( 'Revolve - Cutting Edge', #248 ) ;
#12 =( NAMED_UNIT ( * ) SI_UNIT ( $, .STERADIAN. ) SOLID_ANGLE_UNIT ( ) );
#13 = AXIS2_PLACEMENT_3D ( 'NONE', #238, #36, #184 ) ;
#14 = DIRECTION ( 'NONE',  ( -0.000000000000000000, -1.000000000000000000, -0.000000000000000000 ) ) ;
#15 = DIRECTION ( 'NONE',  ( -3.061616997868383018E-17, 1.000000000000000000, 0.000000000000000000 ) ) ;
#16 = LINE ( 'NONE', #160, #186 ) ;
#17 = APPLICATION_PROTOCOL_DEFINITION ( 'draft international standard', 'automotive_design', 1998, #78 ) ;
#18 = FILL_AREA_STYLE_COLOUR ( '', #195 ) ;
#19 = AXIS2_PLACEMENT_3D ( 'NONE', #151, #257, #128 ) ;
#20 = DIRECTION ( 'NONE',  ( 1.000000000000000000, 3.061616997868383018E-17, 0.000000000000000000 ) ) ;
#21 = VERTEX_POINT ( 'NONE', #76 ) ;
#22 = LENGTH_MEASURE_WITH_UNIT ( LENGTH_MEASURE( 0.02539999999999999897 ), #69 );
#23 = LENGTH_MEASURE_WITH_UNIT ( LENGTH_MEASURE( 0.02539999999999999897 ), #54 );
#24 = ORIENTED_EDGE ( 'NONE', *, *, #228, .T. ) ;
#25 = VERTEX_POINT ( 'NONE', #182 ) ;
#26 = MECHANICAL_DESIGN_GEOMETRIC_PRESENTATION_REPRESENTATION (  '', ( #126 ), #256 ) ;
#27 = PRESENTATION_LAYER_ASSIGNMENT (  '', '', ( #131 ) ) ;
#28 =( GEOMETRIC_REPRESENTATION_CONTEXT ( 3 ) GLOBAL_UNCERTAINTY_ASSIGNED_CONTEXT ( ( #269 ) ) GLOBAL_UNIT_ASSIGNED_CONTEXT ( ( #289, #115, #81 ) ) REPRESENTATION_CONTEXT ( 'NONE', 'WORKASPACE' ) );
#29 = EDGE_CURVE ( 'NONE', #292, #25, #285, .T. ) ;
#30 =( NAMED_UNIT ( * ) PLANE_ANGLE_UNIT ( ) SI_UNIT ( $, .RADIAN. ) );
#31 = DIRECTION ( 'NONE',  ( 0.000000000000000000, 0.000000000000000000, -1.000000000000000000 ) ) ;
#32 = SURFACE_SIDE_STYLE ('',( #80 ) ) ;
#33 = SURFACE_SIDE_STYLE ('',( #259 ) ) ;
#34 = COLOUR_RGB ( '',1.000000000000000000, 0.000000000000000000, 0.000000000000000000 ) ;
#35 = CARTESIAN_POINT ( 'NONE',  ( 0.000000000000000000, 0.000000000000000000, 0.000000000000000000 ) ) ;
#36 = DIRECTION ( 'NONE',  ( -0.000000000000000000, -1.000000000000000000, -0.000000000000000000 ) ) ;
#37 = STYLED_ITEM ( 'NONE', ( #227 ), #11 ) ;
#38 = LENGTH_MEASURE_WITH_UNIT ( LENGTH_MEASURE( 0.02539999999999999897 ), #79 );
#39 = DIRECTION ( 'NONE',  ( 0.000000000000000000, 0.000000000000000000, 1.000000000000000000 ) ) ;
#40 = EDGE_LOOP ( 'NONE', ( #142, #67, #190, #95 ) ) ;
#41 =( CONVERSION_BASED_UNIT ( 'INCH', #291 ) LENGTH_UNIT ( ) NAMED_UNIT ( #177 ) );
#42 = AXIS2_PLACEMENT_3D ( 'NONE', #180, #59, #31 ) ;
#43 = CARTESIAN_POINT ( 'NONE',  ( -6.123233995736766036E-17, 2.500000000000000000, 0.000000000000000000 ) ) ;
#44 = ORIENTED_EDGE ( 'NONE', *, *, #207, .T. ) ;
#45 = DIRECTION ( 'NONE',  ( 3.061616997868383018E-17, -1.000000000000000000, 0.000000000000000000 ) ) ;
#46 = EDGE_LOOP ( 'NONE', ( #309, #87 ) ) ;
#47 = DIRECTION ( 'NONE',  ( -3.061616997868383018E-17, 1.000000000000000000, -0.000000000000000000 ) ) ;
#48 = VERTEX_POINT ( 'NONE', #287 ) ;
#49 = AXIS2_PLACEMENT_3D ( 'NONE', #271, #45, #20 ) ;
#50 = CARTESIAN_POINT ( 'NONE',  ( 0.06250000000000000000, 2.500000000000000000, 7.654042494670963708E-18 ) ) ;
#51 = DIMENSIONAL_EXPONENTS ( 1.000000000000000000, 0.000000000000000000, 0.000000000000000000, 0.000000000000000000, 0.000000000000000000, 0.000000000000000000, 0.000000000000000000 ) ;
#52 = CIRCLE ( 'NONE', #42, 0.06250000000000000000 ) ;
#53 =( CONVERSION_BASED_UNIT ( 'INCH', #235 ) LENGTH_UNIT ( ) NAMED_UNIT ( #150 ) );
#54 =( LENGTH_UNIT ( ) NAMED_UNIT ( * ) SI_UNIT ( $, .METRE. ) );
#55 = AXIS2_PLACEMENT_3D ( 'NONE', #152, #15, #107 ) ;
#56 =( LENGTH_UNIT ( ) NAMED_UNIT ( * ) SI_UNIT ( $, .METRE. ) );
#57 =( NAMED_UNIT ( * ) SI_UNIT ( $, .STERADIAN. ) SOLID_ANGLE_UNIT ( ) );
#58 = PLANE ( 'NONE',  #55 ) ;
#59 = DIRECTION ( 'NONE',  ( -0.000000000000000000, -1.000000000000000000, -0.000000000000000000 ) ) ;
#60 = EDGE_CURVE ( 'NONE', #21, #1, #223, .T. ) ;
#61 = DIRECTION ( 'NONE',  ( 0.000000000000000000, 0.000000000000000000, -1.000000000000000000 ) ) ;
#62 = CARTESIAN_POINT ( 'NONE',  ( -6.123233995736766036E-17, 2.500000000000000000, 0.000000000000000000 ) ) ;
#63 = SURFACE_STYLE_USAGE ( .BOTH. , #196 ) ;
#64 = DIRECTION ( 'NONE',  ( 0.000000000000000000, -1.000000000000000000, -0.000000000000000000 ) ) ;
#65 = ADVANCED_FACE ( 'NONE', ( #233 ), #58, .F. ) ;
#66 = DIRECTION ( 'NONE',  ( -3.061616997868383018E-17, 1.000000000000000000, -0.000000000000000000 ) ) ;
#67 = ORIENTED_EDGE ( 'NONE', *, *, #263, .T. ) ;
#68 = CARTESIAN_POINT ( 'NONE',  ( 0.000000000000000000, 0.000000000000000000, 0.000000000000000000 ) ) ;
#69 =( LENGTH_UNIT ( ) NAMED_UNIT ( * ) SI_UNIT ( $, .METRE. ) );
#70 =( NAMED_UNIT ( * ) SI_UNIT ( $, .STERADIAN. ) SOLID_ANGLE_UNIT ( ) );
#71 = EDGE_LOOP ( 'NONE', ( #118, #144, #280, #3 ) ) ;
#72 = DIMENSIONAL_EXPONENTS ( 1.000000000000000000, 0.000000000000000000, 0.000000000000000000, 0.000000000000000000, 0.000000000000000000, 0.000000000000000000, 0.000000000000000000 ) ;
#73 =( GEOMETRIC_REPRESENTATION_CONTEXT ( 3 ) GLOBAL_UNCERTAINTY_ASSIGNED_CONTEXT ( ( #193 ) ) GLOBAL_UNIT_ASSIGNED_CONTEXT ( ( #53, #30, #175 ) ) REPRESENTATION_CONTEXT ( 'NONE', 'WORKASPACE' ) );
#74 = AXIS2_PLACEMENT_3D ( 'NONE', #62, #9, #132 ) ;
#75 = DIRECTION ( 'NONE',  ( 0.000000000000000000, 0.000000000000000000, -1.000000000000000000 ) ) ;
#76 = CARTESIAN_POINT ( 'NONE',  ( -0.06250000000000012490, 2.500000000000000000, 0.000000000000000000 ) ) ;
#77 = EDGE_CURVE ( 'NONE', #91, #48, #201, .T. ) ;
#78 = APPLICATION_CONTEXT ( 'automotive_design' ) ;
#79 =( LENGTH_UNIT ( ) NAMED_UNIT ( * ) SI_UNIT ( $, .METRE. ) );
#80 = SURFACE_STYLE_FILL_AREA ( #208 ) ;
#81 =( NAMED_UNIT ( * ) SI_UNIT ( $, .STERADIAN. ) SOLID_ANGLE_UNIT ( ) );
#82 = PRESENTATION_STYLE_ASSIGNMENT (( #63 ) ) ;
#83 = CARTESIAN_POINT ( 'NONE',  ( 0.06250000000000000000, 0.5000000000000001110, 7.654042494670963708E-18 ) ) ;
#84 = AXIS2_PLACEMENT_3D ( 'NONE', #237, #116, #232 ) ;
#85 = PRODUCT_DEFINITION_FORMATION_WITH_SPECIFIED_SOURCE ( 'ANY', '', #253, .NOT_KNOWN. ) ;
#86 =( CONVERSION_BASED_UNIT ( 'INCH', #23 ) LENGTH_UNIT ( ) NAMED_UNIT ( #300 ) );
#87 = ORIENTED_EDGE ( 'NONE', *, *, #263, .F. ) ;
#88 = DIRECTION ( 'NONE',  ( -3.061616997868383018E-17, 1.000000000000000000, -0.000000000000000000 ) ) ;
#89 = ORIENTED_EDGE ( 'NONE', *, *, #301, .F. ) ;
#90 = CARTESIAN_POINT ( 'NONE',  ( 0.000000000000000000, 0.000000000000000000, 0.000000000000000000 ) ) ;
#91 = VERTEX_POINT ( 'NONE', #112 ) ;
#92 = CARTESIAN_POINT ( 'NONE',  ( -0.06250000000000000000, 0.5000000000000001110, 0.000000000000000000 ) ) ;
#93 = AXIS2_PLACEMENT_3D ( 'NONE', #99, #178, #5 ) ;
#94 = AXIS2_PLACEMENT_3D ( 'NONE', #148, #230, #129 ) ;
#95 = ORIENTED_EDGE ( 'NONE', *, *, #207, .F. ) ;
#96 = SURFACE_STYLE_FILL_AREA ( #198 ) ;
#97 = DIRECTION ( 'NONE',  ( 0.000000000000000000, 1.000000000000000000, 0.000000000000000000 ) ) ;
#98 =( GEOMETRIC_REPRESENTATION_CONTEXT ( 3 ) GLOBAL_UNCERTAINTY_ASSIGNED_CONTEXT ( ( #114 ) ) GLOBAL_UNIT_ASSIGNED_CONTEXT ( ( #243, #119, #70 ) ) REPRESENTATION_CONTEXT ( 'NONE', 'WORKASPACE' ) );
#99 = CARTESIAN_POINT ( 'NONE',  ( 0.000000000000000000, 0.000000000000000000, 0.000000000000000000 ) ) ;
#100 = SURFACE_STYLE_USAGE ( .BOTH. , #187 ) ;
#101 = PLANE ( 'NONE',  #8 ) ;
#102 = VECTOR ( 'NONE', #47, 39.37007874015748143 ) ;
#103 = CARTESIAN_POINT ( 'NONE',  ( 0.000000000000000000, 0.000000000000000000, -0.06250000000000000000 ) ) ;
#104 = MECHANICAL_DESIGN_GEOMETRIC_PRESENTATION_REPRESENTATION (  '', ( #286 ), #158 ) ;
#105 = AXIS2_PLACEMENT_3D ( 'NONE', #140, #88, #244 ) ;
#106 = DIRECTION ( 'NONE',  ( 0.000000000000000000, 0.000000000000000000, -1.000000000000000000 ) ) ;
#107 = DIRECTION ( 'NONE',  ( -1.000000000000000000, -3.061616997868383018E-17, 0.000000000000000000 ) ) ;
#108 = FACE_OUTER_BOUND ( 'NONE', #241, .T. ) ;
#109 = SHAPE_DEFINITION_REPRESENTATION ( #149, #242 ) ;
#110 = MANIFOLD_SOLID_BREP ( 'Revolve - Tool Body (Straight Shanked)', #260 ) ;
#111 = FILL_AREA_STYLE ('',( #18 ) ) ;
#112 = CARTESIAN_POINT ( 'NONE',  ( 0.000000000000000000, 0.5000000000000000000, -0.06250000000000000000 ) ) ;
#113 = PRESENTATION_LAYER_ASSIGNMENT (  '', '', ( #261 ) ) ;
#114 = UNCERTAINTY_MEASURE_WITH_UNIT (LENGTH_MEASURE( 1.000000000000000082E-05 ), #243, 'distance_accuracy_value', 'NONE');
#115 =( NAMED_UNIT ( * ) PLANE_ANGLE_UNIT ( ) SI_UNIT ( $, .RADIAN. ) );
#116 = DIRECTION ( 'NONE',  ( -3.061616997868383018E-17, 1.000000000000000000, -0.000000000000000000 ) ) ;
#117 = CARTESIAN_POINT ( 'NONE',  ( 0.000000000000000000, 0.5000000000000000000, 0.000000000000000000 ) ) ;
#118 = ORIENTED_EDGE ( 'NONE', *, *, #228, .F. ) ;
#119 =( NAMED_UNIT ( * ) PLANE_ANGLE_UNIT ( ) SI_UNIT ( $, .RADIAN. ) );
#120 = EDGE_LOOP ( 'NONE', ( #277, #214, #191, #210 ) ) ;
#121 = SURFACE_SIDE_STYLE ('',( #279 ) ) ;
#122 = MECHANICAL_DESIGN_GEOMETRIC_PRESENTATION_REPRESENTATION (  '', ( #290 ), #73 ) ;
#123 = VECTOR ( 'NONE', #308, 39.37007874015748143 ) ;
#124 = FACE_OUTER_BOUND ( 'NONE', #272, .T. ) ;
#125 = COLOUR_RGB ( '',1.000000000000000000, 0.000000000000000000, 0.000000000000000000 ) ;
#126 = STYLED_ITEM ( 'NONE', ( #304 ), #296 ) ;
#127 = FILL_AREA_STYLE_COLOUR ( '', #125 ) ;
#128 = DIRECTION ( 'NONE',  ( -1.000000000000000000, 0.000000000000000000, 0.000000000000000000 ) ) ;
#129 = DIRECTION ( 'NONE',  ( -1.000000000000000000, 0.000000000000000000, 0.000000000000000000 ) ) ;
#130 =( CONVERSION_BASED_UNIT ( 'INCH', #231 ) LENGTH_UNIT ( ) NAMED_UNIT ( #225 ) );
#131 = STYLED_ITEM ( 'NONE', ( #82 ), #110 ) ;
#132 = DIRECTION ( 'NONE',  ( -1.000000000000000000, 0.000000000000000000, 0.000000000000000000 ) ) ;
#133 = PRODUCT_DEFINITION_CONTEXT ( 'detailed design', #265, 'design' ) ;
#134 = DIRECTION ( 'NONE',  ( 1.000000000000000000, 0.000000000000000000, 0.000000000000000000 ) ) ;
#135 = PLANE ( 'NONE',  #49 ) ;
#136 =( LENGTH_UNIT ( ) NAMED_UNIT ( * ) SI_UNIT ( $, .METRE. ) );
#137 = VERTEX_POINT ( 'NONE', #92 ) ;
#138 = PRESENTATION_LAYER_ASSIGNMENT (  '', '', ( #286 ) ) ;
#139 = UNCERTAINTY_MEASURE_WITH_UNIT (LENGTH_MEASURE( 1.000000000000000082E-05 ), #86, 'distance_accuracy_value', 'NONE');
#140 = CARTESIAN_POINT ( 'NONE',  ( -6.123233995736766036E-17, 2.500000000000000000, 0.000000000000000000 ) ) ;
#141 = DIRECTION ( 'NONE',  ( -3.061616997868383018E-17, 1.000000000000000000, -0.000000000000000000 ) ) ;
#142 = ORIENTED_EDGE ( 'NONE', *, *, #183, .F. ) ;
#143 = ADVANCED_FACE ( 'NONE', ( #297 ), #166, .T. ) ;
#144 = ORIENTED_EDGE ( 'NONE', *, *, #301, .T. ) ;
#145 = FILL_AREA_STYLE ('',( #275 ) ) ;
#146 = FILL_AREA_STYLE_COLOUR ( '', #267 ) ;
#147 = PRESENTATION_LAYER_ASSIGNMENT (  '', '', ( #290 ) ) ;
#148 = CARTESIAN_POINT ( 'NONE',  ( 0.000000000000000000, 0.5000000000000001110, 0.000000000000000000 ) ) ;
#149 = PRODUCT_DEFINITION_SHAPE ( 'NONE', 'NONE',  #155 ) ;
#150 = DIMENSIONAL_EXPONENTS ( 1.000000000000000000, 0.000000000000000000, 0.000000000000000000, 0.000000000000000000, 0.000000000000000000, 0.000000000000000000, 0.000000000000000000 ) ;
#151 = CARTESIAN_POINT ( 'NONE',  ( 0.000000000000000000, 0.5000000000000001110, 0.000000000000000000 ) ) ;
#152 = CARTESIAN_POINT ( 'NONE',  ( 2.929218325511440640E-35, 0.5000000000000000000, 0.000000000000000000 ) ) ;
#153 =( GEOMETRIC_REPRESENTATION_CONTEXT ( 3 ) GLOBAL_UNCERTAINTY_ASSIGNED_CONTEXT ( ( #250 ) ) GLOBAL_UNIT_ASSIGNED_CONTEXT ( ( #4, #7, #284 ) ) REPRESENTATION_CONTEXT ( 'NONE', 'WORKASPACE' ) );
#154 = AXIS2_PLACEMENT_3D ( 'NONE', #68, #39, #134 ) ;
#155 = PRODUCT_DEFINITION ( 'UNKNOWN', '', #85, #133 ) ;
#156 = CYLINDRICAL_SURFACE ( 'NONE', #181, 0.06250000000000000000 ) ;
#157 = ADVANCED_FACE ( 'NONE', ( #124 ), #222, .T. ) ;
#158 =( GEOMETRIC_REPRESENTATION_CONTEXT ( 3 ) GLOBAL_UNCERTAINTY_ASSIGNED_CONTEXT ( ( #283 ) ) GLOBAL_UNIT_ASSIGNED_CONTEXT ( ( #41, #168, #57 ) ) REPRESENTATION_CONTEXT ( 'NONE', 'WORKASPACE' ) );
#159 = CIRCLE ( 'NONE', #202, 0.06250000000000000000 ) ;
#160 = CARTESIAN_POINT ( 'NONE',  ( 0.06249999999999997224, 2.500000000000000000, 7.654042494670960626E-18 ) ) ;
#161 = DIRECTION ( 'NONE',  ( 0.000000000000000000, 0.000000000000000000, -1.000000000000000000 ) ) ;
#162 = DIRECTION ( 'NONE',  ( -0.000000000000000000, -1.000000000000000000, -0.000000000000000000 ) ) ;
#163 = EDGE_CURVE ( 'NONE', #137, #192, #255, .T. ) ;
#164 = MECHANICAL_DESIGN_GEOMETRIC_PRESENTATION_REPRESENTATION (  '', ( #131 ), #98 ) ;
#165 = ORIENTED_EDGE ( 'NONE', *, *, #276, .T. ) ;
#166 = PLANE ( 'NONE',  #273 ) ;
#167 = ORIENTED_EDGE ( 'NONE', *, *, #77, .T. ) ;
#168 =( NAMED_UNIT ( * ) PLANE_ANGLE_UNIT ( ) SI_UNIT ( $, .RADIAN. ) );
#169 = PRODUCT_RELATED_PRODUCT_CATEGORY ( 'part', '', ( #253 ) ) ;
#170 = ORIENTED_EDGE ( 'NONE', *, *, #29, .T. ) ;
#171 = COLOUR_RGB ( '',0.7921568627450980005, 0.8196078431372548767, 0.9333333333333333481 ) ;
#172 = COLOUR_RGB ( '',1.000000000000000000, 0.000000000000000000, 0.000000000000000000 ) ;
#173 = CIRCLE ( 'NONE', #94, 0.06250000000000000000 ) ;
#174 = CARTESIAN_POINT ( 'NONE',  ( 0.000000000000000000, 0.5000000000000000000, 0.000000000000000000 ) ) ;
#175 =( NAMED_UNIT ( * ) SI_UNIT ( $, .STERADIAN. ) SOLID_ANGLE_UNIT ( ) );
#176 = LENGTH_MEASURE_WITH_UNIT ( LENGTH_MEASURE( 0.02539999999999999897 ), #56 );
#177 = DIMENSIONAL_EXPONENTS ( 1.000000000000000000, 0.000000000000000000, 0.000000000000000000, 0.000000000000000000, 0.000000000000000000, 0.000000000000000000, 0.000000000000000000 ) ;
#178 = DIRECTION ( 'NONE',  ( -0.000000000000000000, -1.000000000000000000, -0.000000000000000000 ) ) ;
#179 = ADVANCED_FACE ( 'NONE', ( #200 ), #101, .T. ) ;
#180 = CARTESIAN_POINT ( 'NONE',  ( 0.000000000000000000, 0.000000000000000000, 0.000000000000000000 ) ) ;
#181 = AXIS2_PLACEMENT_3D ( 'NONE', #35, #14, #161 ) ;
#182 = CARTESIAN_POINT ( 'NONE',  ( 7.654042494670957545E-18, 0.000000000000000000, 0.06250000000000000000 ) ) ;
#183 = EDGE_CURVE ( 'NONE', #192, #1, #16, .T. ) ;
#184 = DIRECTION ( 'NONE',  ( 0.000000000000000000, 0.000000000000000000, -1.000000000000000000 ) ) ;
#185 = APPLICATION_PROTOCOL_DEFINITION ( 'draft international standard', 'automotive_design', 1998, #265 ) ;
#186 = VECTOR ( 'NONE', #66, 39.37007874015748143 ) ;
#187 = SURFACE_SIDE_STYLE ('',( #307 ) ) ;
#188 = PRESENTATION_STYLE_ASSIGNMENT (( #10 ) ) ;
#189 = LINE ( 'NONE', #206, #102 ) ;
#190 = ORIENTED_EDGE ( 'NONE', *, *, #252, .T. ) ;
#191 = ORIENTED_EDGE ( 'NONE', *, *, #60, .F. ) ;
#192 = VERTEX_POINT ( 'NONE', #83 ) ;
#193 = UNCERTAINTY_MEASURE_WITH_UNIT (LENGTH_MEASURE( 1.000000000000000082E-05 ), #53, 'distance_accuracy_value', 'NONE');
#194 =( LENGTH_UNIT ( ) NAMED_UNIT ( * ) SI_UNIT ( $, .METRE. ) );
#195 = COLOUR_RGB ( '',0.7921568627450980005, 0.8196078431372548767, 0.9333333333333333481 ) ;
#196 = SURFACE_SIDE_STYLE ('',( #247 ) ) ;
#197 = ADVANCED_FACE ( 'NONE', ( #108 ), #135, .F. ) ;
#198 = FILL_AREA_STYLE ('',( #127 ) ) ;
#199 = FACE_OUTER_BOUND ( 'NONE', #71, .T. ) ;
#200 = FACE_OUTER_BOUND ( 'NONE', #274, .T. ) ;
#201 = CIRCLE ( 'NONE', #281, 0.06250000000000000000 ) ;
#202 = AXIS2_PLACEMENT_3D ( 'NONE', #117, #236, #61 ) ;
#203 = SURFACE_STYLE_USAGE ( .BOTH. , #33 ) ;
#204 = VECTOR ( 'NONE', #162, 39.37007874015748143 ) ;
#205 = PRODUCT_CONTEXT ( 'NONE', #78, 'mechanical' ) ;
#206 = CARTESIAN_POINT ( 'NONE',  ( -0.06250000000000009714, 2.500000000000000000, 0.000000000000000000 ) ) ;
#207 = EDGE_CURVE ( 'NONE', #1, #21, #229, .T. ) ;
#208 = FILL_AREA_STYLE ('',( #146 ) ) ;
#209 = CYLINDRICAL_SURFACE ( 'NONE', #268, 0.06250000000000002776 ) ;
#210 = ORIENTED_EDGE ( 'NONE', *, *, #252, .F. ) ;
#211 = FACE_OUTER_BOUND ( 'NONE', #40, .T. ) ;
#212 = LINE ( 'NONE', #294, #204 ) ;
#213 = LINE ( 'NONE', #288, #123 ) ;
#214 = ORIENTED_EDGE ( 'NONE', *, *, #183, .T. ) ;
#215 = CARTESIAN_POINT ( 'NONE',  ( 0.000000000000000000, 0.5000000000000000000, 0.000000000000000000 ) ) ;
#216 = ORIENTED_EDGE ( 'NONE', *, *, #29, .F. ) ;
#217 = ADVANCED_FACE ( 'NONE', ( #211 ), #209, .T. ) ;
#218 = MECHANICAL_DESIGN_GEOMETRIC_PRESENTATION_REPRESENTATION (  '', ( #37 ), #302 ) ;
#219 = SURFACE_STYLE_USAGE ( .BOTH. , #121 ) ;
#220 = EDGE_LOOP ( 'NONE', ( #295, #89 ) ) ;
#221 = SURFACE_SIDE_STYLE ('',( #96 ) ) ;
#222 = CYLINDRICAL_SURFACE ( 'NONE', #93, 0.06250000000000000000 ) ;
#223 = CIRCLE ( 'NONE', #74, 0.06250000000000005551 ) ;
#224 = PRESENTATION_LAYER_ASSIGNMENT (  '', '', ( #126 ) ) ;
#225 = DIMENSIONAL_EXPONENTS ( 1.000000000000000000, 0.000000000000000000, 0.000000000000000000, 0.000000000000000000, 0.000000000000000000, 0.000000000000000000, 0.000000000000000000 ) ;
#226 = FILL_AREA_STYLE ('',( #262 ) ) ;
#227 = PRESENTATION_STYLE_ASSIGNMENT (( #100 ) ) ;
#228 = EDGE_CURVE ( 'NONE', #48, #25, #213, .T. ) ;
#229 = CIRCLE ( 'NONE', #84, 0.06250000000000005551 ) ;
#230 = DIRECTION ( 'NONE',  ( -3.061616997868383018E-17, 1.000000000000000000, -0.000000000000000000 ) ) ;
#231 = LENGTH_MEASURE_WITH_UNIT ( LENGTH_MEASURE( 0.02539999999999999897 ), #194 );
#232 = DIRECTION ( 'NONE',  ( -1.000000000000000000, 0.000000000000000000, 0.000000000000000000 ) ) ;
#233 = FACE_OUTER_BOUND ( 'NONE', #46, .T. ) ;
#234 = FILL_AREA_STYLE ('',( #254 ) ) ;
#235 = LENGTH_MEASURE_WITH_UNIT ( LENGTH_MEASURE( 0.02539999999999999897 ), #136 );
#236 = DIRECTION ( 'NONE',  ( -0.000000000000000000, -1.000000000000000000, -0.000000000000000000 ) ) ;
#237 = CARTESIAN_POINT ( 'NONE',  ( -6.123233995736766036E-17, 2.500000000000000000, 0.000000000000000000 ) ) ;
#238 = CARTESIAN_POINT ( 'NONE',  ( 0.000000000000000000, 0.000000000000000000, 0.000000000000000000 ) ) ;
#239 =( NAMED_UNIT ( * ) PLANE_ANGLE_UNIT ( ) SI_UNIT ( $, .RADIAN. ) );
#240 = MECHANICAL_DESIGN_GEOMETRIC_PRESENTATION_REPRESENTATION (  '', ( #261 ), #153 ) ;
#241 = EDGE_LOOP ( 'NONE', ( #246, #44 ) ) ;
#242 = ADVANCED_BREP_SHAPE_REPRESENTATION ( '84416', ( #11, #110, #154 ), #28 ) ;
#243 =( CONVERSION_BASED_UNIT ( 'INCH', #22 ) LENGTH_UNIT ( ) NAMED_UNIT ( #51 ) );
#244 = DIRECTION ( 'NONE',  ( -1.000000000000000000, 0.000000000000000000, 0.000000000000000000 ) ) ;
#245 = DIRECTION ( 'NONE',  ( -1.000000000000000000, 0.000000000000000000, 0.000000000000000000 ) ) ;
#246 = ORIENTED_EDGE ( 'NONE', *, *, #60, .T. ) ;
#247 = SURFACE_STYLE_FILL_AREA ( #234 ) ;
#248 = CLOSED_SHELL ( 'NONE', ( #157, #143, #296, #179 ) ) ;
#249 = PRESENTATION_LAYER_ASSIGNMENT (  '', '', ( #37 ) ) ;
#250 = UNCERTAINTY_MEASURE_WITH_UNIT (LENGTH_MEASURE( 1.000000000000000082E-05 ), #4, 'distance_accuracy_value', 'NONE');
#251 = DIRECTION ( 'NONE',  ( 0.000000000000000000, -0.000000000000000000, 1.000000000000000000 ) ) ;
#252 = EDGE_CURVE ( 'NONE', #137, #21, #189, .T. ) ;
#253 = PRODUCT ( '84416', '84416', '', ( #205 ) ) ;
#254 = FILL_AREA_STYLE_COLOUR ( '', #171 ) ;
#255 = CIRCLE ( 'NONE', #19, 0.06250000000000000000 ) ;
#256 =( GEOMETRIC_REPRESENTATION_CONTEXT ( 3 ) GLOBAL_UNCERTAINTY_ASSIGNED_CONTEXT ( ( #139 ) ) GLOBAL_UNIT_ASSIGNED_CONTEXT ( ( #86, #239, #264 ) ) REPRESENTATION_CONTEXT ( 'NONE', 'WORKASPACE' ) );
#257 = DIRECTION ( 'NONE',  ( -3.061616997868383018E-17, 1.000000000000000000, -0.000000000000000000 ) ) ;
#258 = DIMENSIONAL_EXPONENTS ( 1.000000000000000000, 0.000000000000000000, 0.000000000000000000, 0.000000000000000000, 0.000000000000000000, 0.000000000000000000, 0.000000000000000000 ) ;
#259 = SURFACE_STYLE_FILL_AREA ( #226 ) ;
#260 = CLOSED_SHELL ( 'NONE', ( #303, #65, #217, #197 ) ) ;
#261 = STYLED_ITEM ( 'NONE', ( #6 ), #157 ) ;
#262 = FILL_AREA_STYLE_COLOUR ( '', #34 ) ;
#263 = EDGE_CURVE ( 'NONE', #192, #137, #173, .T. ) ;
#264 =( NAMED_UNIT ( * ) SI_UNIT ( $, .STERADIAN. ) SOLID_ANGLE_UNIT ( ) );
#265 = APPLICATION_CONTEXT ( 'automotive_design' ) ;
#266 = FACE_OUTER_BOUND ( 'NONE', #120, .T. ) ;
#267 = COLOUR_RGB ( '',1.000000000000000000, 0.000000000000000000, 0.000000000000000000 ) ;
#268 = AXIS2_PLACEMENT_3D ( 'NONE', #43, #141, #245 ) ;
#269 = UNCERTAINTY_MEASURE_WITH_UNIT (LENGTH_MEASURE( 1.000000000000000082E-05 ), #289, 'distance_accuracy_value', 'NONE');
#270 = CYLINDRICAL_SURFACE ( 'NONE', #105, 0.06250000000000002776 ) ;
#271 = CARTESIAN_POINT ( 'NONE',  ( 0.06250000000000000000, 2.500000000000000000, 0.000000000000000000 ) ) ;
#272 = EDGE_LOOP ( 'NONE', ( #167, #24, #216, #298 ) ) ;
#273 = AXIS2_PLACEMENT_3D ( 'NONE', #174, #97, #251 ) ;
#274 = EDGE_LOOP ( 'NONE', ( #170, #165 ) ) ;
#275 = FILL_AREA_STYLE_COLOUR ( '', #172 ) ;
#276 = EDGE_CURVE ( 'NONE', #25, #292, #52, .T. ) ;
#277 = ORIENTED_EDGE ( 'NONE', *, *, #163, .T. ) ;
#278 = DIRECTION ( 'NONE',  ( -0.000000000000000000, -1.000000000000000000, -0.000000000000000000 ) ) ;
#279 = SURFACE_STYLE_FILL_AREA ( #145 ) ;
#280 = ORIENTED_EDGE ( 'NONE', *, *, #299, .T. ) ;
#281 = AXIS2_PLACEMENT_3D ( 'NONE', #215, #278, #75 ) ;
#282 = SURFACE_STYLE_USAGE ( .BOTH. , #221 ) ;
#283 = UNCERTAINTY_MEASURE_WITH_UNIT (LENGTH_MEASURE( 1.000000000000000082E-05 ), #41, 'distance_accuracy_value', 'NONE');
#284 =( NAMED_UNIT ( * ) SI_UNIT ( $, .STERADIAN. ) SOLID_ANGLE_UNIT ( ) );
#285 = CIRCLE ( 'NONE', #13, 0.06250000000000000000 ) ;
#286 = STYLED_ITEM ( 'NONE', ( #188 ), #179 ) ;
#287 = CARTESIAN_POINT ( 'NONE',  ( 7.654042494670957545E-18, 0.5000000000000000000, 0.06250000000000000000 ) ) ;
#288 = CARTESIAN_POINT ( 'NONE',  ( 7.654042494670957545E-18, 0.000000000000000000, 0.06250000000000000000 ) ) ;
#289 =( CONVERSION_BASED_UNIT ( 'INCH', #38 ) LENGTH_UNIT ( ) NAMED_UNIT ( #72 ) );
#290 = STYLED_ITEM ( 'NONE', ( #2 ), #143 ) ;
#291 = LENGTH_MEASURE_WITH_UNIT ( LENGTH_MEASURE( 0.02539999999999999897 ), #293 );
#292 = VERTEX_POINT ( 'NONE', #103 ) ;
#293 =( LENGTH_UNIT ( ) NAMED_UNIT ( * ) SI_UNIT ( $, .METRE. ) );
#294 = CARTESIAN_POINT ( 'NONE',  ( 0.000000000000000000, 0.000000000000000000, -0.06250000000000000000 ) ) ;
#295 = ORIENTED_EDGE ( 'NONE', *, *, #77, .F. ) ;
#296 = ADVANCED_FACE ( 'NONE', ( #199 ), #156, .T. ) ;
#297 = FACE_OUTER_BOUND ( 'NONE', #220, .T. ) ;
#298 = ORIENTED_EDGE ( 'NONE', *, *, #299, .F. ) ;
#299 = EDGE_CURVE ( 'NONE', #91, #292, #212, .T. ) ;
#300 = DIMENSIONAL_EXPONENTS ( 1.000000000000000000, 0.000000000000000000, 0.000000000000000000, 0.000000000000000000, 0.000000000000000000, 0.000000000000000000, 0.000000000000000000 ) ;
#301 = EDGE_CURVE ( 'NONE', #48, #91, #159, .T. ) ;
#302 =( GEOMETRIC_REPRESENTATION_CONTEXT ( 3 ) GLOBAL_UNCERTAINTY_ASSIGNED_CONTEXT ( ( #306 ) ) GLOBAL_UNIT_ASSIGNED_CONTEXT ( ( #130, #305, #12 ) ) REPRESENTATION_CONTEXT ( 'NONE', 'WORKASPACE' ) );
#303 = ADVANCED_FACE ( 'NONE', ( #266 ), #270, .T. ) ;
#304 = PRESENTATION_STYLE_ASSIGNMENT (( #203 ) ) ;
#305 =( NAMED_UNIT ( * ) PLANE_ANGLE_UNIT ( ) SI_UNIT ( $, .RADIAN. ) );
#306 = UNCERTAINTY_MEASURE_WITH_UNIT (LENGTH_MEASURE( 1.000000000000000082E-05 ), #130, 'distance_accuracy_value', 'NONE');
#307 = SURFACE_STYLE_FILL_AREA ( #111 ) ;
#308 = DIRECTION ( 'NONE',  ( -0.000000000000000000, -1.000000000000000000, -0.000000000000000000 ) ) ;
#309 = ORIENTED_EDGE ( 'NONE', *, *, #163, .F. ) ;
ENDSEC;
END-ISO-10303-21;
