ISO-10303-21;
HEADER;
FILE_DESCRIPTION (( 'STEP AP214' ),
    '1' );
FILE_NAME ('59717.STEP',
    '2023-07-24T15:28:09',
    ( '' ),
    ( '' ),
    'SwSTEP 2.0',
    'SolidWorks 2023',
    '' );
FILE_SCHEMA (( 'AUTOMOTIVE_DESIGN' ));
ENDSEC;

DATA;
#1 =( NAMED_UNIT ( * ) SI_UNIT ( $, .STERADIAN. ) SOLID_ANGLE_UNIT ( ) );
#2 = UNCERTAINTY_MEASURE_WITH_UNIT (LENGTH_MEASURE( 1.000000000000000082E-05 ), #15, 'distance_accuracy_value', 'NONE');
#3 = CARTESIAN_POINT ( 'NONE',  ( 8.000000000000000000, 89.00000000000000000, 0.000000000000000000 ) ) ;
#4 = DIRECTION ( 'NONE',  ( -1.231212018341879827E-16, 1.000000000000000000, -0.000000000000000000 ) ) ;
#5 = PLANE ( 'NONE',  #18 ) ;
#6 = PRESENTATION_LAYER_ASSIGNMENT (  '', '', ( #213 ) ) ;
#7 = SURFACE_STYLE_FILL_AREA ( #357 ) ;
#8 = ORIENTED_EDGE ( 'NONE', *, *, #162, .T. ) ;
#9 =( NAMED_UNIT ( * ) SI_UNIT ( $, .STERADIAN. ) SOLID_ANGLE_UNIT ( ) );
#10 = CARTESIAN_POINT ( 'NONE',  ( 7.999999999999994671, 89.00000000000000000, 9.797174393178821713E-16 ) ) ;
#11 = ORIENTED_EDGE ( 'NONE', *, *, #157, .T. ) ;
#12 = EDGE_CURVE ( 'NONE', #313, #186, #156, .T. ) ;
#13 =( LENGTH_UNIT ( ) NAMED_UNIT ( * ) SI_UNIT ( .MILLI., .METRE. ) );
#14 = DIRECTION ( 'NONE',  ( -1.231212018341879827E-16, 1.000000000000000000, -0.000000000000000000 ) ) ;
#15 =( LENGTH_UNIT ( ) NAMED_UNIT ( * ) SI_UNIT ( .MILLI., .METRE. ) );
#16 = PLANE ( 'NONE',  #171 ) ;
#17 = VECTOR ( 'NONE', #14, 1000.000000000000000 ) ;
#18 = AXIS2_PLACEMENT_3D ( 'NONE', #3, #173, #345 ) ;
#19 = CIRCLE ( 'NONE', #65, 0.5000000000000004441 ) ;
#20 = DIRECTION ( 'NONE',  ( 0.000000000000000000, 0.000000000000000000, -1.000000000000000000 ) ) ;
#21 = DIRECTION ( 'NONE',  ( 0.000000000000000000, 0.000000000000000000, -1.000000000000000000 ) ) ;
#22 = CYLINDRICAL_SURFACE ( 'NONE', #286, 8.000000000000000000 ) ;
#23 = CIRCLE ( 'NONE', #247, 8.000000000000000000 ) ;
#24 = MECHANICAL_DESIGN_GEOMETRIC_PRESENTATION_REPRESENTATION (  '', ( #213 ), #134 ) ;
#25 = EDGE_CURVE ( 'NONE', #240, #175, #274, .T. ) ;
#26 = SURFACE_SIDE_STYLE ('',( #109 ) ) ;
#27 = DIRECTION ( 'NONE',  ( -1.000000000000000000, 0.000000000000000000, 0.000000000000000000 ) ) ;
#28 = APPLICATION_CONTEXT ( 'automotive_design' ) ;
#29 =( NAMED_UNIT ( * ) PLANE_ANGLE_UNIT ( ) SI_UNIT ( $, .RADIAN. ) );
#30 = ADVANCED_FACE ( 'NONE', ( #215 ), #354, .T. ) ;
#31 = CLOSED_SHELL ( 'NONE', ( #211, #257, #30, #107 ) ) ;
#32 = AXIS2_PLACEMENT_3D ( 'NONE', #54, #222, #67 ) ;
#33 = CARTESIAN_POINT ( 'NONE',  ( 0.000000000000000000, 24.00000000000000000, 0.000000000000000000 ) ) ;
#34 = CARTESIAN_POINT ( 'NONE',  ( 0.000000000000000000, 0.5000000000000000000, 0.000000000000000000 ) ) ;
#35 = DIRECTION ( 'NONE',  ( -1.231212018341879827E-16, 1.000000000000000000, -0.000000000000000000 ) ) ;
#36 = PLANE ( 'NONE',  #44 ) ;
#37 = VERTEX_POINT ( 'NONE', #181 ) ;
#38 = STYLED_ITEM ( 'NONE', ( #46 ), #229 ) ;
#39 = DIRECTION ( 'NONE',  ( -0.000000000000000000, -1.000000000000000000, -0.000000000000000000 ) ) ;
#40 = SURFACE_STYLE_FILL_AREA ( #348 ) ;
#41 = DIRECTION ( 'NONE',  ( 1.000000000000000000, 0.000000000000000000, -1.224646799147353207E-16 ) ) ;
#42 = CARTESIAN_POINT ( 'NONE',  ( 0.000000000000000000, 0.000000000000000000, 0.000000000000000000 ) ) ;
#43 = EDGE_LOOP ( 'NONE', ( #323, #11, #188, #137 ) ) ;
#44 = AXIS2_PLACEMENT_3D ( 'NONE', #42, #150, #263 ) ;
#45 = VECTOR ( 'NONE', #110, 1000.000000000000000 ) ;
#46 = PRESENTATION_STYLE_ASSIGNMENT (( #333 ) ) ;
#47 = DIRECTION ( 'NONE',  ( -1.000000000000000000, 0.000000000000000000, 0.000000000000000000 ) ) ;
#48 = FILL_AREA_STYLE ('',( #165 ) ) ;
#49 = CIRCLE ( 'NONE', #328, 7.500000000000000000 ) ;
#50 = CARTESIAN_POINT ( 'NONE',  ( 0.000000000000000000, 0.000000000000000000, 0.000000000000000000 ) ) ;
#51 =( LENGTH_UNIT ( ) NAMED_UNIT ( * ) SI_UNIT ( .MILLI., .METRE. ) );
#52 =( NAMED_UNIT ( * ) SI_UNIT ( $, .STERADIAN. ) SOLID_ANGLE_UNIT ( ) );
#53 = EDGE_CURVE ( 'NONE', #95, #37, #189, .T. ) ;
#54 = CARTESIAN_POINT ( 'NONE',  ( 0.000000000000000000, 0.000000000000000000, 0.000000000000000000 ) ) ;
#55 = ORIENTED_EDGE ( 'NONE', *, *, #25, .F. ) ;
#56 = PRESENTATION_LAYER_ASSIGNMENT (  '', '', ( #362 ) ) ;
#57 = MECHANICAL_DESIGN_GEOMETRIC_PRESENTATION_REPRESENTATION (  '', ( #136 ), #153 ) ;
#58 = SURFACE_STYLE_USAGE ( .BOTH. , #26 ) ;
#59 = ORIENTED_EDGE ( 'NONE', *, *, #162, .F. ) ;
#60 = FILL_AREA_STYLE_COLOUR ( '', #279 ) ;
#61 =( LENGTH_UNIT ( ) NAMED_UNIT ( * ) SI_UNIT ( .MILLI., .METRE. ) );
#62 = DIRECTION ( 'NONE',  ( -0.000000000000000000, -1.000000000000000000, -0.000000000000000000 ) ) ;
#63 = AXIS2_PLACEMENT_3D ( 'NONE', #85, #259, #93 ) ;
#64 =( GEOMETRIC_REPRESENTATION_CONTEXT ( 3 ) GLOBAL_UNCERTAINTY_ASSIGNED_CONTEXT ( ( #227 ) ) GLOBAL_UNIT_ASSIGNED_CONTEXT ( ( #306, #102, #216 ) ) REPRESENTATION_CONTEXT ( 'NONE', 'WORKASPACE' ) );
#65 = AXIS2_PLACEMENT_3D ( 'NONE', #319, #154, #355 ) ;
#66 =( LENGTH_UNIT ( ) NAMED_UNIT ( * ) SI_UNIT ( .MILLI., .METRE. ) );
#67 = DIRECTION ( 'NONE',  ( 0.000000000000000000, 0.000000000000000000, -1.000000000000000000 ) ) ;
#68 = ORIENTED_EDGE ( 'NONE', *, *, #157, .F. ) ;
#69 = PRODUCT_DEFINITION_CONTEXT ( 'detailed design', #28, 'design' ) ;
#70 = CARTESIAN_POINT ( 'NONE',  ( -1.714505518806293849E-15, 89.00000000000000000, 0.000000000000000000 ) ) ;
#71 = DIRECTION ( 'NONE',  ( -1.000000000000000000, 0.000000000000000000, 0.000000000000000000 ) ) ;
#72 = DIRECTION ( 'NONE',  ( -0.000000000000000000, -1.000000000000000000, -0.000000000000000000 ) ) ;
#73 = ORIENTED_EDGE ( 'NONE', *, *, #12, .F. ) ;
#74 = AXIS2_PLACEMENT_3D ( 'NONE', #209, #325, #47 ) ;
#75 = FILL_AREA_STYLE_COLOUR ( '', #114 ) ;
#76 = PRODUCT_CONTEXT ( 'NONE', #187, 'mechanical' ) ;
#77 = EDGE_CURVE ( 'NONE', #218, #124, #23, .T. ) ;
#78 = FILL_AREA_STYLE_COLOUR ( '', #89 ) ;
#79 = SURFACE_STYLE_USAGE ( .BOTH. , #139 ) ;
#80 = VECTOR ( 'NONE', #353, 1000.000000000000000 ) ;
#81 = PRESENTATION_STYLE_ASSIGNMENT (( #164 ) ) ;
#82 = UNCERTAINTY_MEASURE_WITH_UNIT (LENGTH_MEASURE( 1.000000000000000082E-05 ), #13, 'distance_accuracy_value', 'NONE');
#83 = DIRECTION ( 'NONE',  ( -1.000000000000000000, 0.000000000000000000, 0.000000000000000000 ) ) ;
#84 = PRESENTATION_LAYER_ASSIGNMENT (  '', '', ( #226 ) ) ;
#85 = CARTESIAN_POINT ( 'NONE',  ( -1.714505518806293652E-15, 89.00000000000000000, 0.000000000000000000 ) ) ;
#86 = ORIENTED_EDGE ( 'NONE', *, *, #132, .T. ) ;
#87 = SURFACE_STYLE_USAGE ( .BOTH. , #349 ) ;
#88 = MECHANICAL_DESIGN_GEOMETRIC_PRESENTATION_REPRESENTATION (  '', ( #334 ), #242 ) ;
#89 = COLOUR_RGB ( '',1.000000000000000000, 0.000000000000000000, 0.000000000000000000 ) ;
#90 = AXIS2_PLACEMENT_3D ( 'NONE', #280, #248, #21 ) ;
#91 = ORIENTED_EDGE ( 'NONE', *, *, #335, .T. ) ;
#92 = MANIFOLD_SOLID_BREP ( 'Revolve - Cutting Edge', #170 ) ;
#93 = DIRECTION ( 'NONE',  ( -1.000000000000000000, 0.000000000000000000, 0.000000000000000000 ) ) ;
#94 =( NAMED_UNIT ( * ) PLANE_ANGLE_UNIT ( ) SI_UNIT ( $, .RADIAN. ) );
#95 = VERTEX_POINT ( 'NONE', #122 ) ;
#96 = MANIFOLD_SOLID_BREP ( 'Revolve - Tool Body (Straight Shanked)', #31 ) ;
#97 = SURFACE_SIDE_STYLE ('',( #7 ) ) ;
#98 = ORIENTED_EDGE ( 'NONE', *, *, #296, .T. ) ;
#99 = ADVANCED_FACE ( 'NONE', ( #195 ), #167, .T. ) ;
#100 = CIRCLE ( 'NONE', #174, 0.5000000000000004441 ) ;
#101 = EDGE_LOOP ( 'NONE', ( #297, #326, #271, #287 ) ) ;
#102 =( NAMED_UNIT ( * ) PLANE_ANGLE_UNIT ( ) SI_UNIT ( $, .RADIAN. ) );
#103 = ORIENTED_EDGE ( 'NONE', *, *, #318, .F. ) ;
#104 = DIRECTION ( 'NONE',  ( 1.000000000000000000, 0.000000000000000000, 0.000000000000000000 ) ) ;
#105 = LINE ( 'NONE', #283, #45 ) ;
#106 = PRESENTATION_LAYER_ASSIGNMENT (  '', '', ( #334 ) ) ;
#107 = ADVANCED_FACE ( 'NONE', ( #184 ), #5, .F. ) ;
#108 = SURFACE_STYLE_FILL_AREA ( #253 ) ;
#109 = SURFACE_STYLE_FILL_AREA ( #48 ) ;
#110 = DIRECTION ( 'NONE',  ( -0.000000000000000000, -1.000000000000000000, -0.000000000000000000 ) ) ;
#111 = CIRCLE ( 'NONE', #275, 8.000000000000000000 ) ;
#112 = PRESENTATION_LAYER_ASSIGNMENT (  '', '', ( #197 ) ) ;
#113 = FILL_AREA_STYLE_COLOUR ( '', #168 ) ;
#114 = COLOUR_RGB ( '',0.7921568627450980005, 0.8196078431372548767, 0.9333333333333333481 ) ;
#115 = EDGE_CURVE ( 'NONE', #356, #186, #225, .T. ) ;
#116 = CARTESIAN_POINT ( 'NONE',  ( 6.288372600415925717E-15, 23.99999999999999289, 0.000000000000000000 ) ) ;
#117 = DIRECTION ( 'NONE',  ( -1.231212018341879827E-16, 1.000000000000000000, -0.000000000000000000 ) ) ;
#118 =( NAMED_UNIT ( * ) SI_UNIT ( $, .STERADIAN. ) SOLID_ANGLE_UNIT ( ) );
#119 = ORIENTED_EDGE ( 'NONE', *, *, #277, .T. ) ;
#120 = CARTESIAN_POINT ( 'NONE',  ( -8.000000000000003553, 89.00000000000000000, 0.000000000000000000 ) ) ;
#121 = AXIS2_PLACEMENT_3D ( 'NONE', #70, #179, #27 ) ;
#122 = CARTESIAN_POINT ( 'NONE',  ( 0.000000000000000000, 0.000000000000000000, -7.500000000000000000 ) ) ;
#123 = SURFACE_STYLE_USAGE ( .BOTH. , #97 ) ;
#124 = VERTEX_POINT ( 'NONE', #293 ) ;
#125 = DIRECTION ( 'NONE',  ( -0.000000000000000000, -1.000000000000000000, -0.000000000000000000 ) ) ;
#126 = DIRECTION ( 'NONE',  ( 0.000000000000000000, 0.000000000000000000, -1.000000000000000000 ) ) ;
#127 = PRODUCT_RELATED_PRODUCT_CATEGORY ( 'part', '', ( #140 ) ) ;
#128 = CARTESIAN_POINT ( 'NONE',  ( 6.288372600415925717E-15, 24.00000000000000000, 0.000000000000000000 ) ) ;
#129 = DIRECTION ( 'NONE',  ( -0.000000000000000000, -1.000000000000000000, -0.000000000000000000 ) ) ;
#130 = EDGE_LOOP ( 'NONE', ( #8, #255 ) ) ;
#131 =( NAMED_UNIT ( * ) PLANE_ANGLE_UNIT ( ) SI_UNIT ( $, .RADIAN. ) );
#132 = EDGE_CURVE ( 'NONE', #124, #218, #111, .T. ) ;
#133 = CARTESIAN_POINT ( 'NONE',  ( 8.000000000000000000, 89.00000000000000000, 9.797174393178825657E-16 ) ) ;
#134 =( GEOMETRIC_REPRESENTATION_CONTEXT ( 3 ) GLOBAL_UNCERTAINTY_ASSIGNED_CONTEXT ( ( #292 ) ) GLOBAL_UNIT_ASSIGNED_CONTEXT ( ( #143, #29, #1 ) ) REPRESENTATION_CONTEXT ( 'NONE', 'WORKASPACE' ) );
#135 = FACE_OUTER_BOUND ( 'NONE', #151, .T. ) ;
#136 = STYLED_ITEM ( 'NONE', ( #81 ), #310 ) ;
#137 = ORIENTED_EDGE ( 'NONE', *, *, #115, .F. ) ;
#138 = UNCERTAINTY_MEASURE_WITH_UNIT (LENGTH_MEASURE( 1.000000000000000082E-05 ), #224, 'distance_accuracy_value', 'NONE');
#139 = SURFACE_SIDE_STYLE ('',( #312 ) ) ;
#140 = PRODUCT ( '59717', '59717', '', ( #76 ) ) ;
#141 = CARTESIAN_POINT ( 'NONE',  ( 0.000000000000000000, 24.00000000000000000, -8.000000000000000000 ) ) ;
#142 = ORIENTED_EDGE ( 'NONE', *, *, #318, .T. ) ;
#143 =( LENGTH_UNIT ( ) NAMED_UNIT ( * ) SI_UNIT ( .MILLI., .METRE. ) );
#144 = COLOUR_RGB ( '',1.000000000000000000, 0.000000000000000000, 0.000000000000000000 ) ;
#145 = EDGE_LOOP ( 'NONE', ( #264, #119 ) ) ;
#146 = UNCERTAINTY_MEASURE_WITH_UNIT (LENGTH_MEASURE( 1.000000000000000082E-05 ), #66, 'distance_accuracy_value', 'NONE');
#147 = CARTESIAN_POINT ( 'NONE',  ( 0.000000000000000000, 0.5000000000000000000, 0.000000000000000000 ) ) ;
#148 = EDGE_LOOP ( 'NONE', ( #203, #68 ) ) ;
#149 = CARTESIAN_POINT ( 'NONE',  ( 0.000000000000000000, 24.00000000000000000, 0.000000000000000000 ) ) ;
#150 = DIRECTION ( 'NONE',  ( 0.000000000000000000, -1.000000000000000000, -0.000000000000000000 ) ) ;
#151 = EDGE_LOOP ( 'NONE', ( #159, #142, #303, #358 ) ) ;
#152 = AXIS2_PLACEMENT_3D ( 'NONE', #34, #129, #260 ) ;
#153 =( GEOMETRIC_REPRESENTATION_CONTEXT ( 3 ) GLOBAL_UNCERTAINTY_ASSIGNED_CONTEXT ( ( #261 ) ) GLOBAL_UNIT_ASSIGNED_CONTEXT ( ( #166, #192, #52 ) ) REPRESENTATION_CONTEXT ( 'NONE', 'WORKASPACE' ) );
#154 = DIRECTION ( 'NONE',  ( -1.000000000000000000, 0.000000000000000000, 0.000000000000000000 ) ) ;
#155 = FACE_OUTER_BOUND ( 'NONE', #145, .T. ) ;
#156 = LINE ( 'NONE', #294, #17 ) ;
#157 = EDGE_CURVE ( 'NONE', #178, #313, #300, .T. ) ;
#158 = FILL_AREA_STYLE_COLOUR ( '', #144 ) ;
#159 = ORIENTED_EDGE ( 'NONE', *, *, #77, .T. ) ;
#160 = MECHANICAL_DESIGN_GEOMETRIC_PRESENTATION_REPRESENTATION (  '', ( #316 ), #339 ) ;
#161 = FACE_OUTER_BOUND ( 'NONE', #101, .T. ) ;
#162 = EDGE_CURVE ( 'NONE', #186, #356, #363, .T. ) ;
#163 =( NAMED_UNIT ( * ) PLANE_ANGLE_UNIT ( ) SI_UNIT ( $, .RADIAN. ) );
#164 = SURFACE_STYLE_USAGE ( .BOTH. , #223 ) ;
#165 = FILL_AREA_STYLE_COLOUR ( '', #196 ) ;
#166 =( LENGTH_UNIT ( ) NAMED_UNIT ( * ) SI_UNIT ( .MILLI., .METRE. ) );
#167 = TOROIDAL_SURFACE ( 'NONE', #369, 7.500000000000000000, 0.5000000000000002220 ) ;
#168 = COLOUR_RGB ( '',1.000000000000000000, 0.000000000000000000, 0.000000000000000000 ) ;
#169 = SHAPE_DEFINITION_REPRESENTATION ( #180, #346 ) ;
#170 = CLOSED_SHELL ( 'NONE', ( #310, #99, #302, #288, #229, #183 ) ) ;
#171 = AXIS2_PLACEMENT_3D ( 'NONE', #128, #239, #361 ) ;
#172 = CARTESIAN_POINT ( 'NONE',  ( 0.000000000000000000, 0.5000000000000000000, -8.000000000000000000 ) ) ;
#173 = DIRECTION ( 'NONE',  ( 1.231212018341879827E-16, -1.000000000000000000, 0.000000000000000000 ) ) ;
#174 = AXIS2_PLACEMENT_3D ( 'NONE', #237, #41, #270 ) ;
#175 = VERTEX_POINT ( 'NONE', #172 ) ;
#176 = DIRECTION ( 'NONE',  ( 0.000000000000000000, 0.000000000000000000, -1.000000000000000000 ) ) ;
#177 = PRESENTATION_STYLE_ASSIGNMENT (( #331 ) ) ;
#178 = VERTEX_POINT ( 'NONE', #199 ) ;
#179 = DIRECTION ( 'NONE',  ( -1.231212018341879827E-16, 1.000000000000000000, -0.000000000000000000 ) ) ;
#180 = PRODUCT_DEFINITION_SHAPE ( 'NONE', 'NONE',  #217 ) ;
#181 = CARTESIAN_POINT ( 'NONE',  ( 9.491012693391985815E-16, 0.000000000000000000, 7.500000000000000000 ) ) ;
#182 = VECTOR ( 'NONE', #298, 1000.000000000000000 ) ;
#183 = ADVANCED_FACE ( 'NONE', ( #317 ), #295, .T. ) ;
#184 = FACE_OUTER_BOUND ( 'NONE', #130, .T. ) ;
#185 = CARTESIAN_POINT ( 'NONE',  ( 0.000000000000000000, 0.5000000000000000000, 0.000000000000000000 ) ) ;
#186 = VERTEX_POINT ( 'NONE', #120 ) ;
#187 = APPLICATION_CONTEXT ( 'automotive_design' ) ;
#188 = ORIENTED_EDGE ( 'NONE', *, *, #12, .T. ) ;
#189 = CIRCLE ( 'NONE', #284, 7.500000000000000000 ) ;
#190 = AXIS2_PLACEMENT_3D ( 'NONE', #116, #35, #204 ) ;
#191 = SURFACE_SIDE_STYLE ('',( #232 ) ) ;
#192 =( NAMED_UNIT ( * ) PLANE_ANGLE_UNIT ( ) SI_UNIT ( $, .RADIAN. ) );
#193 = MECHANICAL_DESIGN_GEOMETRIC_PRESENTATION_REPRESENTATION (  '', ( #362 ), #265 ) ;
#194 = DIRECTION ( 'NONE',  ( 0.000000000000000000, 0.000000000000000000, -1.000000000000000000 ) ) ;
#195 = FACE_OUTER_BOUND ( 'NONE', #230, .T. ) ;
#196 = COLOUR_RGB ( '',0.7921568627450980005, 0.8196078431372548767, 0.9333333333333333481 ) ;
#197 = STYLED_ITEM ( 'NONE', ( #177 ), #302 ) ;
#198 = UNCERTAINTY_MEASURE_WITH_UNIT (LENGTH_MEASURE( 1.000000000000000082E-05 ), #61, 'distance_accuracy_value', 'NONE');
#199 = CARTESIAN_POINT ( 'NONE',  ( 8.000000000000000000, 23.99999999999999289, 9.797174393178825657E-16 ) ) ;
#200 = EDGE_CURVE ( 'NONE', #218, #175, #235, .T. ) ;
#201 = PRESENTATION_STYLE_ASSIGNMENT (( #58 ) ) ;
#202 = DIRECTION ( 'NONE',  ( -0.000000000000000000, -1.000000000000000000, -0.000000000000000000 ) ) ;
#203 = ORIENTED_EDGE ( 'NONE', *, *, #309, .F. ) ;
#204 = DIRECTION ( 'NONE',  ( -1.000000000000000000, 0.000000000000000000, 0.000000000000000000 ) ) ;
#205 = MECHANICAL_DESIGN_GEOMETRIC_PRESENTATION_REPRESENTATION (  '', ( #197 ), #359 ) ;
#206 = PRESENTATION_STYLE_ASSIGNMENT (( #123 ) ) ;
#207 = ORIENTED_EDGE ( 'NONE', *, *, #132, .F. ) ;
#208 = DIRECTION ( 'NONE',  ( 0.000000000000000000, 0.000000000000000000, -1.000000000000000000 ) ) ;
#209 = CARTESIAN_POINT ( 'NONE',  ( 6.288372600415925717E-15, 23.99999999999999289, 0.000000000000000000 ) ) ;
#210 = EDGE_LOOP ( 'NONE', ( #332, #207 ) ) ;
#211 = ADVANCED_FACE ( 'NONE', ( #324 ), #368, .T. ) ;
#212 = ORIENTED_EDGE ( 'NONE', *, *, #53, .F. ) ;
#213 = STYLED_ITEM ( 'NONE', ( #289 ), #183 ) ;
#214 = FACE_OUTER_BOUND ( 'NONE', #148, .T. ) ;
#215 = FACE_OUTER_BOUND ( 'NONE', #43, .T. ) ;
#216 =( NAMED_UNIT ( * ) SI_UNIT ( $, .STERADIAN. ) SOLID_ANGLE_UNIT ( ) );
#217 = PRODUCT_DEFINITION ( 'UNKNOWN', '', #351, #69 ) ;
#218 = VERTEX_POINT ( 'NONE', #141 ) ;
#219 = CARTESIAN_POINT ( 'NONE',  ( 0.000000000000000000, 0.000000000000000000, 0.000000000000000000 ) ) ;
#220 = COLOUR_RGB ( '',1.000000000000000000, 0.000000000000000000, 0.000000000000000000 ) ;
#221 = CARTESIAN_POINT ( 'NONE',  ( -7.999999999999986677, 23.99999999999999289, 0.000000000000000000 ) ) ;
#222 = DIRECTION ( 'NONE',  ( -0.000000000000000000, -1.000000000000000000, -0.000000000000000000 ) ) ;
#223 = SURFACE_SIDE_STYLE ('',( #108 ) ) ;
#224 =( LENGTH_UNIT ( ) NAMED_UNIT ( * ) SI_UNIT ( .MILLI., .METRE. ) );
#225 = CIRCLE ( 'NONE', #63, 8.000000000000001776 ) ;
#226 = STYLED_ITEM ( 'NONE', ( #206 ), #288 ) ;
#227 = UNCERTAINTY_MEASURE_WITH_UNIT (LENGTH_MEASURE( 1.000000000000000082E-05 ), #306, 'distance_accuracy_value', 'NONE');
#228 = CIRCLE ( 'NONE', #90, 8.000000000000000000 ) ;
#229 = ADVANCED_FACE ( 'NONE', ( #256 ), #367, .T. ) ;
#230 = EDGE_LOOP ( 'NONE', ( #91, #98, #212, #305 ) ) ;
#231 = CARTESIAN_POINT ( 'NONE',  ( 0.000000000000000000, 0.000000000000000000, -8.000000000000000000 ) ) ;
#232 = SURFACE_STYLE_FILL_AREA ( #236 ) ;
#233 = FILL_AREA_STYLE ('',( #60 ) ) ;
#234 = ORIENTED_EDGE ( 'NONE', *, *, #249, .T. ) ;
#235 = LINE ( 'NONE', #231, #80 ) ;
#236 = FILL_AREA_STYLE ('',( #75 ) ) ;
#237 = CARTESIAN_POINT ( 'NONE',  ( 9.184850993605147944E-16, 0.5000000000000000000, 7.500000000000000000 ) ) ;
#238 = ORIENTED_EDGE ( 'NONE', *, *, #309, .T. ) ;
#239 = DIRECTION ( 'NONE',  ( -1.231212018341879827E-16, 1.000000000000000000, 0.000000000000000000 ) ) ;
#240 = VERTEX_POINT ( 'NONE', #342 ) ;
#241 = LINE ( 'NONE', #10, #182 ) ;
#242 =( GEOMETRIC_REPRESENTATION_CONTEXT ( 3 ) GLOBAL_UNCERTAINTY_ASSIGNED_CONTEXT ( ( #198 ) ) GLOBAL_UNIT_ASSIGNED_CONTEXT ( ( #61, #322, #9 ) ) REPRESENTATION_CONTEXT ( 'NONE', 'WORKASPACE' ) );
#243 = MECHANICAL_DESIGN_GEOMETRIC_PRESENTATION_REPRESENTATION (  '', ( #38 ), #336 ) ;
#244 = EDGE_CURVE ( 'NONE', #175, #95, #19, .T. ) ;
#245 = SURFACE_STYLE_FILL_AREA ( #272 ) ;
#246 =( NAMED_UNIT ( * ) SI_UNIT ( $, .STERADIAN. ) SOLID_ANGLE_UNIT ( ) );
#247 = AXIS2_PLACEMENT_3D ( 'NONE', #327, #72, #330 ) ;
#248 = DIRECTION ( 'NONE',  ( -0.000000000000000000, -1.000000000000000000, -0.000000000000000000 ) ) ;
#249 = EDGE_CURVE ( 'NONE', #178, #356, #241, .T. ) ;
#250 =( NAMED_UNIT ( * ) PLANE_ANGLE_UNIT ( ) SI_UNIT ( $, .RADIAN. ) );
#251 =( NAMED_UNIT ( * ) SI_UNIT ( $, .STERADIAN. ) SOLID_ANGLE_UNIT ( ) );
#252 = AXIS2_PLACEMENT_3D ( 'NONE', #299, #4, #71 ) ;
#253 = FILL_AREA_STYLE ('',( #78 ) ) ;
#254 = CIRCLE ( 'NONE', #74, 7.999999999999992895 ) ;
#255 = ORIENTED_EDGE ( 'NONE', *, *, #115, .T. ) ;
#256 = FACE_OUTER_BOUND ( 'NONE', #366, .T. ) ;
#257 = ADVANCED_FACE ( 'NONE', ( #214 ), #16, .F. ) ;
#258 = DIRECTION ( 'NONE',  ( 0.000000000000000000, -0.000000000000000000, 1.000000000000000000 ) ) ;
#259 = DIRECTION ( 'NONE',  ( -1.231212018341879827E-16, 1.000000000000000000, -0.000000000000000000 ) ) ;
#260 = DIRECTION ( 'NONE',  ( 0.000000000000000000, 0.000000000000000000, -1.000000000000000000 ) ) ;
#261 = UNCERTAINTY_MEASURE_WITH_UNIT (LENGTH_MEASURE( 1.000000000000000082E-05 ), #166, 'distance_accuracy_value', 'NONE');
#262 = DIRECTION ( 'NONE',  ( 0.000000000000000000, 1.000000000000000000, 0.000000000000000000 ) ) ;
#263 = DIRECTION ( 'NONE',  ( 0.000000000000000000, 0.000000000000000000, -1.000000000000000000 ) ) ;
#264 = ORIENTED_EDGE ( 'NONE', *, *, #53, .T. ) ;
#265 =( GEOMETRIC_REPRESENTATION_CONTEXT ( 3 ) GLOBAL_UNCERTAINTY_ASSIGNED_CONTEXT ( ( #146 ) ) GLOBAL_UNIT_ASSIGNED_CONTEXT ( ( #66, #163, #118 ) ) REPRESENTATION_CONTEXT ( 'NONE', 'WORKASPACE' ) );
#266 = FILL_AREA_STYLE_COLOUR ( '', #220 ) ;
#267 = SURFACE_SIDE_STYLE ('',( #40 ) ) ;
#268 =( NAMED_UNIT ( * ) SI_UNIT ( $, .STERADIAN. ) SOLID_ANGLE_UNIT ( ) );
#269 = SURFACE_STYLE_USAGE ( .BOTH. , #191 ) ;
#270 = DIRECTION ( 'NONE',  ( -1.224646799147353454E-16, 0.000000000000000000, -1.000000000000000000 ) ) ;
#271 = ORIENTED_EDGE ( 'NONE', *, *, #244, .T. ) ;
#272 = FILL_AREA_STYLE ('',( #158 ) ) ;
#273 = ORIENTED_EDGE ( 'NONE', *, *, #200, .T. ) ;
#274 = CIRCLE ( 'NONE', #152, 8.000000000000000000 ) ;
#275 = AXIS2_PLACEMENT_3D ( 'NONE', #33, #202, #208 ) ;
#276 = DIRECTION ( 'NONE',  ( -0.000000000000000000, -1.000000000000000000, -0.000000000000000000 ) ) ;
#277 = EDGE_CURVE ( 'NONE', #37, #95, #49, .T. ) ;
#278 = PRESENTATION_LAYER_ASSIGNMENT (  '', '', ( #316 ) ) ;
#279 = COLOUR_RGB ( '',1.000000000000000000, 0.000000000000000000, 0.000000000000000000 ) ;
#280 = CARTESIAN_POINT ( 'NONE',  ( 0.000000000000000000, 0.5000000000000000000, 0.000000000000000000 ) ) ;
#281 = FILL_AREA_STYLE ('',( #282 ) ) ;
#282 = FILL_AREA_STYLE_COLOUR ( '', #290 ) ;
#283 = CARTESIAN_POINT ( 'NONE',  ( 9.797174393178825657E-16, 0.000000000000000000, 8.000000000000000000 ) ) ;
#284 = AXIS2_PLACEMENT_3D ( 'NONE', #352, #39, #126 ) ;
#285 = MECHANICAL_DESIGN_GEOMETRIC_PRESENTATION_REPRESENTATION (  '', ( #226 ), #64 ) ;
#286 = AXIS2_PLACEMENT_3D ( 'NONE', #219, #276, #194 ) ;
#287 = ORIENTED_EDGE ( 'NONE', *, *, #277, .F. ) ;
#288 = ADVANCED_FACE ( 'NONE', ( #161 ), #365, .T. ) ;
#289 = PRESENTATION_STYLE_ASSIGNMENT (( #87 ) ) ;
#290 = COLOUR_RGB ( '',1.000000000000000000, 0.000000000000000000, 0.000000000000000000 ) ;
#291 = AXIS2_PLACEMENT_3D ( 'NONE', #185, #301, #20 ) ;
#292 = UNCERTAINTY_MEASURE_WITH_UNIT (LENGTH_MEASURE( 1.000000000000000082E-05 ), #143, 'distance_accuracy_value', 'NONE');
#293 = CARTESIAN_POINT ( 'NONE',  ( 9.797174393178825657E-16, 24.00000000000000000, 8.000000000000000000 ) ) ;
#294 = CARTESIAN_POINT ( 'NONE',  ( -7.999999999999998224, 89.00000000000000000, 0.000000000000000000 ) ) ;
#295 = PLANE ( 'NONE',  #340 ) ;
#296 = EDGE_CURVE ( 'NONE', #240, #37, #100, .T. ) ;
#297 = ORIENTED_EDGE ( 'NONE', *, *, #296, .F. ) ;
#298 = DIRECTION ( 'NONE',  ( -1.231212018341879827E-16, 1.000000000000000000, -0.000000000000000000 ) ) ;
#299 = CARTESIAN_POINT ( 'NONE',  ( -1.714505518806293849E-15, 89.00000000000000000, 0.000000000000000000 ) ) ;
#300 = CIRCLE ( 'NONE', #190, 7.999999999999992895 ) ;
#301 = DIRECTION ( 'NONE',  ( -0.000000000000000000, -1.000000000000000000, -0.000000000000000000 ) ) ;
#302 = ADVANCED_FACE ( 'NONE', ( #155 ), #36, .T. ) ;
#303 = ORIENTED_EDGE ( 'NONE', *, *, #335, .F. ) ;
#304 = DIRECTION ( 'NONE',  ( 0.000000000000000000, 0.000000000000000000, -1.000000000000000000 ) ) ;
#305 = ORIENTED_EDGE ( 'NONE', *, *, #244, .F. ) ;
#306 =( LENGTH_UNIT ( ) NAMED_UNIT ( * ) SI_UNIT ( .MILLI., .METRE. ) );
#307 = PRESENTATION_LAYER_ASSIGNMENT (  '', '', ( #38 ) ) ;
#308 = PRESENTATION_STYLE_ASSIGNMENT (( #269 ) ) ;
#309 = EDGE_CURVE ( 'NONE', #313, #178, #254, .T. ) ;
#310 = ADVANCED_FACE ( 'NONE', ( #135 ), #22, .T. ) ;
#311 =( NAMED_UNIT ( * ) SI_UNIT ( $, .STERADIAN. ) SOLID_ANGLE_UNIT ( ) );
#312 = SURFACE_STYLE_FILL_AREA ( #281 ) ;
#313 = VERTEX_POINT ( 'NONE', #221 ) ;
#314 = UNCERTAINTY_MEASURE_WITH_UNIT (LENGTH_MEASURE( 1.000000000000000082E-05 ), #51, 'distance_accuracy_value', 'NONE');
#315 =( NAMED_UNIT ( * ) PLANE_ANGLE_UNIT ( ) SI_UNIT ( $, .RADIAN. ) );
#316 = STYLED_ITEM ( 'NONE', ( #341 ), #99 ) ;
#317 = FACE_OUTER_BOUND ( 'NONE', #210, .T. ) ;
#318 = EDGE_CURVE ( 'NONE', #124, #240, #105, .T. ) ;
#319 = CARTESIAN_POINT ( 'NONE',  ( 0.000000000000000000, 0.5000000000000000000, -7.500000000000000000 ) ) ;
#320 = SURFACE_STYLE_FILL_AREA ( #233 ) ;
#321 = AXIS2_PLACEMENT_3D ( 'NONE', #50, #364, #104 ) ;
#322 =( NAMED_UNIT ( * ) PLANE_ANGLE_UNIT ( ) SI_UNIT ( $, .RADIAN. ) );
#323 = ORIENTED_EDGE ( 'NONE', *, *, #249, .F. ) ;
#324 = FACE_OUTER_BOUND ( 'NONE', #347, .T. ) ;
#325 = DIRECTION ( 'NONE',  ( -1.231212018341879827E-16, 1.000000000000000000, -0.000000000000000000 ) ) ;
#326 = ORIENTED_EDGE ( 'NONE', *, *, #25, .T. ) ;
#327 = CARTESIAN_POINT ( 'NONE',  ( 0.000000000000000000, 24.00000000000000000, 0.000000000000000000 ) ) ;
#328 = AXIS2_PLACEMENT_3D ( 'NONE', #329, #125, #304 ) ;
#329 = CARTESIAN_POINT ( 'NONE',  ( 0.000000000000000000, 0.000000000000000000, 0.000000000000000000 ) ) ;
#330 = DIRECTION ( 'NONE',  ( 0.000000000000000000, 0.000000000000000000, -1.000000000000000000 ) ) ;
#331 = SURFACE_STYLE_USAGE ( .BOTH. , #360 ) ;
#332 = ORIENTED_EDGE ( 'NONE', *, *, #77, .F. ) ;
#333 = SURFACE_STYLE_USAGE ( .BOTH. , #267 ) ;
#334 = STYLED_ITEM ( 'NONE', ( #201 ), #92 ) ;
#335 = EDGE_CURVE ( 'NONE', #175, #240, #228, .T. ) ;
#336 =( GEOMETRIC_REPRESENTATION_CONTEXT ( 3 ) GLOBAL_UNCERTAINTY_ASSIGNED_CONTEXT ( ( #2 ) ) GLOBAL_UNIT_ASSIGNED_CONTEXT ( ( #15, #131, #268 ) ) REPRESENTATION_CONTEXT ( 'NONE', 'WORKASPACE' ) );
#337 = APPLICATION_PROTOCOL_DEFINITION ( 'draft international standard', 'automotive_design', 1998, #187 ) ;
#338 = APPLICATION_PROTOCOL_DEFINITION ( 'draft international standard', 'automotive_design', 1998, #28 ) ;
#339 =( GEOMETRIC_REPRESENTATION_CONTEXT ( 3 ) GLOBAL_UNCERTAINTY_ASSIGNED_CONTEXT ( ( #314 ) ) GLOBAL_UNIT_ASSIGNED_CONTEXT ( ( #51, #315, #251 ) ) REPRESENTATION_CONTEXT ( 'NONE', 'WORKASPACE' ) );
#340 = AXIS2_PLACEMENT_3D ( 'NONE', #149, #262, #258 ) ;
#341 = PRESENTATION_STYLE_ASSIGNMENT (( #79 ) ) ;
#342 = CARTESIAN_POINT ( 'NONE',  ( 9.797174393178825657E-16, 0.5000000000000000000, 8.000000000000000000 ) ) ;
#343 = CARTESIAN_POINT ( 'NONE',  ( -1.714505518806293652E-15, 89.00000000000000000, 0.000000000000000000 ) ) ;
#344 = AXIS2_PLACEMENT_3D ( 'NONE', #343, #117, #83 ) ;
#345 = DIRECTION ( 'NONE',  ( 1.000000000000000000, 1.231212018341879827E-16, 0.000000000000000000 ) ) ;
#346 = ADVANCED_BREP_SHAPE_REPRESENTATION ( '59717', ( #92, #96, #321 ), #370 ) ;
#347 = EDGE_LOOP ( 'NONE', ( #238, #234, #59, #73 ) ) ;
#348 = FILL_AREA_STYLE ('',( #113 ) ) ;
#349 = SURFACE_SIDE_STYLE ('',( #320 ) ) ;
#350 = PRESENTATION_LAYER_ASSIGNMENT (  '', '', ( #136 ) ) ;
#351 = PRODUCT_DEFINITION_FORMATION_WITH_SPECIFIED_SOURCE ( 'ANY', '', #140, .NOT_KNOWN. ) ;
#352 = CARTESIAN_POINT ( 'NONE',  ( 0.000000000000000000, 0.000000000000000000, 0.000000000000000000 ) ) ;
#353 = DIRECTION ( 'NONE',  ( -0.000000000000000000, -1.000000000000000000, -0.000000000000000000 ) ) ;
#354 = CYLINDRICAL_SURFACE ( 'NONE', #252, 7.999999999999996447 ) ;
#355 = DIRECTION ( 'NONE',  ( 0.000000000000000000, 0.000000000000000000, 1.000000000000000000 ) ) ;
#356 = VERTEX_POINT ( 'NONE', #133 ) ;
#357 = FILL_AREA_STYLE ('',( #266 ) ) ;
#358 = ORIENTED_EDGE ( 'NONE', *, *, #200, .F. ) ;
#359 =( GEOMETRIC_REPRESENTATION_CONTEXT ( 3 ) GLOBAL_UNCERTAINTY_ASSIGNED_CONTEXT ( ( #82 ) ) GLOBAL_UNIT_ASSIGNED_CONTEXT ( ( #13, #94, #246 ) ) REPRESENTATION_CONTEXT ( 'NONE', 'WORKASPACE' ) );
#360 = SURFACE_SIDE_STYLE ('',( #245 ) ) ;
#361 = DIRECTION ( 'NONE',  ( -1.000000000000000000, -1.231212018341879827E-16, 0.000000000000000000 ) ) ;
#362 = STYLED_ITEM ( 'NONE', ( #308 ), #96 ) ;
#363 = CIRCLE ( 'NONE', #344, 8.000000000000001776 ) ;
#364 = DIRECTION ( 'NONE',  ( 0.000000000000000000, 0.000000000000000000, 1.000000000000000000 ) ) ;
#365 = TOROIDAL_SURFACE ( 'NONE', #291, 7.500000000000000000, 0.5000000000000002220 ) ;
#366 = EDGE_LOOP ( 'NONE', ( #103, #86, #273, #55 ) ) ;
#367 = CYLINDRICAL_SURFACE ( 'NONE', #32, 8.000000000000000000 ) ;
#368 = CYLINDRICAL_SURFACE ( 'NONE', #121, 7.999999999999996447 ) ;
#369 = AXIS2_PLACEMENT_3D ( 'NONE', #147, #62, #176 ) ;
#370 =( GEOMETRIC_REPRESENTATION_CONTEXT ( 3 ) GLOBAL_UNCERTAINTY_ASSIGNED_CONTEXT ( ( #138 ) ) GLOBAL_UNIT_ASSIGNED_CONTEXT ( ( #224, #250, #311 ) ) REPRESENTATION_CONTEXT ( 'NONE', 'WORKASPACE' ) );
ENDSEC;
END-ISO-10303-21;
