ISO-10303-21;
HEADER;
FILE_DESCRIPTION (( 'STEP AP214' ),
    '1' );
FILE_NAME ('23210.STEP',
    '2023-06-22T16:41:15',
    ( '' ),
    ( '' ),
    'SwSTEP 2.0',
    'SolidWorks 2023',
    '' );
FILE_SCHEMA (( 'AUTOMOTIVE_DESIGN' ));
ENDSEC;

DATA;
#1 = FILL_AREA_STYLE_COLOUR ( '', #277 ) ;
#2 = EDGE_LOOP ( 'NONE', ( #164, #8, #188, #133 ) ) ;
#3 = FACE_OUTER_BOUND ( 'NONE', #265, .T. ) ;
#4 = EDGE_LOOP ( 'NONE', ( #94, #287 ) ) ;
#5 = AXIS2_PLACEMENT_3D ( 'NONE', #234, #292, #96 ) ;
#6 = LENGTH_MEASURE_WITH_UNIT ( LENGTH_MEASURE( 0.02539999999999999897 ), #49 );
#7 = LENGTH_MEASURE_WITH_UNIT ( LENGTH_MEASURE( 0.02539999999999999897 ), #216 );
#8 = ORIENTED_EDGE ( 'NONE', *, *, #230, .T. ) ;
#9 = AXIS2_PLACEMENT_3D ( 'NONE', #129, #278, #111 ) ;
#10 = FILL_AREA_STYLE ('',( #61 ) ) ;
#11 = EDGE_CURVE ( 'NONE', #115, #268, #28, .T. ) ;
#12 = EDGE_CURVE ( 'NONE', #211, #115, #37, .T. ) ;
#13 =( NAMED_UNIT ( * ) PLANE_ANGLE_UNIT ( ) SI_UNIT ( $, .RADIAN. ) );
#14 = PRESENTATION_LAYER_ASSIGNMENT (  '', '', ( #131 ) ) ;
#15 =( GEOMETRIC_REPRESENTATION_CONTEXT ( 3 ) GLOBAL_UNCERTAINTY_ASSIGNED_CONTEXT ( ( #67 ) ) GLOBAL_UNIT_ASSIGNED_CONTEXT ( ( #120, #296, #59 ) ) REPRESENTATION_CONTEXT ( 'NONE', 'WORKASPACE' ) );
#16 = SURFACE_STYLE_USAGE ( .BOTH. , #201 ) ;
#17 = AXIS2_PLACEMENT_3D ( 'NONE', #124, #167, #35 ) ;
#18 = PLANE ( 'NONE',  #301 ) ;
#19 = LINE ( 'NONE', #306, #155 ) ;
#20 = COLOUR_RGB ( '',1.000000000000000000, 0.000000000000000000, 0.000000000000000000 ) ;
#21 =( NAMED_UNIT ( * ) SI_UNIT ( $, .STERADIAN. ) SOLID_ANGLE_UNIT ( ) );
#22 = CARTESIAN_POINT ( 'NONE',  ( -0.2500000000000001110, 3.000000000000000444, 0.000000000000000000 ) ) ;
#23 = CARTESIAN_POINT ( 'NONE',  ( 0.000000000000000000, 1.250000000000000000, 0.000000000000000000 ) ) ;
#24 =( GEOMETRIC_REPRESENTATION_CONTEXT ( 3 ) GLOBAL_UNCERTAINTY_ASSIGNED_CONTEXT ( ( #72 ) ) GLOBAL_UNIT_ASSIGNED_CONTEXT ( ( #247, #13, #223 ) ) REPRESENTATION_CONTEXT ( 'NONE', 'WORKASPACE' ) );
#25 = EDGE_LOOP ( 'NONE', ( #137, #192, #75, #209 ) ) ;
#26 = AXIS2_PLACEMENT_3D ( 'NONE', #272, #270, #274 ) ;
#27 = SURFACE_STYLE_USAGE ( .BOTH. , #29 ) ;
#28 = LINE ( 'NONE', #99, #172 ) ;
#29 = SURFACE_SIDE_STYLE ('',( #98 ) ) ;
#30 = VERTEX_POINT ( 'NONE', #22 ) ;
#31 =( NAMED_UNIT ( * ) SI_UNIT ( $, .STERADIAN. ) SOLID_ANGLE_UNIT ( ) );
#32 = SURFACE_STYLE_USAGE ( .BOTH. , #85 ) ;
#33 = EDGE_CURVE ( 'NONE', #237, #30, #110, .T. ) ;
#34 = PRESENTATION_STYLE_ASSIGNMENT (( #16 ) ) ;
#35 = DIRECTION ( 'NONE',  ( 1.000000000000000000, 0.000000000000000000, 0.000000000000000000 ) ) ;
#36 =( LENGTH_UNIT ( ) NAMED_UNIT ( * ) SI_UNIT ( $, .METRE. ) );
#37 = CIRCLE ( 'NONE', #252, 0.2500000000000000000 ) ;
#38 =( GEOMETRIC_REPRESENTATION_CONTEXT ( 3 ) GLOBAL_UNCERTAINTY_ASSIGNED_CONTEXT ( ( #171 ) ) GLOBAL_UNIT_ASSIGNED_CONTEXT ( ( #186, #285, #31 ) ) REPRESENTATION_CONTEXT ( 'NONE', 'WORKASPACE' ) );
#39 = MANIFOLD_SOLID_BREP ( 'Revolve - Tool Body (Straight Shanked)', #154 ) ;
#40 = MANIFOLD_SOLID_BREP ( 'Revolve - Cutting Edge', #165 ) ;
#41 = SURFACE_STYLE_FILL_AREA ( #10 ) ;
#42 = DIMENSIONAL_EXPONENTS ( 1.000000000000000000, 0.000000000000000000, 0.000000000000000000, 0.000000000000000000, 0.000000000000000000, 0.000000000000000000, 0.000000000000000000 ) ;
#43 = CARTESIAN_POINT ( 'NONE',  ( 0.000000000000000000, 0.000000000000000000, 0.000000000000000000 ) ) ;
#44 = UNCERTAINTY_MEASURE_WITH_UNIT (LENGTH_MEASURE( 1.000000000000000082E-05 ), #140, 'distance_accuracy_value', 'NONE');
#45 = ADVANCED_FACE ( 'NONE', ( #102 ), #299, .F. ) ;
#46 = DIMENSIONAL_EXPONENTS ( 1.000000000000000000, 0.000000000000000000, 0.000000000000000000, 0.000000000000000000, 0.000000000000000000, 0.000000000000000000, 0.000000000000000000 ) ;
#47 = DIRECTION ( 'NONE',  ( -0.000000000000000000, -1.000000000000000000, -0.000000000000000000 ) ) ;
#48 = PRESENTATION_LAYER_ASSIGNMENT (  '', '', ( #79 ) ) ;
#49 =( LENGTH_UNIT ( ) NAMED_UNIT ( * ) SI_UNIT ( $, .METRE. ) );
#50 = ORIENTED_EDGE ( 'NONE', *, *, #56, .T. ) ;
#51 =( NAMED_UNIT ( * ) PLANE_ANGLE_UNIT ( ) SI_UNIT ( $, .RADIAN. ) );
#52 = VERTEX_POINT ( 'NONE', #82 ) ;
#53 = FILL_AREA_STYLE_COLOUR ( '', #119 ) ;
#54 = ORIENTED_EDGE ( 'NONE', *, *, #33, .T. ) ;
#55 = MECHANICAL_DESIGN_GEOMETRIC_PRESENTATION_REPRESENTATION (  '', ( #107 ), #195 ) ;
#56 = EDGE_CURVE ( 'NONE', #30, #237, #177, .T. ) ;
#57 = CARTESIAN_POINT ( 'NONE',  ( 3.061616997868383018E-17, 0.000000000000000000, 0.2500000000000000000 ) ) ;
#58 = CIRCLE ( 'NONE', #179, 0.2500000000000000000 ) ;
#59 =( NAMED_UNIT ( * ) SI_UNIT ( $, .STERADIAN. ) SOLID_ANGLE_UNIT ( ) );
#60 = FACE_OUTER_BOUND ( 'NONE', #118, .T. ) ;
#61 = FILL_AREA_STYLE_COLOUR ( '', #244 ) ;
#62 = DIMENSIONAL_EXPONENTS ( 1.000000000000000000, 0.000000000000000000, 0.000000000000000000, 0.000000000000000000, 0.000000000000000000, 0.000000000000000000, 0.000000000000000000 ) ;
#63 = LINE ( 'NONE', #246, #266 ) ;
#64 = DIRECTION ( 'NONE',  ( -1.000000000000000000, 0.000000000000000000, 0.000000000000000000 ) ) ;
#65 = COLOUR_RGB ( '',0.7921568627450980005, 0.8196078431372548767, 0.9333333333333333481 ) ;
#66 = FILL_AREA_STYLE ('',( #127 ) ) ;
#67 = UNCERTAINTY_MEASURE_WITH_UNIT (LENGTH_MEASURE( 1.000000000000000082E-05 ), #120, 'distance_accuracy_value', 'NONE');
#68 = SURFACE_STYLE_USAGE ( .BOTH. , #207 ) ;
#69 = CARTESIAN_POINT ( 'NONE',  ( 0.000000000000000000, 0.000000000000000000, 0.000000000000000000 ) ) ;
#70 = SURFACE_STYLE_FILL_AREA ( #283 ) ;
#71 =( LENGTH_UNIT ( ) NAMED_UNIT ( * ) SI_UNIT ( $, .METRE. ) );
#72 = UNCERTAINTY_MEASURE_WITH_UNIT (LENGTH_MEASURE( 1.000000000000000082E-05 ), #247, 'distance_accuracy_value', 'NONE');
#73 = PRESENTATION_STYLE_ASSIGNMENT (( #289 ) ) ;
#74 = ADVANCED_BREP_SHAPE_REPRESENTATION ( '23210', ( #40, #39, #17 ), #15 ) ;
#75 = ORIENTED_EDGE ( 'NONE', *, *, #76, .F. ) ;
#76 = EDGE_CURVE ( 'NONE', #238, #268, #58, .T. ) ;
#77 = CARTESIAN_POINT ( 'NONE',  ( 0.2500000000000000000, 3.000000000000000444, 3.061616997868383634E-17 ) ) ;
#78 = PLANE ( 'NONE',  #126 ) ;
#79 = STYLED_ITEM ( 'NONE', ( #178 ), #39 ) ;
#80 = ORIENTED_EDGE ( 'NONE', *, *, #134, .T. ) ;
#81 = APPLICATION_PROTOCOL_DEFINITION ( 'draft international standard', 'automotive_design', 1998, #248 ) ;
#82 = CARTESIAN_POINT ( 'NONE',  ( 0.2500000000000000000, 1.250000000000000000, 3.061616997868383634E-17 ) ) ;
#83 =( NAMED_UNIT ( * ) SI_UNIT ( $, .STERADIAN. ) SOLID_ANGLE_UNIT ( ) );
#84 = DIRECTION ( 'NONE',  ( -1.000000000000000000, 0.000000000000000000, 0.000000000000000000 ) ) ;
#85 = SURFACE_SIDE_STYLE ('',( #41 ) ) ;
#86 = AXIS2_PLACEMENT_3D ( 'NONE', #202, #228, #308 ) ;
#87 = DIRECTION ( 'NONE',  ( -3.498990854706726443E-17, 1.000000000000000000, -0.000000000000000000 ) ) ;
#88 = EDGE_CURVE ( 'NONE', #263, #52, #185, .T. ) ;
#89 = FACE_OUTER_BOUND ( 'NONE', #25, .T. ) ;
#90 = MECHANICAL_DESIGN_GEOMETRIC_PRESENTATION_REPRESENTATION (  '', ( #225 ), #254 ) ;
#91 =( LENGTH_UNIT ( ) NAMED_UNIT ( * ) SI_UNIT ( $, .METRE. ) );
#92 =( NAMED_UNIT ( * ) PLANE_ANGLE_UNIT ( ) SI_UNIT ( $, .RADIAN. ) );
#93 = PRESENTATION_LAYER_ASSIGNMENT (  '', '', ( #100 ) ) ;
#94 = ORIENTED_EDGE ( 'NONE', *, *, #88, .F. ) ;
#95 = ADVANCED_FACE ( 'NONE', ( #60 ), #255, .T. ) ;
#96 = DIRECTION ( 'NONE',  ( 0.000000000000000000, -0.000000000000000000, 1.000000000000000000 ) ) ;
#97 = ORIENTED_EDGE ( 'NONE', *, *, #12, .F. ) ;
#98 = SURFACE_STYLE_FILL_AREA ( #241 ) ;
#99 = CARTESIAN_POINT ( 'NONE',  ( 3.061616997868383018E-17, 0.000000000000000000, 0.2500000000000000000 ) ) ;
#100 = STYLED_ITEM ( 'NONE', ( #73 ), #214 ) ;
#101 = CARTESIAN_POINT ( 'NONE',  ( -0.2500000000000000000, 1.250000000000000000, 0.000000000000000000 ) ) ;
#102 = FACE_OUTER_BOUND ( 'NONE', #117, .T. ) ;
#103 = FILL_AREA_STYLE ('',( #302 ) ) ;
#104 = LENGTH_MEASURE_WITH_UNIT ( LENGTH_MEASURE( 0.02539999999999999897 ), #121 );
#105 = CARTESIAN_POINT ( 'NONE',  ( 0.000000000000000000, 0.000000000000000000, 0.000000000000000000 ) ) ;
#106 = FACE_OUTER_BOUND ( 'NONE', #2, .T. ) ;
#107 = STYLED_ITEM ( 'NONE', ( #257 ), #204 ) ;
#108 = DIRECTION ( 'NONE',  ( 0.000000000000000000, 0.000000000000000000, -1.000000000000000000 ) ) ;
#109 =( CONVERSION_BASED_UNIT ( 'INCH', #307 ) LENGTH_UNIT ( ) NAMED_UNIT ( #46 ) );
#110 = CIRCLE ( 'NONE', #304, 0.2500000000000000555 ) ;
#111 = DIRECTION ( 'NONE',  ( -1.000000000000000000, 0.000000000000000000, 0.000000000000000000 ) ) ;
#112 = CARTESIAN_POINT ( 'NONE',  ( 1.530367125165163595E-34, 1.250000000000000000, 0.000000000000000000 ) ) ;
#113 = DIRECTION ( 'NONE',  ( -3.498990854706726443E-17, 1.000000000000000000, -0.000000000000000000 ) ) ;
#114 = EDGE_LOOP ( 'NONE', ( #217, #80 ) ) ;
#115 = VERTEX_POINT ( 'NONE', #280 ) ;
#116 = PRESENTATION_STYLE_ASSIGNMENT (( #27 ) ) ;
#117 = EDGE_LOOP ( 'NONE', ( #50, #54 ) ) ;
#118 = EDGE_LOOP ( 'NONE', ( #213, #261, #293, #143 ) ) ;
#119 = COLOUR_RGB ( '',1.000000000000000000, 0.000000000000000000, 0.000000000000000000 ) ;
#120 =( CONVERSION_BASED_UNIT ( 'INCH', #196 ) LENGTH_UNIT ( ) NAMED_UNIT ( #276 ) );
#121 =( LENGTH_UNIT ( ) NAMED_UNIT ( * ) SI_UNIT ( $, .METRE. ) );
#122 = DIRECTION ( 'NONE',  ( -3.498990854706726443E-17, 1.000000000000000000, -0.000000000000000000 ) ) ;
#123 = ADVANCED_FACE ( 'NONE', ( #125 ), #18, .T. ) ;
#124 = CARTESIAN_POINT ( 'NONE',  ( 0.000000000000000000, 0.000000000000000000, 0.000000000000000000 ) ) ;
#125 = FACE_OUTER_BOUND ( 'NONE', #114, .T. ) ;
#126 = AXIS2_PLACEMENT_3D ( 'NONE', #112, #290, #193 ) ;
#127 = FILL_AREA_STYLE_COLOUR ( '', #145 ) ;
#128 = PRODUCT_DEFINITION_CONTEXT ( 'detailed design', #279, 'design' ) ;
#129 = CARTESIAN_POINT ( 'NONE',  ( -6.123233995736772199E-17, 3.000000000000000444, 0.000000000000000000 ) ) ;
#130 = SURFACE_STYLE_FILL_AREA ( #66 ) ;
#131 = STYLED_ITEM ( 'NONE', ( #34 ), #40 ) ;
#132 = PRESENTATION_LAYER_ASSIGNMENT (  '', '', ( #107 ) ) ;
#133 = ORIENTED_EDGE ( 'NONE', *, *, #33, .F. ) ;
#134 = EDGE_CURVE ( 'NONE', #268, #238, #166, .T. ) ;
#135 = ORIENTED_EDGE ( 'NONE', *, *, #11, .F. ) ;
#136 = CARTESIAN_POINT ( 'NONE',  ( 0.000000000000000000, 0.000000000000000000, 0.000000000000000000 ) ) ;
#137 = ORIENTED_EDGE ( 'NONE', *, *, #12, .T. ) ;
#138 = AXIS2_PLACEMENT_3D ( 'NONE', #149, #147, #176 ) ;
#139 = MECHANICAL_DESIGN_GEOMETRIC_PRESENTATION_REPRESENTATION (  '', ( #100 ), #159 ) ;
#140 =( CONVERSION_BASED_UNIT ( 'INCH', #6 ) LENGTH_UNIT ( ) NAMED_UNIT ( #42 ) );
#141 = ORIENTED_EDGE ( 'NONE', *, *, #300, .T. ) ;
#142 = PLANE ( 'NONE',  #5 ) ;
#143 = ORIENTED_EDGE ( 'NONE', *, *, #183, .F. ) ;
#144 = CARTESIAN_POINT ( 'NONE',  ( -6.123233995736772199E-17, 3.000000000000000444, 0.000000000000000000 ) ) ;
#145 = COLOUR_RGB ( '',1.000000000000000000, 0.000000000000000000, 0.000000000000000000 ) ;
#146 = AXIS2_PLACEMENT_3D ( 'NONE', #150, #250, #253 ) ;
#147 = DIRECTION ( 'NONE',  ( 3.498990854706726443E-17, -1.000000000000000000, 0.000000000000000000 ) ) ;
#148 = SHAPE_DEFINITION_REPRESENTATION ( #190, #74 ) ;
#149 = CARTESIAN_POINT ( 'NONE',  ( 0.2500000000000000000, 3.000000000000000444, 0.000000000000000000 ) ) ;
#150 = CARTESIAN_POINT ( 'NONE',  ( 0.000000000000000000, 1.250000000000000000, 0.000000000000000000 ) ) ;
#151 = PRESENTATION_STYLE_ASSIGNMENT (( #68 ) ) ;
#152 = DIMENSIONAL_EXPONENTS ( 1.000000000000000000, 0.000000000000000000, 0.000000000000000000, 0.000000000000000000, 0.000000000000000000, 0.000000000000000000, 0.000000000000000000 ) ;
#153 =( NAMED_UNIT ( * ) SI_UNIT ( $, .STERADIAN. ) SOLID_ANGLE_UNIT ( ) );
#154 = CLOSED_SHELL ( 'NONE', ( #95, #221, #160, #45 ) ) ;
#155 = VECTOR ( 'NONE', #87, 39.37007874015748143 ) ;
#156 = SURFACE_STYLE_USAGE ( .BOTH. , #181 ) ;
#157 = PRODUCT_DEFINITION ( 'UNKNOWN', '', #229, #128 ) ;
#158 =( NAMED_UNIT ( * ) PLANE_ANGLE_UNIT ( ) SI_UNIT ( $, .RADIAN. ) );
#159 =( GEOMETRIC_REPRESENTATION_CONTEXT ( 3 ) GLOBAL_UNCERTAINTY_ASSIGNED_CONTEXT ( ( #44 ) ) GLOBAL_UNIT_ASSIGNED_CONTEXT ( ( #140, #51, #21 ) ) REPRESENTATION_CONTEXT ( 'NONE', 'WORKASPACE' ) );
#160 = ADVANCED_FACE ( 'NONE', ( #106 ), #206, .T. ) ;
#161 =( NAMED_UNIT ( * ) SI_UNIT ( $, .STERADIAN. ) SOLID_ANGLE_UNIT ( ) );
#162 = EDGE_LOOP ( 'NONE', ( #97, #291 ) ) ;
#163 = SURFACE_STYLE_FILL_AREA ( #267 ) ;
#164 = ORIENTED_EDGE ( 'NONE', *, *, #187, .F. ) ;
#165 = CLOSED_SHELL ( 'NONE', ( #204, #214, #243, #123 ) ) ;
#166 = CIRCLE ( 'NONE', #294, 0.2500000000000000000 ) ;
#167 = DIRECTION ( 'NONE',  ( 0.000000000000000000, 0.000000000000000000, 1.000000000000000000 ) ) ;
#168 = DIRECTION ( 'NONE',  ( -0.000000000000000000, -1.000000000000000000, -0.000000000000000000 ) ) ;
#169 = PRODUCT_CONTEXT ( 'NONE', #248, 'mechanical' ) ;
#170 = SURFACE_STYLE_FILL_AREA ( #103 ) ;
#171 = UNCERTAINTY_MEASURE_WITH_UNIT (LENGTH_MEASURE( 1.000000000000000082E-05 ), #186, 'distance_accuracy_value', 'NONE');
#172 = VECTOR ( 'NONE', #295, 39.37007874015748143 ) ;
#173 = APPLICATION_PROTOCOL_DEFINITION ( 'draft international standard', 'automotive_design', 1998, #279 ) ;
#174 = CIRCLE ( 'NONE', #203, 0.2500000000000000000 ) ;
#175 = DIRECTION ( 'NONE',  ( -3.498990854706726443E-17, 1.000000000000000000, -0.000000000000000000 ) ) ;
#176 = DIRECTION ( 'NONE',  ( 1.000000000000000000, 3.498990854706726443E-17, 0.000000000000000000 ) ) ;
#177 = CIRCLE ( 'NONE', #189, 0.2500000000000000555 ) ;
#178 = PRESENTATION_STYLE_ASSIGNMENT (( #32 ) ) ;
#179 = AXIS2_PLACEMENT_3D ( 'NONE', #105, #251, #271 ) ;
#180 = DIMENSIONAL_EXPONENTS ( 1.000000000000000000, 0.000000000000000000, 0.000000000000000000, 0.000000000000000000, 0.000000000000000000, 0.000000000000000000, 0.000000000000000000 ) ;
#181 = SURFACE_SIDE_STYLE ('',( #70 ) ) ;
#182 = DIRECTION ( 'NONE',  ( -3.498990854706726443E-17, 1.000000000000000000, -0.000000000000000000 ) ) ;
#183 = EDGE_CURVE ( 'NONE', #263, #30, #19, .T. ) ;
#184 = FILL_AREA_STYLE_COLOUR ( '', #20 ) ;
#185 = CIRCLE ( 'NONE', #286, 0.2500000000000000000 ) ;
#186 =( CONVERSION_BASED_UNIT ( 'INCH', #7 ) LENGTH_UNIT ( ) NAMED_UNIT ( #224 ) );
#187 = EDGE_CURVE ( 'NONE', #52, #237, #231, .T. ) ;
#188 = ORIENTED_EDGE ( 'NONE', *, *, #183, .T. ) ;
#189 = AXIS2_PLACEMENT_3D ( 'NONE', #273, #175, #84 ) ;
#190 = PRODUCT_DEFINITION_SHAPE ( 'NONE', 'NONE',  #157 ) ;
#191 = CYLINDRICAL_SURFACE ( 'NONE', #26, 0.2500000000000000000 ) ;
#192 = ORIENTED_EDGE ( 'NONE', *, *, #11, .T. ) ;
#193 = DIRECTION ( 'NONE',  ( -1.000000000000000000, -3.498990854706726443E-17, 0.000000000000000000 ) ) ;
#194 = ORIENTED_EDGE ( 'NONE', *, *, #262, .T. ) ;
#195 =( GEOMETRIC_REPRESENTATION_CONTEXT ( 3 ) GLOBAL_UNCERTAINTY_ASSIGNED_CONTEXT ( ( #226 ) ) GLOBAL_UNIT_ASSIGNED_CONTEXT ( ( #109, #158, #161 ) ) REPRESENTATION_CONTEXT ( 'NONE', 'WORKASPACE' ) );
#196 = LENGTH_MEASURE_WITH_UNIT ( LENGTH_MEASURE( 0.02539999999999999897 ), #198 );
#197 = DIRECTION ( 'NONE',  ( -1.000000000000000000, 0.000000000000000000, 0.000000000000000000 ) ) ;
#198 =( LENGTH_UNIT ( ) NAMED_UNIT ( * ) SI_UNIT ( $, .METRE. ) );
#199 = DIRECTION ( 'NONE',  ( -0.000000000000000000, -1.000000000000000000, -0.000000000000000000 ) ) ;
#200 = UNCERTAINTY_MEASURE_WITH_UNIT (LENGTH_MEASURE( 1.000000000000000082E-05 ), #249, 'distance_accuracy_value', 'NONE');
#201 = SURFACE_SIDE_STYLE ('',( #170 ) ) ;
#202 = CARTESIAN_POINT ( 'NONE',  ( -6.123233995736772199E-17, 3.000000000000000444, 0.000000000000000000 ) ) ;
#203 = AXIS2_PLACEMENT_3D ( 'NONE', #23, #113, #210 ) ;
#204 = ADVANCED_FACE ( 'NONE', ( #89 ), #258, .T. ) ;
#205 = LENGTH_MEASURE_WITH_UNIT ( LENGTH_MEASURE( 0.02539999999999999897 ), #71 );
#206 = CYLINDRICAL_SURFACE ( 'NONE', #86, 0.2500000000000000555 ) ;
#207 = SURFACE_SIDE_STYLE ('',( #130 ) ) ;
#208 = CARTESIAN_POINT ( 'NONE',  ( 0.000000000000000000, 0.000000000000000000, -0.2500000000000000000 ) ) ;
#209 = ORIENTED_EDGE ( 'NONE', *, *, #262, .F. ) ;
#210 = DIRECTION ( 'NONE',  ( -1.000000000000000000, 0.000000000000000000, 0.000000000000000000 ) ) ;
#211 = VERTEX_POINT ( 'NONE', #260 ) ;
#212 = FACE_OUTER_BOUND ( 'NONE', #4, .T. ) ;
#213 = ORIENTED_EDGE ( 'NONE', *, *, #88, .T. ) ;
#214 = ADVANCED_FACE ( 'NONE', ( #236 ), #142, .T. ) ;
#215 = CARTESIAN_POINT ( 'NONE',  ( 0.000000000000000000, 1.250000000000000000, 0.000000000000000000 ) ) ;
#216 =( LENGTH_UNIT ( ) NAMED_UNIT ( * ) SI_UNIT ( $, .METRE. ) );
#217 = ORIENTED_EDGE ( 'NONE', *, *, #76, .T. ) ;
#218 = MECHANICAL_DESIGN_GEOMETRIC_PRESENTATION_REPRESENTATION (  '', ( #131 ), #282 ) ;
#219 = CIRCLE ( 'NONE', #146, 0.2500000000000000000 ) ;
#220 = PRESENTATION_LAYER_ASSIGNMENT (  '', '', ( #288 ) ) ;
#221 = ADVANCED_FACE ( 'NONE', ( #212 ), #78, .F. ) ;
#222 =( NAMED_UNIT ( * ) PLANE_ANGLE_UNIT ( ) SI_UNIT ( $, .RADIAN. ) );
#223 =( NAMED_UNIT ( * ) SI_UNIT ( $, .STERADIAN. ) SOLID_ANGLE_UNIT ( ) );
#224 = DIMENSIONAL_EXPONENTS ( 1.000000000000000000, 0.000000000000000000, 0.000000000000000000, 0.000000000000000000, 0.000000000000000000, 0.000000000000000000, 0.000000000000000000 ) ;
#225 = STYLED_ITEM ( 'NONE', ( #151 ), #123 ) ;
#226 = UNCERTAINTY_MEASURE_WITH_UNIT (LENGTH_MEASURE( 1.000000000000000082E-05 ), #109, 'distance_accuracy_value', 'NONE');
#227 = DIRECTION ( 'NONE',  ( 0.000000000000000000, -1.000000000000000000, -0.000000000000000000 ) ) ;
#228 = DIRECTION ( 'NONE',  ( -3.498990854706726443E-17, 1.000000000000000000, -0.000000000000000000 ) ) ;
#229 = PRODUCT_DEFINITION_FORMATION_WITH_SPECIFIED_SOURCE ( 'ANY', '', #240, .NOT_KNOWN. ) ;
#230 = EDGE_CURVE ( 'NONE', #52, #263, #174, .T. ) ;
#231 = LINE ( 'NONE', #309, #233 ) ;
#232 = MECHANICAL_DESIGN_GEOMETRIC_PRESENTATION_REPRESENTATION (  '', ( #79 ), #24 ) ;
#233 = VECTOR ( 'NONE', #182, 39.37007874015748143 ) ;
#234 = CARTESIAN_POINT ( 'NONE',  ( 0.000000000000000000, 1.250000000000000000, 0.000000000000000000 ) ) ;
#235 = ORIENTED_EDGE ( 'NONE', *, *, #134, .F. ) ;
#236 = FACE_OUTER_BOUND ( 'NONE', #162, .T. ) ;
#237 = VERTEX_POINT ( 'NONE', #77 ) ;
#238 = VERTEX_POINT ( 'NONE', #208 ) ;
#239 = PRODUCT_RELATED_PRODUCT_CATEGORY ( 'part', '', ( #240 ) ) ;
#240 = PRODUCT ( '23210', '23210', '', ( #169 ) ) ;
#241 = FILL_AREA_STYLE ('',( #1 ) ) ;
#242 = DIRECTION ( 'NONE',  ( -0.000000000000000000, -1.000000000000000000, -0.000000000000000000 ) ) ;
#243 = ADVANCED_FACE ( 'NONE', ( #3 ), #191, .T. ) ;
#244 = COLOUR_RGB ( '',0.7921568627450980005, 0.8196078431372548767, 0.9333333333333333481 ) ;
#245 = AXIS2_PLACEMENT_3D ( 'NONE', #136, #242, #264 ) ;
#246 = CARTESIAN_POINT ( 'NONE',  ( 0.000000000000000000, 0.000000000000000000, -0.2500000000000000000 ) ) ;
#247 =( CONVERSION_BASED_UNIT ( 'INCH', #297 ) LENGTH_UNIT ( ) NAMED_UNIT ( #152 ) );
#248 = APPLICATION_CONTEXT ( 'automotive_design' ) ;
#249 =( CONVERSION_BASED_UNIT ( 'INCH', #104 ) LENGTH_UNIT ( ) NAMED_UNIT ( #62 ) );
#250 = DIRECTION ( 'NONE',  ( -0.000000000000000000, -1.000000000000000000, -0.000000000000000000 ) ) ;
#251 = DIRECTION ( 'NONE',  ( -0.000000000000000000, -1.000000000000000000, -0.000000000000000000 ) ) ;
#252 = AXIS2_PLACEMENT_3D ( 'NONE', #215, #168, #269 ) ;
#253 = DIRECTION ( 'NONE',  ( 0.000000000000000000, 0.000000000000000000, -1.000000000000000000 ) ) ;
#254 =( GEOMETRIC_REPRESENTATION_CONTEXT ( 3 ) GLOBAL_UNCERTAINTY_ASSIGNED_CONTEXT ( ( #298 ) ) GLOBAL_UNIT_ASSIGNED_CONTEXT ( ( #256, #92, #153 ) ) REPRESENTATION_CONTEXT ( 'NONE', 'WORKASPACE' ) );
#255 = CYLINDRICAL_SURFACE ( 'NONE', #9, 0.2500000000000000555 ) ;
#256 =( CONVERSION_BASED_UNIT ( 'INCH', #205 ) LENGTH_UNIT ( ) NAMED_UNIT ( #180 ) );
#257 = PRESENTATION_STYLE_ASSIGNMENT (( #156 ) ) ;
#258 = CYLINDRICAL_SURFACE ( 'NONE', #245, 0.2500000000000000000 ) ;
#259 = PRESENTATION_LAYER_ASSIGNMENT (  '', '', ( #225 ) ) ;
#260 = CARTESIAN_POINT ( 'NONE',  ( 0.000000000000000000, 1.250000000000000000, -0.2500000000000000000 ) ) ;
#261 = ORIENTED_EDGE ( 'NONE', *, *, #187, .T. ) ;
#262 = EDGE_CURVE ( 'NONE', #211, #238, #63, .T. ) ;
#263 = VERTEX_POINT ( 'NONE', #101 ) ;
#264 = DIRECTION ( 'NONE',  ( 0.000000000000000000, 0.000000000000000000, -1.000000000000000000 ) ) ;
#265 = EDGE_LOOP ( 'NONE', ( #135, #141, #194, #235 ) ) ;
#266 = VECTOR ( 'NONE', #199, 39.37007874015748143 ) ;
#267 = FILL_AREA_STYLE ('',( #53 ) ) ;
#268 = VERTEX_POINT ( 'NONE', #57 ) ;
#269 = DIRECTION ( 'NONE',  ( 0.000000000000000000, 0.000000000000000000, -1.000000000000000000 ) ) ;
#270 = DIRECTION ( 'NONE',  ( -0.000000000000000000, -1.000000000000000000, -0.000000000000000000 ) ) ;
#271 = DIRECTION ( 'NONE',  ( 0.000000000000000000, 0.000000000000000000, -1.000000000000000000 ) ) ;
#272 = CARTESIAN_POINT ( 'NONE',  ( 0.000000000000000000, 0.000000000000000000, 0.000000000000000000 ) ) ;
#273 = CARTESIAN_POINT ( 'NONE',  ( -6.123233995736772199E-17, 3.000000000000000444, 0.000000000000000000 ) ) ;
#274 = DIRECTION ( 'NONE',  ( 0.000000000000000000, 0.000000000000000000, -1.000000000000000000 ) ) ;
#275 = CARTESIAN_POINT ( 'NONE',  ( 0.000000000000000000, 1.250000000000000000, 0.000000000000000000 ) ) ;
#276 = DIMENSIONAL_EXPONENTS ( 1.000000000000000000, 0.000000000000000000, 0.000000000000000000, 0.000000000000000000, 0.000000000000000000, 0.000000000000000000, 0.000000000000000000 ) ;
#277 = COLOUR_RGB ( '',1.000000000000000000, 0.000000000000000000, 0.000000000000000000 ) ;
#278 = DIRECTION ( 'NONE',  ( -3.498990854706726443E-17, 1.000000000000000000, -0.000000000000000000 ) ) ;
#279 = APPLICATION_CONTEXT ( 'automotive_design' ) ;
#280 = CARTESIAN_POINT ( 'NONE',  ( 3.061616997868383018E-17, 1.250000000000000000, 0.2500000000000000000 ) ) ;
#281 = DIRECTION ( 'NONE',  ( 0.000000000000000000, 0.000000000000000000, -1.000000000000000000 ) ) ;
#282 =( GEOMETRIC_REPRESENTATION_CONTEXT ( 3 ) GLOBAL_UNCERTAINTY_ASSIGNED_CONTEXT ( ( #200 ) ) GLOBAL_UNIT_ASSIGNED_CONTEXT ( ( #249, #222, #83 ) ) REPRESENTATION_CONTEXT ( 'NONE', 'WORKASPACE' ) );
#283 = FILL_AREA_STYLE ('',( #184 ) ) ;
#284 = SURFACE_SIDE_STYLE ('',( #163 ) ) ;
#285 =( NAMED_UNIT ( * ) PLANE_ANGLE_UNIT ( ) SI_UNIT ( $, .RADIAN. ) );
#286 = AXIS2_PLACEMENT_3D ( 'NONE', #275, #303, #64 ) ;
#287 = ORIENTED_EDGE ( 'NONE', *, *, #230, .F. ) ;
#288 = STYLED_ITEM ( 'NONE', ( #116 ), #243 ) ;
#289 = SURFACE_STYLE_USAGE ( .BOTH. , #284 ) ;
#290 = DIRECTION ( 'NONE',  ( -3.498990854706726443E-17, 1.000000000000000000, 0.000000000000000000 ) ) ;
#291 = ORIENTED_EDGE ( 'NONE', *, *, #300, .F. ) ;
#292 = DIRECTION ( 'NONE',  ( 0.000000000000000000, 1.000000000000000000, 0.000000000000000000 ) ) ;
#293 = ORIENTED_EDGE ( 'NONE', *, *, #56, .F. ) ;
#294 = AXIS2_PLACEMENT_3D ( 'NONE', #69, #47, #281 ) ;
#295 = DIRECTION ( 'NONE',  ( -0.000000000000000000, -1.000000000000000000, -0.000000000000000000 ) ) ;
#296 =( NAMED_UNIT ( * ) PLANE_ANGLE_UNIT ( ) SI_UNIT ( $, .RADIAN. ) );
#297 = LENGTH_MEASURE_WITH_UNIT ( LENGTH_MEASURE( 0.02539999999999999897 ), #36 );
#298 = UNCERTAINTY_MEASURE_WITH_UNIT (LENGTH_MEASURE( 1.000000000000000082E-05 ), #256, 'distance_accuracy_value', 'NONE');
#299 = PLANE ( 'NONE',  #138 ) ;
#300 = EDGE_CURVE ( 'NONE', #115, #211, #219, .T. ) ;
#301 = AXIS2_PLACEMENT_3D ( 'NONE', #43, #227, #108 ) ;
#302 = FILL_AREA_STYLE_COLOUR ( '', #65 ) ;
#303 = DIRECTION ( 'NONE',  ( -3.498990854706726443E-17, 1.000000000000000000, -0.000000000000000000 ) ) ;
#304 = AXIS2_PLACEMENT_3D ( 'NONE', #144, #122, #197 ) ;
#305 = MECHANICAL_DESIGN_GEOMETRIC_PRESENTATION_REPRESENTATION (  '', ( #288 ), #38 ) ;
#306 = CARTESIAN_POINT ( 'NONE',  ( -0.2500000000000001110, 3.000000000000000444, 0.000000000000000000 ) ) ;
#307 = LENGTH_MEASURE_WITH_UNIT ( LENGTH_MEASURE( 0.02539999999999999897 ), #91 );
#308 = DIRECTION ( 'NONE',  ( -1.000000000000000000, 0.000000000000000000, 0.000000000000000000 ) ) ;
#309 = CARTESIAN_POINT ( 'NONE',  ( 0.2499999999999999722, 3.000000000000000444, 3.061616997868383634E-17 ) ) ;
ENDSEC;
END-ISO-10303-21;
