ISO-10303-21;
HEADER;
FILE_DESCRIPTION (( 'STEP AP214' ),
    '1' );
FILE_NAME ('00240.STEP',
    '2023-06-22T14:04:39',
    ( '' ),
    ( '' ),
    'SwSTEP 2.0',
    'SolidWorks 2023',
    '' );
FILE_SCHEMA (( 'AUTOMOTIVE_DESIGN' ));
ENDSEC;

DATA;
#1 =( CONVERSION_BASED_UNIT ( 'INCH', #147 ) LENGTH_UNIT ( ) NAMED_UNIT ( #55 ) );
#2 = EDGE_CURVE ( 'NONE', #130, #299, #90, .T. ) ;
#3 = FILL_AREA_STYLE ('',( #31 ) ) ;
#4 = PRODUCT_DEFINITION_CONTEXT ( 'detailed design', #289, 'design' ) ;
#5 = SURFACE_STYLE_USAGE ( .BOTH. , #220 ) ;
#6 = AXIS2_PLACEMENT_3D ( 'NONE', #175, #204, #268 ) ;
#7 = PLANE ( 'NONE',  #38 ) ;
#8 = ORIENTED_EDGE ( 'NONE', *, *, #150, .F. ) ;
#9 = STYLED_ITEM ( 'NONE', ( #252 ), #201 ) ;
#10 = EDGE_CURVE ( 'NONE', #44, #299, #23, .T. ) ;
#11 = DIRECTION ( 'NONE',  ( 1.567547902908612085E-16, 1.000000000000000000, -0.000000000000000000 ) ) ;
#12 = ORIENTED_EDGE ( 'NONE', *, *, #150, .T. ) ;
#13 = SURFACE_STYLE_USAGE ( .BOTH. , #233 ) ;
#14 = EDGE_LOOP ( 'NONE', ( #8, #237, #110, #262 ) ) ;
#15 = CARTESIAN_POINT ( 'NONE',  ( 2.449293598294706414E-16, 2.000000000000000000, 0.000000000000000000 ) ) ;
#16 = ORIENTED_EDGE ( 'NONE', *, *, #92, .F. ) ;
#17 = DIRECTION ( 'NONE',  ( 0.000000000000000000, 0.000000000000000000, -1.000000000000000000 ) ) ;
#18 = SURFACE_STYLE_USAGE ( .BOTH. , #279 ) ;
#19 = AXIS2_PLACEMENT_3D ( 'NONE', #15, #162, #186 ) ;
#20 = MECHANICAL_DESIGN_GEOMETRIC_PRESENTATION_REPRESENTATION (  '', ( #146 ), #76 ) ;
#21 = LINE ( 'NONE', #124, #236 ) ;
#22 = APPLICATION_PROTOCOL_DEFINITION ( 'draft international standard', 'automotive_design', 1998, #28 ) ;
#23 = CIRCLE ( 'NONE', #123, 0.1562500000000000000 ) ;
#24 = SURFACE_STYLE_FILL_AREA ( #225 ) ;
#25 =( GEOMETRIC_REPRESENTATION_CONTEXT ( 3 ) GLOBAL_UNCERTAINTY_ASSIGNED_CONTEXT ( ( #99 ) ) GLOBAL_UNIT_ASSIGNED_CONTEXT ( ( #181, #277, #213 ) ) REPRESENTATION_CONTEXT ( 'NONE', 'WORKASPACE' ) );
#26 = CARTESIAN_POINT ( 'NONE',  ( 0.000000000000000000, 0.4374999999999998890, 0.000000000000000000 ) ) ;
#27 = EDGE_CURVE ( 'NONE', #112, #259, #61, .T. ) ;
#28 = APPLICATION_CONTEXT ( 'automotive_design' ) ;
#29 = DIRECTION ( 'NONE',  ( 0.000000000000000000, 0.000000000000000000, 1.000000000000000000 ) ) ;
#30 =( GEOMETRIC_REPRESENTATION_CONTEXT ( 3 ) GLOBAL_UNCERTAINTY_ASSIGNED_CONTEXT ( ( #172 ) ) GLOBAL_UNIT_ASSIGNED_CONTEXT ( ( #1, #290, #170 ) ) REPRESENTATION_CONTEXT ( 'NONE', 'WORKASPACE' ) );
#31 = FILL_AREA_STYLE_COLOUR ( '', #246 ) ;
#32 = EDGE_CURVE ( 'NONE', #130, #135, #301, .T. ) ;
#33 = FILL_AREA_STYLE ('',( #178 ) ) ;
#34 = STYLED_ITEM ( 'NONE', ( #82 ), #274 ) ;
#35 =( NAMED_UNIT ( * ) SI_UNIT ( $, .STERADIAN. ) SOLID_ANGLE_UNIT ( ) );
#36 = LINE ( 'NONE', #230, #43 ) ;
#37 = ORIENTED_EDGE ( 'NONE', *, *, #27, .T. ) ;
#38 = AXIS2_PLACEMENT_3D ( 'NONE', #158, #295, #81 ) ;
#39 = ORIENTED_EDGE ( 'NONE', *, *, #75, .F. ) ;
#40 = ORIENTED_EDGE ( 'NONE', *, *, #92, .T. ) ;
#41 =( NAMED_UNIT ( * ) PLANE_ANGLE_UNIT ( ) SI_UNIT ( $, .RADIAN. ) );
#42 = EDGE_LOOP ( 'NONE', ( #282, #37 ) ) ;
#43 = VECTOR ( 'NONE', #11, 39.37007874015748143 ) ;
#44 = VERTEX_POINT ( 'NONE', #187 ) ;
#45 = ADVANCED_FACE ( 'NONE', ( #258 ), #231, .T. ) ;
#46 = CARTESIAN_POINT ( 'NONE',  ( 0.000000000000000000, 0.000000000000000000, 0.000000000000000000 ) ) ;
#47 = AXIS2_PLACEMENT_3D ( 'NONE', #218, #234, #195 ) ;
#48 = DIRECTION ( 'NONE',  ( 1.000000000000000000, 0.000000000000000000, 0.000000000000000000 ) ) ;
#49 =( LENGTH_UNIT ( ) NAMED_UNIT ( * ) SI_UNIT ( $, .METRE. ) );
#50 = DIRECTION ( 'NONE',  ( 0.000000000000000000, 0.000000000000000000, -1.000000000000000000 ) ) ;
#51 = PRESENTATION_LAYER_ASSIGNMENT (  '', '', ( #278 ) ) ;
#52 = DIRECTION ( 'NONE',  ( -1.000000000000000000, 0.000000000000000000, 0.000000000000000000 ) ) ;
#53 = DIRECTION ( 'NONE',  ( 0.000000000000000000, -1.000000000000000000, -0.000000000000000000 ) ) ;
#54 = LINE ( 'NONE', #149, #70 ) ;
#55 = DIMENSIONAL_EXPONENTS ( 1.000000000000000000, 0.000000000000000000, 0.000000000000000000, 0.000000000000000000, 0.000000000000000000, 0.000000000000000000, 0.000000000000000000 ) ;
#56 = MECHANICAL_DESIGN_GEOMETRIC_PRESENTATION_REPRESENTATION (  '', ( #9 ), #141 ) ;
#57 = LENGTH_MEASURE_WITH_UNIT ( LENGTH_MEASURE( 0.02539999999999999897 ), #62 );
#58 = AXIS2_PLACEMENT_3D ( 'NONE', #267, #29, #48 ) ;
#59 = SURFACE_SIDE_STYLE ('',( #271 ) ) ;
#60 =( LENGTH_UNIT ( ) NAMED_UNIT ( * ) SI_UNIT ( $, .METRE. ) );
#61 = CIRCLE ( 'NONE', #159, 0.1562499999999997780 ) ;
#62 =( LENGTH_UNIT ( ) NAMED_UNIT ( * ) SI_UNIT ( $, .METRE. ) );
#63 = PRESENTATION_LAYER_ASSIGNMENT (  '', '', ( #9 ) ) ;
#64 = DIRECTION ( 'NONE',  ( -0.000000000000000000, -1.000000000000000000, -0.000000000000000000 ) ) ;
#65 = ADVANCED_FACE ( 'NONE', ( #148 ), #171, .T. ) ;
#66 = LENGTH_MEASURE_WITH_UNIT ( LENGTH_MEASURE( 0.02539999999999999897 ), #215 );
#67 = DIRECTION ( 'NONE',  ( -0.000000000000000000, -1.000000000000000000, -0.000000000000000000 ) ) ;
#68 = DIRECTION ( 'NONE',  ( -0.000000000000000000, -1.000000000000000000, -0.000000000000000000 ) ) ;
#69 = ORIENTED_EDGE ( 'NONE', *, *, #103, .F. ) ;
#70 = VECTOR ( 'NONE', #245, 39.37007874015748143 ) ;
#71 = PRODUCT ( '00240', '00240', '', ( #97 ) ) ;
#72 = CARTESIAN_POINT ( 'NONE',  ( 0.000000000000000000, 0.4374999999999998890, 0.000000000000000000 ) ) ;
#73 = PRODUCT_DEFINITION ( 'UNKNOWN', '', #306, #4 ) ;
#74 =( LENGTH_UNIT ( ) NAMED_UNIT ( * ) SI_UNIT ( $, .METRE. ) );
#75 = EDGE_CURVE ( 'NONE', #135, #44, #21, .T. ) ;
#76 =( GEOMETRIC_REPRESENTATION_CONTEXT ( 3 ) GLOBAL_UNCERTAINTY_ASSIGNED_CONTEXT ( ( #177 ) ) GLOBAL_UNIT_ASSIGNED_CONTEXT ( ( #114, #240, #113 ) ) REPRESENTATION_CONTEXT ( 'NONE', 'WORKASPACE' ) );
#77 = DIRECTION ( 'NONE',  ( 1.567547902908612085E-16, 1.000000000000000000, -0.000000000000000000 ) ) ;
#78 = DIMENSIONAL_EXPONENTS ( 1.000000000000000000, 0.000000000000000000, 0.000000000000000000, 0.000000000000000000, 0.000000000000000000, 0.000000000000000000, 0.000000000000000000 ) ;
#79 = FACE_OUTER_BOUND ( 'NONE', #254, .T. ) ;
#80 =( CONVERSION_BASED_UNIT ( 'INCH', #131 ) LENGTH_UNIT ( ) NAMED_UNIT ( #263 ) );
#81 = DIRECTION ( 'NONE',  ( 1.000000000000000000, -1.567547902908612085E-16, 0.000000000000000000 ) ) ;
#82 = PRESENTATION_STYLE_ASSIGNMENT (( #207 ) ) ;
#83 =( CONVERSION_BASED_UNIT ( 'INCH', #57 ) LENGTH_UNIT ( ) NAMED_UNIT ( #284 ) );
#84 = CARTESIAN_POINT ( 'NONE',  ( 0.000000000000000000, 0.4374999999999998890, 0.000000000000000000 ) ) ;
#85 = FILL_AREA_STYLE ('',( #160 ) ) ;
#86 = LENGTH_MEASURE_WITH_UNIT ( LENGTH_MEASURE( 0.02539999999999999897 ), #49 );
#87 = EDGE_CURVE ( 'NONE', #190, #217, #180, .T. ) ;
#88 = PRESENTATION_STYLE_ASSIGNMENT (( #18 ) ) ;
#89 = MECHANICAL_DESIGN_GEOMETRIC_PRESENTATION_REPRESENTATION (  '', ( #278 ), #30 ) ;
#90 = LINE ( 'NONE', #165, #168 ) ;
#91 = DIRECTION ( 'NONE',  ( -0.000000000000000000, -1.000000000000000000, -0.000000000000000000 ) ) ;
#92 = EDGE_CURVE ( 'NONE', #299, #44, #256, .T. ) ;
#93 = CARTESIAN_POINT ( 'NONE',  ( 0.000000000000000000, 0.000000000000000000, 0.000000000000000000 ) ) ;
#94 = AXIS2_PLACEMENT_3D ( 'NONE', #93, #91, #287 ) ;
#95 = CLOSED_SHELL ( 'NONE', ( #201, #298, #118, #45 ) ) ;
#96 = DIRECTION ( 'NONE',  ( 1.567547902908612085E-16, 1.000000000000000000, -0.000000000000000000 ) ) ;
#97 = PRODUCT_CONTEXT ( 'NONE', #28, 'mechanical' ) ;
#98 =( NAMED_UNIT ( * ) SI_UNIT ( $, .STERADIAN. ) SOLID_ANGLE_UNIT ( ) );
#99 = UNCERTAINTY_MEASURE_WITH_UNIT (LENGTH_MEASURE( 1.000000000000000082E-05 ), #181, 'distance_accuracy_value', 'NONE');
#100 = CIRCLE ( 'NONE', #269, 0.1562500000000000000 ) ;
#101 = DIRECTION ( 'NONE',  ( 0.000000000000000000, 0.000000000000000000, -1.000000000000000000 ) ) ;
#102 =( NAMED_UNIT ( * ) PLANE_ANGLE_UNIT ( ) SI_UNIT ( $, .RADIAN. ) );
#103 = EDGE_CURVE ( 'NONE', #217, #190, #100, .T. ) ;
#104 =( GEOMETRIC_REPRESENTATION_CONTEXT ( 3 ) GLOBAL_UNCERTAINTY_ASSIGNED_CONTEXT ( ( #309 ) ) GLOBAL_UNIT_ASSIGNED_CONTEXT ( ( #109, #188, #257 ) ) REPRESENTATION_CONTEXT ( 'NONE', 'WORKASPACE' ) );
#105 = FILL_AREA_STYLE ('',( #249 ) ) ;
#106 = SURFACE_STYLE_USAGE ( .BOTH. , #272 ) ;
#107 = FACE_OUTER_BOUND ( 'NONE', #143, .T. ) ;
#108 = ORIENTED_EDGE ( 'NONE', *, *, #103, .T. ) ;
#109 =( CONVERSION_BASED_UNIT ( 'INCH', #66 ) LENGTH_UNIT ( ) NAMED_UNIT ( #308 ) );
#110 = ORIENTED_EDGE ( 'NONE', *, *, #208, .T. ) ;
#111 = PRESENTATION_LAYER_ASSIGNMENT (  '', '', ( #146 ) ) ;
#112 = VERTEX_POINT ( 'NONE', #145 ) ;
#113 =( NAMED_UNIT ( * ) SI_UNIT ( $, .STERADIAN. ) SOLID_ANGLE_UNIT ( ) );
#114 =( CONVERSION_BASED_UNIT ( 'INCH', #142 ) LENGTH_UNIT ( ) NAMED_UNIT ( #116 ) );
#115 = ORIENTED_EDGE ( 'NONE', *, *, #32, .F. ) ;
#116 = DIMENSIONAL_EXPONENTS ( 1.000000000000000000, 0.000000000000000000, 0.000000000000000000, 0.000000000000000000, 0.000000000000000000, 0.000000000000000000, 0.000000000000000000 ) ;
#117 = COLOUR_RGB ( '',1.000000000000000000, 0.000000000000000000, 0.000000000000000000 ) ;
#118 = ADVANCED_FACE ( 'NONE', ( #79 ), #152, .T. ) ;
#119 = DIRECTION ( 'NONE',  ( 0.000000000000000000, 1.000000000000000000, 0.000000000000000000 ) ) ;
#120 = DIRECTION ( 'NONE',  ( -1.000000000000000000, 0.000000000000000000, 0.000000000000000000 ) ) ;
#121 = CARTESIAN_POINT ( 'NONE',  ( 2.449293598294706414E-16, 2.000000000000000000, 0.000000000000000000 ) ) ;
#122 = DIRECTION ( 'NONE',  ( -1.000000000000000000, 0.000000000000000000, 0.000000000000000000 ) ) ;
#123 = AXIS2_PLACEMENT_3D ( 'NONE', #46, #67, #17 ) ;
#124 = CARTESIAN_POINT ( 'NONE',  ( 0.000000000000000000, 0.000000000000000000, -0.1562500000000000000 ) ) ;
#125 = EDGE_CURVE ( 'NONE', #259, #112, #166, .T. ) ;
#126 = UNCERTAINTY_MEASURE_WITH_UNIT (LENGTH_MEASURE( 1.000000000000000082E-05 ), #83, 'distance_accuracy_value', 'NONE');
#127 = DIRECTION ( 'NONE',  ( 1.567547902908612085E-16, 1.000000000000000000, -0.000000000000000000 ) ) ;
#128 = SURFACE_STYLE_FILL_AREA ( #3 ) ;
#129 = CARTESIAN_POINT ( 'NONE',  ( -0.1562500000000000000, 0.4374999999999998890, 0.000000000000000000 ) ) ;
#130 = VERTEX_POINT ( 'NONE', #199 ) ;
#131 = LENGTH_MEASURE_WITH_UNIT ( LENGTH_MEASURE( 0.02539999999999999897 ), #60 );
#132 = PRESENTATION_LAYER_ASSIGNMENT (  '', '', ( #34 ) ) ;
#133 = EDGE_LOOP ( 'NONE', ( #275, #40 ) ) ;
#134 = SURFACE_STYLE_FILL_AREA ( #85 ) ;
#135 = VERTEX_POINT ( 'NONE', #174 ) ;
#136 =( LENGTH_UNIT ( ) NAMED_UNIT ( * ) SI_UNIT ( $, .METRE. ) );
#137 = DIRECTION ( 'NONE',  ( 0.000000000000000000, -0.000000000000000000, 1.000000000000000000 ) ) ;
#138 = EDGE_LOOP ( 'NONE', ( #69, #192 ) ) ;
#139 = ADVANCED_BREP_SHAPE_REPRESENTATION ( '00240', ( #274, #176, #58 ), #191 ) ;
#140 = EDGE_CURVE ( 'NONE', #135, #130, #209, .T. ) ;
#141 =( GEOMETRIC_REPRESENTATION_CONTEXT ( 3 ) GLOBAL_UNCERTAINTY_ASSIGNED_CONTEXT ( ( #126 ) ) GLOBAL_UNIT_ASSIGNED_CONTEXT ( ( #83, #102, #35 ) ) REPRESENTATION_CONTEXT ( 'NONE', 'WORKASPACE' ) );
#142 = LENGTH_MEASURE_WITH_UNIT ( LENGTH_MEASURE( 0.02539999999999999897 ), #74 );
#143 = EDGE_LOOP ( 'NONE', ( #214, #115 ) ) ;
#144 = CARTESIAN_POINT ( 'NONE',  ( 1.913510623667739463E-17, 0.000000000000000000, 0.1562500000000000000 ) ) ;
#145 = CARTESIAN_POINT ( 'NONE',  ( 0.1562500000000000000, 2.000000000000000000, 1.913510623667738539E-17 ) ) ;
#146 = STYLED_ITEM ( 'NONE', ( #88 ), #45 ) ;
#147 = LENGTH_MEASURE_WITH_UNIT ( LENGTH_MEASURE( 0.02539999999999999897 ), #198 );
#148 = FACE_OUTER_BOUND ( 'NONE', #219, .T. ) ;
#149 = CARTESIAN_POINT ( 'NONE',  ( 0.1562500000000001110, 2.000000000000000000, 1.913510623667737923E-17 ) ) ;
#150 = EDGE_CURVE ( 'NONE', #190, #112, #54, .T. ) ;
#151 =( GEOMETRIC_REPRESENTATION_CONTEXT ( 3 ) GLOBAL_UNCERTAINTY_ASSIGNED_CONTEXT ( ( #154 ) ) GLOBAL_UNIT_ASSIGNED_CONTEXT ( ( #80, #293, #276 ) ) REPRESENTATION_CONTEXT ( 'NONE', 'WORKASPACE' ) );
#152 = CYLINDRICAL_SURFACE ( 'NONE', #94, 0.1562500000000000000 ) ;
#153 = PRESENTATION_STYLE_ASSIGNMENT (( #106 ) ) ;
#154 = UNCERTAINTY_MEASURE_WITH_UNIT (LENGTH_MEASURE( 1.000000000000000082E-05 ), #80, 'distance_accuracy_value', 'NONE');
#155 = AXIS2_PLACEMENT_3D ( 'NONE', #121, #247, #307 ) ;
#156 = LENGTH_MEASURE_WITH_UNIT ( LENGTH_MEASURE( 0.02539999999999999897 ), #136 );
#157 = EDGE_LOOP ( 'NONE', ( #216, #210, #169, #39 ) ) ;
#158 = CARTESIAN_POINT ( 'NONE',  ( 0.1562500000000000000, 2.000000000000000000, 0.000000000000000000 ) ) ;
#159 = AXIS2_PLACEMENT_3D ( 'NONE', #164, #235, #196 ) ;
#160 = FILL_AREA_STYLE_COLOUR ( '', #248 ) ;
#161 = DIRECTION ( 'NONE',  ( 0.000000000000000000, 0.000000000000000000, -1.000000000000000000 ) ) ;
#162 = DIRECTION ( 'NONE',  ( 1.567547902908612085E-16, 1.000000000000000000, -0.000000000000000000 ) ) ;
#163 = PLANE ( 'NONE',  #47 ) ;
#164 = CARTESIAN_POINT ( 'NONE',  ( 2.449293598294706414E-16, 2.000000000000000000, 0.000000000000000000 ) ) ;
#165 = CARTESIAN_POINT ( 'NONE',  ( 1.913510623667739463E-17, 0.000000000000000000, 0.1562500000000000000 ) ) ;
#166 = CIRCLE ( 'NONE', #155, 0.1562499999999997780 ) ;
#167 = FILL_AREA_STYLE_COLOUR ( '', #117 ) ;
#168 = VECTOR ( 'NONE', #68, 39.37007874015748143 ) ;
#169 = ORIENTED_EDGE ( 'NONE', *, *, #10, .F. ) ;
#170 =( NAMED_UNIT ( * ) SI_UNIT ( $, .STERADIAN. ) SOLID_ANGLE_UNIT ( ) );
#171 = CYLINDRICAL_SURFACE ( 'NONE', #288, 0.1562499999999998612 ) ;
#172 = UNCERTAINTY_MEASURE_WITH_UNIT (LENGTH_MEASURE( 1.000000000000000082E-05 ), #1, 'distance_accuracy_value', 'NONE');
#173 = PRODUCT_DEFINITION_SHAPE ( 'NONE', 'NONE',  #73 ) ;
#174 = CARTESIAN_POINT ( 'NONE',  ( 0.000000000000000000, 0.4374999999999998890, -0.1562500000000000000 ) ) ;
#175 = CARTESIAN_POINT ( 'NONE',  ( 0.000000000000000000, 0.4374999999999998890, 0.000000000000000000 ) ) ;
#176 = MANIFOLD_SOLID_BREP ( 'Revolve - Tool Body (Straight Shanked)', #302 ) ;
#177 = UNCERTAINTY_MEASURE_WITH_UNIT (LENGTH_MEASURE( 1.000000000000000082E-05 ), #114, 'distance_accuracy_value', 'NONE');
#178 = FILL_AREA_STYLE_COLOUR ( '', #221 ) ;
#179 = DIRECTION ( 'NONE',  ( -0.000000000000000000, -1.000000000000000000, -0.000000000000000000 ) ) ;
#180 = CIRCLE ( 'NONE', #241, 0.1562500000000000000 ) ;
#181 =( CONVERSION_BASED_UNIT ( 'INCH', #156 ) LENGTH_UNIT ( ) NAMED_UNIT ( #78 ) );
#182 = ORIENTED_EDGE ( 'NONE', *, *, #32, .T. ) ;
#183 = PRODUCT_RELATED_PRODUCT_CATEGORY ( 'part', '', ( #71 ) ) ;
#184 = SURFACE_SIDE_STYLE ('',( #273 ) ) ;
#185 = AXIS2_PLACEMENT_3D ( 'NONE', #72, #119, #137 ) ;
#186 = DIRECTION ( 'NONE',  ( -1.000000000000000000, 0.000000000000000000, 0.000000000000000000 ) ) ;
#187 = CARTESIAN_POINT ( 'NONE',  ( 0.000000000000000000, 0.000000000000000000, -0.1562500000000000000 ) ) ;
#188 =( NAMED_UNIT ( * ) PLANE_ANGLE_UNIT ( ) SI_UNIT ( $, .RADIAN. ) );
#189 =( CONVERSION_BASED_UNIT ( 'INCH', #86 ) LENGTH_UNIT ( ) NAMED_UNIT ( #197 ) );
#190 = VERTEX_POINT ( 'NONE', #227 ) ;
#191 =( GEOMETRIC_REPRESENTATION_CONTEXT ( 3 ) GLOBAL_UNCERTAINTY_ASSIGNED_CONTEXT ( ( #202 ) ) GLOBAL_UNIT_ASSIGNED_CONTEXT ( ( #189, #41, #98 ) ) REPRESENTATION_CONTEXT ( 'NONE', 'WORKASPACE' ) );
#192 = ORIENTED_EDGE ( 'NONE', *, *, #87, .F. ) ;
#193 = AXIS2_PLACEMENT_3D ( 'NONE', #84, #64, #161 ) ;
#194 = SURFACE_STYLE_FILL_AREA ( #238 ) ;
#195 = DIRECTION ( 'NONE',  ( -1.000000000000000000, 1.567547902908612085E-16, 0.000000000000000000 ) ) ;
#196 = DIRECTION ( 'NONE',  ( -1.000000000000000000, 0.000000000000000000, 0.000000000000000000 ) ) ;
#197 = DIMENSIONAL_EXPONENTS ( 1.000000000000000000, 0.000000000000000000, 0.000000000000000000, 0.000000000000000000, 0.000000000000000000, 0.000000000000000000, 0.000000000000000000 ) ;
#198 =( LENGTH_UNIT ( ) NAMED_UNIT ( * ) SI_UNIT ( $, .METRE. ) );
#199 = CARTESIAN_POINT ( 'NONE',  ( 1.913510623667739463E-17, 0.4374999999999998890, 0.1562500000000000000 ) ) ;
#200 = STYLED_ITEM ( 'NONE', ( #153 ), #176 ) ;
#201 = ADVANCED_FACE ( 'NONE', ( #297 ), #222, .T. ) ;
#202 = UNCERTAINTY_MEASURE_WITH_UNIT (LENGTH_MEASURE( 1.000000000000000082E-05 ), #189, 'distance_accuracy_value', 'NONE');
#203 = FILL_AREA_STYLE_COLOUR ( '', #261 ) ;
#204 = DIRECTION ( 'NONE',  ( -0.000000000000000000, -1.000000000000000000, -0.000000000000000000 ) ) ;
#205 = MECHANICAL_DESIGN_GEOMETRIC_PRESENTATION_REPRESENTATION (  '', ( #232 ), #25 ) ;
#206 = AXIS2_PLACEMENT_3D ( 'NONE', #286, #53, #266 ) ;
#207 = SURFACE_STYLE_USAGE ( .BOTH. , #59 ) ;
#208 = EDGE_CURVE ( 'NONE', #217, #259, #36, .T. ) ;
#209 = CIRCLE ( 'NONE', #6, 0.1562500000000000000 ) ;
#210 = ORIENTED_EDGE ( 'NONE', *, *, #2, .T. ) ;
#211 = FACE_OUTER_BOUND ( 'NONE', #14, .T. ) ;
#212 = PRESENTATION_STYLE_ASSIGNMENT (( #13 ) ) ;
#213 =( NAMED_UNIT ( * ) SI_UNIT ( $, .STERADIAN. ) SOLID_ANGLE_UNIT ( ) );
#214 = ORIENTED_EDGE ( 'NONE', *, *, #140, .F. ) ;
#215 =( LENGTH_UNIT ( ) NAMED_UNIT ( * ) SI_UNIT ( $, .METRE. ) );
#216 = ORIENTED_EDGE ( 'NONE', *, *, #140, .T. ) ;
#217 = VERTEX_POINT ( 'NONE', #129 ) ;
#218 = CARTESIAN_POINT ( 'NONE',  ( 1.919692521807178203E-33, 0.4374999999999998890, 0.000000000000000000 ) ) ;
#219 = EDGE_LOOP ( 'NONE', ( #108, #12, #300, #305 ) ) ;
#220 = SURFACE_SIDE_STYLE ('',( #24 ) ) ;
#221 = COLOUR_RGB ( '',0.7921568627450980005, 0.8196078431372548767, 0.9333333333333333481 ) ;
#222 = CYLINDRICAL_SURFACE ( 'NONE', #250, 0.1562500000000000000 ) ;
#223 = SHAPE_DEFINITION_REPRESENTATION ( #173, #139 ) ;
#224 = ADVANCED_FACE ( 'NONE', ( #228 ), #7, .F. ) ;
#225 = FILL_AREA_STYLE ('',( #203 ) ) ;
#226 = AXIS2_PLACEMENT_3D ( 'NONE', #244, #265, #50 ) ;
#227 = CARTESIAN_POINT ( 'NONE',  ( 0.1562500000000000000, 0.4374999999999998890, 1.913510623667738539E-17 ) ) ;
#228 = FACE_OUTER_BOUND ( 'NONE', #42, .T. ) ;
#229 = MECHANICAL_DESIGN_GEOMETRIC_PRESENTATION_REPRESENTATION (  '', ( #34 ), #104 ) ;
#230 = CARTESIAN_POINT ( 'NONE',  ( -0.1562499999999996392, 2.000000000000000000, 0.000000000000000000 ) ) ;
#231 = PLANE ( 'NONE',  #206 ) ;
#232 = STYLED_ITEM ( 'NONE', ( #212 ), #298 ) ;
#233 = SURFACE_SIDE_STYLE ('',( #134 ) ) ;
#234 = DIRECTION ( 'NONE',  ( 1.567547902908612085E-16, 1.000000000000000000, -0.000000000000000000 ) ) ;
#235 = DIRECTION ( 'NONE',  ( 1.567547902908612085E-16, 1.000000000000000000, -0.000000000000000000 ) ) ;
#236 = VECTOR ( 'NONE', #264, 39.37007874015748143 ) ;
#237 = ORIENTED_EDGE ( 'NONE', *, *, #87, .T. ) ;
#238 = FILL_AREA_STYLE ('',( #167 ) ) ;
#239 = FACE_OUTER_BOUND ( 'NONE', #138, .T. ) ;
#240 =( NAMED_UNIT ( * ) PLANE_ANGLE_UNIT ( ) SI_UNIT ( $, .RADIAN. ) );
#241 = AXIS2_PLACEMENT_3D ( 'NONE', #242, #96, #120 ) ;
#242 = CARTESIAN_POINT ( 'NONE',  ( 0.000000000000000000, 0.4374999999999998890, 0.000000000000000000 ) ) ;
#243 = PRESENTATION_STYLE_ASSIGNMENT (( #5 ) ) ;
#244 = CARTESIAN_POINT ( 'NONE',  ( 0.000000000000000000, 0.000000000000000000, 0.000000000000000000 ) ) ;
#245 = DIRECTION ( 'NONE',  ( 1.567547902908612085E-16, 1.000000000000000000, -0.000000000000000000 ) ) ;
#246 = COLOUR_RGB ( '',0.7921568627450980005, 0.8196078431372548767, 0.9333333333333333481 ) ;
#247 = DIRECTION ( 'NONE',  ( 1.567547902908612085E-16, 1.000000000000000000, -0.000000000000000000 ) ) ;
#248 = COLOUR_RGB ( '',1.000000000000000000, 0.000000000000000000, 0.000000000000000000 ) ;
#249 = FILL_AREA_STYLE_COLOUR ( '', #294 ) ;
#250 = AXIS2_PLACEMENT_3D ( 'NONE', #251, #179, #101 ) ;
#251 = CARTESIAN_POINT ( 'NONE',  ( 0.000000000000000000, 0.000000000000000000, 0.000000000000000000 ) ) ;
#252 = PRESENTATION_STYLE_ASSIGNMENT (( #270 ) ) ;
#253 = CYLINDRICAL_SURFACE ( 'NONE', #19, 0.1562499999999998612 ) ;
#254 = EDGE_LOOP ( 'NONE', ( #303, #182, #280, #16 ) ) ;
#255 = MECHANICAL_DESIGN_GEOMETRIC_PRESENTATION_REPRESENTATION (  '', ( #200 ), #151 ) ;
#256 = CIRCLE ( 'NONE', #226, 0.1562500000000000000 ) ;
#257 =( NAMED_UNIT ( * ) SI_UNIT ( $, .STERADIAN. ) SOLID_ANGLE_UNIT ( ) );
#258 = FACE_OUTER_BOUND ( 'NONE', #133, .T. ) ;
#259 = VERTEX_POINT ( 'NONE', #296 ) ;
#260 = PRESENTATION_LAYER_ASSIGNMENT (  '', '', ( #232 ) ) ;
#261 = COLOUR_RGB ( '',1.000000000000000000, 0.000000000000000000, 0.000000000000000000 ) ;
#262 = ORIENTED_EDGE ( 'NONE', *, *, #27, .F. ) ;
#263 = DIMENSIONAL_EXPONENTS ( 1.000000000000000000, 0.000000000000000000, 0.000000000000000000, 0.000000000000000000, 0.000000000000000000, 0.000000000000000000, 0.000000000000000000 ) ;
#264 = DIRECTION ( 'NONE',  ( -0.000000000000000000, -1.000000000000000000, -0.000000000000000000 ) ) ;
#265 = DIRECTION ( 'NONE',  ( -0.000000000000000000, -1.000000000000000000, -0.000000000000000000 ) ) ;
#266 = DIRECTION ( 'NONE',  ( 0.000000000000000000, 0.000000000000000000, -1.000000000000000000 ) ) ;
#267 = CARTESIAN_POINT ( 'NONE',  ( 0.000000000000000000, 0.000000000000000000, 0.000000000000000000 ) ) ;
#268 = DIRECTION ( 'NONE',  ( 0.000000000000000000, 0.000000000000000000, -1.000000000000000000 ) ) ;
#269 = AXIS2_PLACEMENT_3D ( 'NONE', #26, #127, #122 ) ;
#270 = SURFACE_STYLE_USAGE ( .BOTH. , #184 ) ;
#271 = SURFACE_STYLE_FILL_AREA ( #33 ) ;
#272 = SURFACE_SIDE_STYLE ('',( #128 ) ) ;
#273 = SURFACE_STYLE_FILL_AREA ( #105 ) ;
#274 = MANIFOLD_SOLID_BREP ( 'Revolve - Cutting Edge', #95 ) ;
#275 = ORIENTED_EDGE ( 'NONE', *, *, #10, .T. ) ;
#276 =( NAMED_UNIT ( * ) SI_UNIT ( $, .STERADIAN. ) SOLID_ANGLE_UNIT ( ) );
#277 =( NAMED_UNIT ( * ) PLANE_ANGLE_UNIT ( ) SI_UNIT ( $, .RADIAN. ) );
#278 = STYLED_ITEM ( 'NONE', ( #243 ), #118 ) ;
#279 = SURFACE_SIDE_STYLE ('',( #194 ) ) ;
#280 = ORIENTED_EDGE ( 'NONE', *, *, #75, .T. ) ;
#281 = ADVANCED_FACE ( 'NONE', ( #211 ), #253, .T. ) ;
#282 = ORIENTED_EDGE ( 'NONE', *, *, #125, .T. ) ;
#283 = PRESENTATION_LAYER_ASSIGNMENT (  '', '', ( #200 ) ) ;
#284 = DIMENSIONAL_EXPONENTS ( 1.000000000000000000, 0.000000000000000000, 0.000000000000000000, 0.000000000000000000, 0.000000000000000000, 0.000000000000000000, 0.000000000000000000 ) ;
#285 = PLANE ( 'NONE',  #185 ) ;
#286 = CARTESIAN_POINT ( 'NONE',  ( 0.000000000000000000, 0.000000000000000000, 0.000000000000000000 ) ) ;
#287 = DIRECTION ( 'NONE',  ( 0.000000000000000000, 0.000000000000000000, -1.000000000000000000 ) ) ;
#288 = AXIS2_PLACEMENT_3D ( 'NONE', #292, #77, #52 ) ;
#289 = APPLICATION_CONTEXT ( 'automotive_design' ) ;
#290 =( NAMED_UNIT ( * ) PLANE_ANGLE_UNIT ( ) SI_UNIT ( $, .RADIAN. ) );
#291 = APPLICATION_PROTOCOL_DEFINITION ( 'draft international standard', 'automotive_design', 1998, #289 ) ;
#292 = CARTESIAN_POINT ( 'NONE',  ( 2.449293598294706414E-16, 2.000000000000000000, 0.000000000000000000 ) ) ;
#293 =( NAMED_UNIT ( * ) PLANE_ANGLE_UNIT ( ) SI_UNIT ( $, .RADIAN. ) );
#294 = COLOUR_RGB ( '',1.000000000000000000, 0.000000000000000000, 0.000000000000000000 ) ;
#295 = DIRECTION ( 'NONE',  ( -1.567547902908612085E-16, -1.000000000000000000, 0.000000000000000000 ) ) ;
#296 = CARTESIAN_POINT ( 'NONE',  ( -0.1562499999999995282, 2.000000000000000000, 0.000000000000000000 ) ) ;
#297 = FACE_OUTER_BOUND ( 'NONE', #157, .T. ) ;
#298 = ADVANCED_FACE ( 'NONE', ( #107 ), #285, .T. ) ;
#299 = VERTEX_POINT ( 'NONE', #144 ) ;
#300 = ORIENTED_EDGE ( 'NONE', *, *, #125, .F. ) ;
#301 = CIRCLE ( 'NONE', #193, 0.1562500000000000000 ) ;
#302 = CLOSED_SHELL ( 'NONE', ( #65, #304, #281, #224 ) ) ;
#303 = ORIENTED_EDGE ( 'NONE', *, *, #2, .F. ) ;
#304 = ADVANCED_FACE ( 'NONE', ( #239 ), #163, .F. ) ;
#305 = ORIENTED_EDGE ( 'NONE', *, *, #208, .F. ) ;
#306 = PRODUCT_DEFINITION_FORMATION_WITH_SPECIFIED_SOURCE ( 'ANY', '', #71, .NOT_KNOWN. ) ;
#307 = DIRECTION ( 'NONE',  ( -1.000000000000000000, 0.000000000000000000, 0.000000000000000000 ) ) ;
#308 = DIMENSIONAL_EXPONENTS ( 1.000000000000000000, 0.000000000000000000, 0.000000000000000000, 0.000000000000000000, 0.000000000000000000, 0.000000000000000000, 0.000000000000000000 ) ;
#309 = UNCERTAINTY_MEASURE_WITH_UNIT (LENGTH_MEASURE( 1.000000000000000082E-05 ), #109, 'distance_accuracy_value', 'NONE');
ENDSEC;
END-ISO-10303-21;
