ISO-10303-21;
HEADER;
FILE_DESCRIPTION (( 'STEP AP214' ),
    '1' );
FILE_NAME ('01617.STEP',
    '2023-06-22T14:40:52',
    ( '' ),
    ( '' ),
    'SwSTEP 2.0',
    'SolidWorks 2023',
    '' );
FILE_SCHEMA (( 'AUTOMOTIVE_DESIGN' ));
ENDSEC;

DATA;
#1 = UNCERTAINTY_MEASURE_WITH_UNIT (LENGTH_MEASURE( 1.000000000000000082E-05 ), #252, 'distance_accuracy_value', 'NONE');
#2 =( GEOMETRIC_REPRESENTATION_CONTEXT ( 3 ) GLOBAL_UNCERTAINTY_ASSIGNED_CONTEXT ( ( #102 ) ) GLOBAL_UNIT_ASSIGNED_CONTEXT ( ( #101, #8, #73 ) ) REPRESENTATION_CONTEXT ( 'NONE', 'WORKASPACE' ) );
#3 = EDGE_CURVE ( 'NONE', #195, #248, #291, .T. ) ;
#4 = DIRECTION ( 'NONE',  ( -0.000000000000000000, -1.000000000000000000, -0.000000000000000000 ) ) ;
#5 = SURFACE_STYLE_USAGE ( .BOTH. , #45 ) ;
#6 = DIRECTION ( 'NONE',  ( 5.442874662877130022E-17, -1.000000000000000000, 0.000000000000000000 ) ) ;
#7 = APPLICATION_CONTEXT ( 'automotive_design' ) ;
#8 =( NAMED_UNIT ( * ) PLANE_ANGLE_UNIT ( ) SI_UNIT ( $, .RADIAN. ) );
#9 = SURFACE_STYLE_FILL_AREA ( #123 ) ;
#10 = ORIENTED_EDGE ( 'NONE', *, *, #130, .F. ) ;
#11 = DIMENSIONAL_EXPONENTS ( 1.000000000000000000, 0.000000000000000000, 0.000000000000000000, 0.000000000000000000, 0.000000000000000000, 0.000000000000000000, 0.000000000000000000 ) ;
#12 = PRESENTATION_STYLE_ASSIGNMENT (( #227 ) ) ;
#13 = ORIENTED_EDGE ( 'NONE', *, *, #223, .T. ) ;
#14 = ORIENTED_EDGE ( 'NONE', *, *, #218, .F. ) ;
#15 = DIRECTION ( 'NONE',  ( -1.000000000000000000, 0.000000000000000000, 0.000000000000000000 ) ) ;
#16 = DIRECTION ( 'NONE',  ( -1.000000000000000000, 0.000000000000000000, 0.000000000000000000 ) ) ;
#17 = FILL_AREA_STYLE_COLOUR ( '', #225 ) ;
#18 = EDGE_CURVE ( 'NONE', #248, #147, #296, .T. ) ;
#19 = PRESENTATION_STYLE_ASSIGNMENT (( #5 ) ) ;
#20 = AXIS2_PLACEMENT_3D ( 'NONE', #85, #180, #156 ) ;
#21 = ORIENTED_EDGE ( 'NONE', *, *, #18, .F. ) ;
#22 = UNCERTAINTY_MEASURE_WITH_UNIT (LENGTH_MEASURE( 1.000000000000000082E-05 ), #117, 'distance_accuracy_value', 'NONE');
#23 =( NAMED_UNIT ( * ) SI_UNIT ( $, .STERADIAN. ) SOLID_ANGLE_UNIT ( ) );
#24 = FACE_OUTER_BOUND ( 'NONE', #50, .T. ) ;
#25 = PRESENTATION_STYLE_ASSIGNMENT (( #83 ) ) ;
#26 = CARTESIAN_POINT ( 'NONE',  ( 0.000000000000000000, 0.000000000000000000, 0.000000000000000000 ) ) ;
#27 = EDGE_CURVE ( 'NONE', #74, #34, #122, .T. ) ;
#28 = PLANE ( 'NONE',  #54 ) ;
#29 = PRESENTATION_LAYER_ASSIGNMENT (  '', '', ( #301 ) ) ;
#30 = CYLINDRICAL_SURFACE ( 'NONE', #258, 0.3125000000000000000 ) ;
#31 = DIRECTION ( 'NONE',  ( -5.442874662877130022E-17, 1.000000000000000000, 0.000000000000000000 ) ) ;
#32 = ORIENTED_EDGE ( 'NONE', *, *, #272, .F. ) ;
#33 =( LENGTH_UNIT ( ) NAMED_UNIT ( * ) SI_UNIT ( $, .METRE. ) );
#34 = VERTEX_POINT ( 'NONE', #183 ) ;
#35 = DIRECTION ( 'NONE',  ( -5.442874662877130638E-17, 1.000000000000000000, -0.000000000000000000 ) ) ;
#36 = ORIENTED_EDGE ( 'NONE', *, *, #165, .T. ) ;
#37 = DIRECTION ( 'NONE',  ( -1.000000000000000000, 0.000000000000000000, 0.000000000000000000 ) ) ;
#38 = PRODUCT_RELATED_PRODUCT_CATEGORY ( 'part', '', ( #104 ) ) ;
#39 = EDGE_LOOP ( 'NONE', ( #135, #56 ) ) ;
#40 = AXIS2_PLACEMENT_3D ( 'NONE', #154, #35, #276 ) ;
#41 = MECHANICAL_DESIGN_GEOMETRIC_PRESENTATION_REPRESENTATION (  '', ( #301 ), #163 ) ;
#42 = EDGE_CURVE ( 'NONE', #195, #127, #278, .T. ) ;
#43 =( NAMED_UNIT ( * ) PLANE_ANGLE_UNIT ( ) SI_UNIT ( $, .RADIAN. ) );
#44 = CARTESIAN_POINT ( 'NONE',  ( 0.000000000000000000, 0.000000000000000000, 0.000000000000000000 ) ) ;
#45 = SURFACE_SIDE_STYLE ('',( #172 ) ) ;
#46 = CARTESIAN_POINT ( 'NONE',  ( 0.000000000000000000, 0.000000000000000000, 0.000000000000000000 ) ) ;
#47 =( NAMED_UNIT ( * ) PLANE_ANGLE_UNIT ( ) SI_UNIT ( $, .RADIAN. ) );
#48 = FILL_AREA_STYLE ('',( #17 ) ) ;
#49 = CIRCLE ( 'NONE', #40, 0.3125000000000000000 ) ;
#50 = EDGE_LOOP ( 'NONE', ( #106, #204 ) ) ;
#51 = SURFACE_STYLE_FILL_AREA ( #48 ) ;
#52 = DIRECTION ( 'NONE',  ( -5.442874662877130638E-17, 1.000000000000000000, -0.000000000000000000 ) ) ;
#53 = DIMENSIONAL_EXPONENTS ( 1.000000000000000000, 0.000000000000000000, 0.000000000000000000, 0.000000000000000000, 0.000000000000000000, 0.000000000000000000, 0.000000000000000000 ) ;
#54 = AXIS2_PLACEMENT_3D ( 'NONE', #71, #197, #148 ) ;
#55 = DIRECTION ( 'NONE',  ( -0.000000000000000000, -1.000000000000000000, -0.000000000000000000 ) ) ;
#56 = ORIENTED_EDGE ( 'NONE', *, *, #3, .F. ) ;
#57 = CARTESIAN_POINT ( 'NONE',  ( 3.827021247335478926E-17, 0.000000000000000000, 0.3125000000000000000 ) ) ;
#58 = DIRECTION ( 'NONE',  ( 1.000000000000000000, 5.442874662877130022E-17, 0.000000000000000000 ) ) ;
#59 = FACE_OUTER_BOUND ( 'NONE', #250, .T. ) ;
#60 = VERTEX_POINT ( 'NONE', #282 ) ;
#61 = EDGE_CURVE ( 'NONE', #302, #34, #65, .T. ) ;
#62 = CARTESIAN_POINT ( 'NONE',  ( 0.000000000000000000, 0.000000000000000000, 0.000000000000000000 ) ) ;
#63 = APPLICATION_CONTEXT ( 'automotive_design' ) ;
#64 = ADVANCED_BREP_SHAPE_REPRESENTATION ( '01617', ( #98, #200, #93 ), #308 ) ;
#65 = LINE ( 'NONE', #198, #142 ) ;
#66 = DIRECTION ( 'NONE',  ( 1.000000000000000000, 0.000000000000000000, 0.000000000000000000 ) ) ;
#67 = COLOUR_RGB ( '',0.7921568627450980005, 0.8196078431372548767, 0.9333333333333333481 ) ;
#68 = CARTESIAN_POINT ( 'NONE',  ( 0.3124999999999999445, 6.000000000000000888, 3.827021247335479543E-17 ) ) ;
#69 = SURFACE_SIDE_STYLE ('',( #51 ) ) ;
#70 = DIRECTION ( 'NONE',  ( 0.000000000000000000, 0.000000000000000000, -1.000000000000000000 ) ) ;
#71 = CARTESIAN_POINT ( 'NONE',  ( 0.000000000000000000, 3.750000000000000000, 0.000000000000000000 ) ) ;
#72 = UNCERTAINTY_MEASURE_WITH_UNIT (LENGTH_MEASURE( 1.000000000000000082E-05 ), #131, 'distance_accuracy_value', 'NONE');
#73 =( NAMED_UNIT ( * ) SI_UNIT ( $, .STERADIAN. ) SOLID_ANGLE_UNIT ( ) );
#74 = VERTEX_POINT ( 'NONE', #159 ) ;
#75 = FILL_AREA_STYLE_COLOUR ( '', #285 ) ;
#76 = FILL_AREA_STYLE_COLOUR ( '', #177 ) ;
#77 =( LENGTH_UNIT ( ) NAMED_UNIT ( * ) SI_UNIT ( $, .METRE. ) );
#78 = AXIS2_PLACEMENT_3D ( 'NONE', #26, #143, #70 ) ;
#79 = FACE_OUTER_BOUND ( 'NONE', #294, .T. ) ;
#80 = ORIENTED_EDGE ( 'NONE', *, *, #42, .F. ) ;
#81 = CARTESIAN_POINT ( 'NONE',  ( -1.224646799147354440E-16, 6.000000000000000888, 0.000000000000000000 ) ) ;
#82 = DIRECTION ( 'NONE',  ( -0.000000000000000000, -1.000000000000000000, -0.000000000000000000 ) ) ;
#83 = SURFACE_STYLE_USAGE ( .BOTH. , #90 ) ;
#84 = LENGTH_MEASURE_WITH_UNIT ( LENGTH_MEASURE( 0.02539999999999999897 ), #237 );
#85 = CARTESIAN_POINT ( 'NONE',  ( -1.224646799147354440E-16, 6.000000000000000888, 0.000000000000000000 ) ) ;
#86 = SURFACE_STYLE_USAGE ( .BOTH. , #230 ) ;
#87 = CLOSED_SHELL ( 'NONE', ( #246, #212, #267, #191 ) ) ;
#88 = MECHANICAL_DESIGN_GEOMETRIC_PRESENTATION_REPRESENTATION (  '', ( #262 ), #216 ) ;
#89 = DIRECTION ( 'NONE',  ( -0.000000000000000000, -1.000000000000000000, -0.000000000000000000 ) ) ;
#90 = SURFACE_SIDE_STYLE ('',( #196 ) ) ;
#91 = PRODUCT_CONTEXT ( 'NONE', #63, 'mechanical' ) ;
#92 = PRESENTATION_LAYER_ASSIGNMENT (  '', '', ( #262 ) ) ;
#93 = AXIS2_PLACEMENT_3D ( 'NONE', #62, #114, #66 ) ;
#94 = MECHANICAL_DESIGN_GEOMETRIC_PRESENTATION_REPRESENTATION (  '', ( #188 ), #239 ) ;
#95 = EDGE_CURVE ( 'NONE', #60, #302, #49, .T. ) ;
#96 = STYLED_ITEM ( 'NONE', ( #141 ), #267 ) ;
#97 =( NAMED_UNIT ( * ) SI_UNIT ( $, .STERADIAN. ) SOLID_ANGLE_UNIT ( ) );
#98 = MANIFOLD_SOLID_BREP ( 'Revolve - Cutting Edge', #87 ) ;
#99 = DIRECTION ( 'NONE',  ( -1.000000000000000000, 0.000000000000000000, 0.000000000000000000 ) ) ;
#100 = FACE_OUTER_BOUND ( 'NONE', #139, .T. ) ;
#101 =( CONVERSION_BASED_UNIT ( 'INCH', #240 ) LENGTH_UNIT ( ) NAMED_UNIT ( #260 ) );
#102 = UNCERTAINTY_MEASURE_WITH_UNIT (LENGTH_MEASURE( 1.000000000000000082E-05 ), #101, 'distance_accuracy_value', 'NONE');
#103 =( CONVERSION_BASED_UNIT ( 'INCH', #182 ) LENGTH_UNIT ( ) NAMED_UNIT ( #287 ) );
#104 = PRODUCT ( '01617', '01617', '', ( #91 ) ) ;
#105 = EDGE_LOOP ( 'NONE', ( #80, #224, #266, #32 ) ) ;
#106 = ORIENTED_EDGE ( 'NONE', *, *, #130, .T. ) ;
#107 = CIRCLE ( 'NONE', #78, 0.3125000000000000000 ) ;
#108 = ORIENTED_EDGE ( 'NONE', *, *, #115, .T. ) ;
#109 = DIRECTION ( 'NONE',  ( 0.000000000000000000, 0.000000000000000000, -1.000000000000000000 ) ) ;
#110 = PRESENTATION_STYLE_ASSIGNMENT (( #86 ) ) ;
#111 = ORIENTED_EDGE ( 'NONE', *, *, #42, .T. ) ;
#112 =( LENGTH_UNIT ( ) NAMED_UNIT ( * ) SI_UNIT ( $, .METRE. ) );
#113 = AXIS2_PLACEMENT_3D ( 'NONE', #174, #193, #99 ) ;
#114 = DIRECTION ( 'NONE',  ( 0.000000000000000000, 0.000000000000000000, 1.000000000000000000 ) ) ;
#115 = EDGE_CURVE ( 'NONE', #60, #74, #149, .T. ) ;
#116 = AXIS2_PLACEMENT_3D ( 'NONE', #289, #170, #190 ) ;
#117 =( CONVERSION_BASED_UNIT ( 'INCH', #288 ) LENGTH_UNIT ( ) NAMED_UNIT ( #192 ) );
#118 = PRESENTATION_LAYER_ASSIGNMENT (  '', '', ( #188 ) ) ;
#119 = PRESENTATION_LAYER_ASSIGNMENT (  '', '', ( #96 ) ) ;
#120 =( LENGTH_UNIT ( ) NAMED_UNIT ( * ) SI_UNIT ( $, .METRE. ) );
#121 = CARTESIAN_POINT ( 'NONE',  ( 3.827021247335478926E-17, 3.750000000000000000, 0.3125000000000000000 ) ) ;
#122 = CIRCLE ( 'NONE', #210, 0.3125000000000001665 ) ;
#123 = FILL_AREA_STYLE ('',( #76 ) ) ;
#124 = CARTESIAN_POINT ( 'NONE',  ( 0.3125000000000000000, 6.000000000000000888, 0.000000000000000000 ) ) ;
#125 = DIRECTION ( 'NONE',  ( 0.000000000000000000, 0.000000000000000000, -1.000000000000000000 ) ) ;
#126 = DIRECTION ( 'NONE',  ( -1.000000000000000000, -5.442874662877130022E-17, 0.000000000000000000 ) ) ;
#127 = VERTEX_POINT ( 'NONE', #162 ) ;
#128 = FILL_AREA_STYLE_COLOUR ( '', #268 ) ;
#129 = ORIENTED_EDGE ( 'NONE', *, *, #165, .F. ) ;
#130 = EDGE_CURVE ( 'NONE', #147, #127, #107, .T. ) ;
#131 =( CONVERSION_BASED_UNIT ( 'INCH', #84 ) LENGTH_UNIT ( ) NAMED_UNIT ( #11 ) );
#132 = DIRECTION ( 'NONE',  ( -0.000000000000000000, -1.000000000000000000, -0.000000000000000000 ) ) ;
#133 = SURFACE_STYLE_FILL_AREA ( #251 ) ;
#134 = DIRECTION ( 'NONE',  ( -0.000000000000000000, -1.000000000000000000, -0.000000000000000000 ) ) ;
#135 = ORIENTED_EDGE ( 'NONE', *, *, #223, .F. ) ;
#136 = CARTESIAN_POINT ( 'NONE',  ( 0.000000000000000000, 0.000000000000000000, -0.3125000000000000000 ) ) ;
#137 = AXIS2_PLACEMENT_3D ( 'NONE', #275, #31, #126 ) ;
#138 = PRODUCT_DEFINITION_FORMATION_WITH_SPECIFIED_SOURCE ( 'ANY', '', #104, .NOT_KNOWN. ) ;
#139 = EDGE_LOOP ( 'NONE', ( #36, #108, #14, #228 ) ) ;
#140 =( GEOMETRIC_REPRESENTATION_CONTEXT ( 3 ) GLOBAL_UNCERTAINTY_ASSIGNED_CONTEXT ( ( #1 ) ) GLOBAL_UNIT_ASSIGNED_CONTEXT ( ( #252, #299, #186 ) ) REPRESENTATION_CONTEXT ( 'NONE', 'WORKASPACE' ) );
#141 = PRESENTATION_STYLE_ASSIGNMENT (( #307 ) ) ;
#142 = VECTOR ( 'NONE', #181, 39.37007874015748143 ) ;
#143 = DIRECTION ( 'NONE',  ( -0.000000000000000000, -1.000000000000000000, -0.000000000000000000 ) ) ;
#144 = LENGTH_MEASURE_WITH_UNIT ( LENGTH_MEASURE( 0.02539999999999999897 ), #242 );
#145 = PLANE ( 'NONE',  #146 ) ;
#146 = AXIS2_PLACEMENT_3D ( 'NONE', #44, #214, #220 ) ;
#147 = VERTEX_POINT ( 'NONE', #136 ) ;
#148 = DIRECTION ( 'NONE',  ( 0.000000000000000000, -0.000000000000000000, 1.000000000000000000 ) ) ;
#149 = LINE ( 'NONE', #68, #213 ) ;
#150 = PRODUCT_DEFINITION ( 'UNKNOWN', '', #138, #249 ) ;
#151 = DIMENSIONAL_EXPONENTS ( 1.000000000000000000, 0.000000000000000000, 0.000000000000000000, 0.000000000000000000, 0.000000000000000000, 0.000000000000000000, 0.000000000000000000 ) ;
#152 =( NAMED_UNIT ( * ) SI_UNIT ( $, .STERADIAN. ) SOLID_ANGLE_UNIT ( ) );
#153 = VECTOR ( 'NONE', #55, 39.37007874015748143 ) ;
#154 = CARTESIAN_POINT ( 'NONE',  ( 1.516480271171051896E-32, 3.750000000000000000, 0.000000000000000000 ) ) ;
#155 = FILL_AREA_STYLE ('',( #243 ) ) ;
#156 = DIRECTION ( 'NONE',  ( -1.000000000000000000, 0.000000000000000000, 0.000000000000000000 ) ) ;
#157 = ORIENTED_EDGE ( 'NONE', *, *, #27, .T. ) ;
#158 = APPLICATION_PROTOCOL_DEFINITION ( 'draft international standard', 'automotive_design', 1998, #63 ) ;
#159 = CARTESIAN_POINT ( 'NONE',  ( 0.3125000000000000000, 6.000000000000000888, 3.827021247335479543E-17 ) ) ;
#160 = STYLED_ITEM ( 'NONE', ( #19 ), #200 ) ;
#161 = CIRCLE ( 'NONE', #116, 0.3125000000000000000 ) ;
#162 = CARTESIAN_POINT ( 'NONE',  ( 3.827021247335478926E-17, 0.000000000000000000, 0.3125000000000000000 ) ) ;
#163 =( GEOMETRIC_REPRESENTATION_CONTEXT ( 3 ) GLOBAL_UNCERTAINTY_ASSIGNED_CONTEXT ( ( #263 ) ) GLOBAL_UNIT_ASSIGNED_CONTEXT ( ( #103, #277, #152 ) ) REPRESENTATION_CONTEXT ( 'NONE', 'WORKASPACE' ) );
#164 =( NAMED_UNIT ( * ) PLANE_ANGLE_UNIT ( ) SI_UNIT ( $, .RADIAN. ) );
#165 = EDGE_CURVE ( 'NONE', #302, #60, #189, .T. ) ;
#166 = MECHANICAL_DESIGN_GEOMETRIC_PRESENTATION_REPRESENTATION (  '', ( #160 ), #2 ) ;
#167 = DIRECTION ( 'NONE',  ( -5.442874662877130022E-17, 1.000000000000000000, -0.000000000000000000 ) ) ;
#168 = FILL_AREA_STYLE ('',( #75 ) ) ;
#169 = PRESENTATION_STYLE_ASSIGNMENT (( #290 ) ) ;
#170 = DIRECTION ( 'NONE',  ( -0.000000000000000000, -1.000000000000000000, -0.000000000000000000 ) ) ;
#171 =( CONVERSION_BASED_UNIT ( 'INCH', #144 ) LENGTH_UNIT ( ) NAMED_UNIT ( #53 ) );
#172 = SURFACE_STYLE_FILL_AREA ( #168 ) ;
#173 = DIRECTION ( 'NONE',  ( -5.442874662877130638E-17, 1.000000000000000000, -0.000000000000000000 ) ) ;
#174 = CARTESIAN_POINT ( 'NONE',  ( -1.224646799147354440E-16, 6.000000000000000888, 0.000000000000000000 ) ) ;
#175 = ADVANCED_FACE ( 'NONE', ( #270 ), #194, .F. ) ;
#176 = UNCERTAINTY_MEASURE_WITH_UNIT (LENGTH_MEASURE( 1.000000000000000082E-05 ), #305, 'distance_accuracy_value', 'NONE');
#177 = COLOUR_RGB ( '',1.000000000000000000, 0.000000000000000000, 0.000000000000000000 ) ;
#178 = PLANE ( 'NONE',  #137 ) ;
#179 = ORIENTED_EDGE ( 'NONE', *, *, #61, .T. ) ;
#180 = DIRECTION ( 'NONE',  ( -5.442874662877130638E-17, 1.000000000000000000, -0.000000000000000000 ) ) ;
#181 = DIRECTION ( 'NONE',  ( -5.442874662877130022E-17, 1.000000000000000000, -0.000000000000000000 ) ) ;
#182 = LENGTH_MEASURE_WITH_UNIT ( LENGTH_MEASURE( 0.02539999999999999897 ), #77 );
#183 = CARTESIAN_POINT ( 'NONE',  ( -0.3125000000000002776, 6.000000000000000888, 0.000000000000000000 ) ) ;
#184 = CARTESIAN_POINT ( 'NONE',  ( 0.000000000000000000, 0.000000000000000000, 0.000000000000000000 ) ) ;
#185 = ORIENTED_EDGE ( 'NONE', *, *, #95, .T. ) ;
#186 =( NAMED_UNIT ( * ) SI_UNIT ( $, .STERADIAN. ) SOLID_ANGLE_UNIT ( ) );
#187 = ADVANCED_FACE ( 'NONE', ( #100 ), #233, .T. ) ;
#188 = STYLED_ITEM ( 'NONE', ( #110 ), #98 ) ;
#189 = CIRCLE ( 'NONE', #257, 0.3125000000000000000 ) ;
#190 = DIRECTION ( 'NONE',  ( 0.000000000000000000, 0.000000000000000000, -1.000000000000000000 ) ) ;
#191 = ADVANCED_FACE ( 'NONE', ( #24 ), #145, .T. ) ;
#192 = DIMENSIONAL_EXPONENTS ( 1.000000000000000000, 0.000000000000000000, 0.000000000000000000, 0.000000000000000000, 0.000000000000000000, 0.000000000000000000, 0.000000000000000000 ) ;
#193 = DIRECTION ( 'NONE',  ( -5.442874662877130638E-17, 1.000000000000000000, -0.000000000000000000 ) ) ;
#194 = PLANE ( 'NONE',  #238 ) ;
#195 = VERTEX_POINT ( 'NONE', #121 ) ;
#196 = SURFACE_STYLE_FILL_AREA ( #155 ) ;
#197 = DIRECTION ( 'NONE',  ( 0.000000000000000000, 1.000000000000000000, 0.000000000000000000 ) ) ;
#198 = CARTESIAN_POINT ( 'NONE',  ( -0.3125000000000002220, 6.000000000000000888, 0.000000000000000000 ) ) ;
#199 = PRESENTATION_LAYER_ASSIGNMENT (  '', '', ( #160 ) ) ;
#200 = MANIFOLD_SOLID_BREP ( 'Revolve - Tool Body (Straight Shanked)', #219 ) ;
#201 = ADVANCED_FACE ( 'NONE', ( #269 ), #217, .T. ) ;
#202 = CIRCLE ( 'NONE', #234, 0.3125000000000000000 ) ;
#203 = CARTESIAN_POINT ( 'NONE',  ( 0.000000000000000000, 3.750000000000000000, 0.000000000000000000 ) ) ;
#204 = ORIENTED_EDGE ( 'NONE', *, *, #272, .T. ) ;
#205 = EDGE_LOOP ( 'NONE', ( #254, #157 ) ) ;
#206 = MECHANICAL_DESIGN_GEOMETRIC_PRESENTATION_REPRESENTATION (  '', ( #273 ), #140 ) ;
#207 = ORIENTED_EDGE ( 'NONE', *, *, #27, .F. ) ;
#208 = LENGTH_MEASURE_WITH_UNIT ( LENGTH_MEASURE( 0.02539999999999999897 ), #112 );
#209 =( NAMED_UNIT ( * ) SI_UNIT ( $, .STERADIAN. ) SOLID_ANGLE_UNIT ( ) );
#210 = AXIS2_PLACEMENT_3D ( 'NONE', #81, #232, #15 ) ;
#211 = DIRECTION ( 'NONE',  ( 0.000000000000000000, 0.000000000000000000, -1.000000000000000000 ) ) ;
#212 = ADVANCED_FACE ( 'NONE', ( #244 ), #28, .T. ) ;
#213 = VECTOR ( 'NONE', #167, 39.37007874015748143 ) ;
#214 = DIRECTION ( 'NONE',  ( 0.000000000000000000, -1.000000000000000000, -0.000000000000000000 ) ) ;
#215 = AXIS2_PLACEMENT_3D ( 'NONE', #46, #4, #211 ) ;
#216 =( GEOMETRIC_REPRESENTATION_CONTEXT ( 3 ) GLOBAL_UNCERTAINTY_ASSIGNED_CONTEXT ( ( #271 ) ) GLOBAL_UNIT_ASSIGNED_CONTEXT ( ( #171, #47, #23 ) ) REPRESENTATION_CONTEXT ( 'NONE', 'WORKASPACE' ) );
#217 = CYLINDRICAL_SURFACE ( 'NONE', #113, 0.3125000000000000555 ) ;
#218 = EDGE_CURVE ( 'NONE', #34, #74, #295, .T. ) ;
#219 = CLOSED_SHELL ( 'NONE', ( #187, #259, #201, #175 ) ) ;
#220 = DIRECTION ( 'NONE',  ( 0.000000000000000000, 0.000000000000000000, -1.000000000000000000 ) ) ;
#221 = CARTESIAN_POINT ( 'NONE',  ( -1.224646799147354440E-16, 6.000000000000000888, 0.000000000000000000 ) ) ;
#222 = CARTESIAN_POINT ( 'NONE',  ( 0.000000000000000000, 3.750000000000000000, -0.3125000000000000000 ) ) ;
#223 = EDGE_CURVE ( 'NONE', #248, #195, #202, .T. ) ;
#224 = ORIENTED_EDGE ( 'NONE', *, *, #3, .T. ) ;
#225 = COLOUR_RGB ( '',1.000000000000000000, 0.000000000000000000, 0.000000000000000000 ) ;
#226 = COLOUR_RGB ( '',1.000000000000000000, 0.000000000000000000, 0.000000000000000000 ) ;
#227 = SURFACE_STYLE_USAGE ( .BOTH. , #247 ) ;
#228 = ORIENTED_EDGE ( 'NONE', *, *, #61, .F. ) ;
#229 = LENGTH_MEASURE_WITH_UNIT ( LENGTH_MEASURE( 0.02539999999999999897 ), #33 );
#230 = SURFACE_SIDE_STYLE ('',( #133 ) ) ;
#231 = CARTESIAN_POINT ( 'NONE',  ( 0.000000000000000000, 3.750000000000000000, 0.000000000000000000 ) ) ;
#232 = DIRECTION ( 'NONE',  ( -5.442874662877130638E-17, 1.000000000000000000, -0.000000000000000000 ) ) ;
#233 = CYLINDRICAL_SURFACE ( 'NONE', #284, 0.3125000000000000555 ) ;
#234 = AXIS2_PLACEMENT_3D ( 'NONE', #231, #134, #109 ) ;
#235 = CARTESIAN_POINT ( 'NONE',  ( 0.000000000000000000, 0.000000000000000000, -0.3125000000000000000 ) ) ;
#236 = DIMENSIONAL_EXPONENTS ( 1.000000000000000000, 0.000000000000000000, 0.000000000000000000, 0.000000000000000000, 0.000000000000000000, 0.000000000000000000, 0.000000000000000000 ) ;
#237 =( LENGTH_UNIT ( ) NAMED_UNIT ( * ) SI_UNIT ( $, .METRE. ) );
#238 = AXIS2_PLACEMENT_3D ( 'NONE', #124, #6, #58 ) ;
#239 =( GEOMETRIC_REPRESENTATION_CONTEXT ( 3 ) GLOBAL_UNCERTAINTY_ASSIGNED_CONTEXT ( ( #22 ) ) GLOBAL_UNIT_ASSIGNED_CONTEXT ( ( #117, #164, #283 ) ) REPRESENTATION_CONTEXT ( 'NONE', 'WORKASPACE' ) );
#240 = LENGTH_MEASURE_WITH_UNIT ( LENGTH_MEASURE( 0.02539999999999999897 ), #120 );
#241 = EDGE_LOOP ( 'NONE', ( #280, #185, #179, #207 ) ) ;
#242 =( LENGTH_UNIT ( ) NAMED_UNIT ( * ) SI_UNIT ( $, .METRE. ) );
#243 = FILL_AREA_STYLE_COLOUR ( '', #226 ) ;
#244 = FACE_OUTER_BOUND ( 'NONE', #39, .T. ) ;
#245 =( GEOMETRIC_REPRESENTATION_CONTEXT ( 3 ) GLOBAL_UNCERTAINTY_ASSIGNED_CONTEXT ( ( #176 ) ) GLOBAL_UNIT_ASSIGNED_CONTEXT ( ( #305, #43, #97 ) ) REPRESENTATION_CONTEXT ( 'NONE', 'WORKASPACE' ) );
#246 = ADVANCED_FACE ( 'NONE', ( #59 ), #30, .T. ) ;
#247 = SURFACE_SIDE_STYLE ('',( #253 ) ) ;
#248 = VERTEX_POINT ( 'NONE', #222 ) ;
#249 = PRODUCT_DEFINITION_CONTEXT ( 'detailed design', #7, 'design' ) ;
#250 = EDGE_LOOP ( 'NONE', ( #13, #111, #10, #21 ) ) ;
#251 = FILL_AREA_STYLE ('',( #256 ) ) ;
#252 =( CONVERSION_BASED_UNIT ( 'INCH', #208 ) LENGTH_UNIT ( ) NAMED_UNIT ( #236 ) );
#253 = SURFACE_STYLE_FILL_AREA ( #292 ) ;
#254 = ORIENTED_EDGE ( 'NONE', *, *, #218, .T. ) ;
#255 = SHAPE_DEFINITION_REPRESENTATION ( #265, #64 ) ;
#256 = FILL_AREA_STYLE_COLOUR ( '', #67 ) ;
#257 = AXIS2_PLACEMENT_3D ( 'NONE', #281, #173, #37 ) ;
#258 = AXIS2_PLACEMENT_3D ( 'NONE', #184, #132, #125 ) ;
#259 = ADVANCED_FACE ( 'NONE', ( #79 ), #178, .F. ) ;
#260 = DIMENSIONAL_EXPONENTS ( 1.000000000000000000, 0.000000000000000000, 0.000000000000000000, 0.000000000000000000, 0.000000000000000000, 0.000000000000000000, 0.000000000000000000 ) ;
#261 = VECTOR ( 'NONE', #82, 39.37007874015748143 ) ;
#262 = STYLED_ITEM ( 'NONE', ( #169 ), #212 ) ;
#263 = UNCERTAINTY_MEASURE_WITH_UNIT (LENGTH_MEASURE( 1.000000000000000082E-05 ), #103, 'distance_accuracy_value', 'NONE');
#264 = CYLINDRICAL_SURFACE ( 'NONE', #215, 0.3125000000000000000 ) ;
#265 = PRODUCT_DEFINITION_SHAPE ( 'NONE', 'NONE',  #150 ) ;
#266 = ORIENTED_EDGE ( 'NONE', *, *, #18, .T. ) ;
#267 = ADVANCED_FACE ( 'NONE', ( #304 ), #264, .T. ) ;
#268 = COLOUR_RGB ( '',1.000000000000000000, 0.000000000000000000, 0.000000000000000000 ) ;
#269 = FACE_OUTER_BOUND ( 'NONE', #241, .T. ) ;
#270 = FACE_OUTER_BOUND ( 'NONE', #205, .T. ) ;
#271 = UNCERTAINTY_MEASURE_WITH_UNIT (LENGTH_MEASURE( 1.000000000000000082E-05 ), #171, 'distance_accuracy_value', 'NONE');
#272 = EDGE_CURVE ( 'NONE', #127, #147, #161, .T. ) ;
#273 = STYLED_ITEM ( 'NONE', ( #25 ), #191 ) ;
#274 = SURFACE_SIDE_STYLE ('',( #9 ) ) ;
#275 = CARTESIAN_POINT ( 'NONE',  ( 4.628888218092162582E-34, 3.750000000000000000, 0.000000000000000000 ) ) ;
#276 = DIRECTION ( 'NONE',  ( -1.000000000000000000, 0.000000000000000000, 0.000000000000000000 ) ) ;
#277 =( NAMED_UNIT ( * ) PLANE_ANGLE_UNIT ( ) SI_UNIT ( $, .RADIAN. ) );
#278 = LINE ( 'NONE', #57, #153 ) ;
#279 = MECHANICAL_DESIGN_GEOMETRIC_PRESENTATION_REPRESENTATION (  '', ( #96 ), #245 ) ;
#280 = ORIENTED_EDGE ( 'NONE', *, *, #115, .F. ) ;
#281 = CARTESIAN_POINT ( 'NONE',  ( 1.516480271171051896E-32, 3.750000000000000000, 0.000000000000000000 ) ) ;
#282 = CARTESIAN_POINT ( 'NONE',  ( 0.3125000000000000000, 3.750000000000000000, 3.827021247335479543E-17 ) ) ;
#283 =( NAMED_UNIT ( * ) SI_UNIT ( $, .STERADIAN. ) SOLID_ANGLE_UNIT ( ) );
#284 = AXIS2_PLACEMENT_3D ( 'NONE', #221, #52, #16 ) ;
#285 = COLOUR_RGB ( '',0.7921568627450980005, 0.8196078431372548767, 0.9333333333333333481 ) ;
#286 = CARTESIAN_POINT ( 'NONE',  ( -0.3125000000000000000, 3.750000000000000000, 0.000000000000000000 ) ) ;
#287 = DIMENSIONAL_EXPONENTS ( 1.000000000000000000, 0.000000000000000000, 0.000000000000000000, 0.000000000000000000, 0.000000000000000000, 0.000000000000000000, 0.000000000000000000 ) ;
#288 = LENGTH_MEASURE_WITH_UNIT ( LENGTH_MEASURE( 0.02539999999999999897 ), #306 );
#289 = CARTESIAN_POINT ( 'NONE',  ( 0.000000000000000000, 0.000000000000000000, 0.000000000000000000 ) ) ;
#290 = SURFACE_STYLE_USAGE ( .BOTH. , #69 ) ;
#291 = CIRCLE ( 'NONE', #309, 0.3125000000000000000 ) ;
#292 = FILL_AREA_STYLE ('',( #128 ) ) ;
#293 = PRESENTATION_LAYER_ASSIGNMENT (  '', '', ( #273 ) ) ;
#294 = EDGE_LOOP ( 'NONE', ( #129, #298 ) ) ;
#295 = CIRCLE ( 'NONE', #20, 0.3125000000000001665 ) ;
#296 = LINE ( 'NONE', #235, #261 ) ;
#297 = DIRECTION ( 'NONE',  ( 0.000000000000000000, 0.000000000000000000, -1.000000000000000000 ) ) ;
#298 = ORIENTED_EDGE ( 'NONE', *, *, #95, .F. ) ;
#299 =( NAMED_UNIT ( * ) PLANE_ANGLE_UNIT ( ) SI_UNIT ( $, .RADIAN. ) );
#300 = APPLICATION_PROTOCOL_DEFINITION ( 'draft international standard', 'automotive_design', 1998, #7 ) ;
#301 = STYLED_ITEM ( 'NONE', ( #12 ), #246 ) ;
#302 = VERTEX_POINT ( 'NONE', #286 ) ;
#303 =( NAMED_UNIT ( * ) PLANE_ANGLE_UNIT ( ) SI_UNIT ( $, .RADIAN. ) );
#304 = FACE_OUTER_BOUND ( 'NONE', #105, .T. ) ;
#305 =( CONVERSION_BASED_UNIT ( 'INCH', #229 ) LENGTH_UNIT ( ) NAMED_UNIT ( #151 ) );
#306 =( LENGTH_UNIT ( ) NAMED_UNIT ( * ) SI_UNIT ( $, .METRE. ) );
#307 = SURFACE_STYLE_USAGE ( .BOTH. , #274 ) ;
#308 =( GEOMETRIC_REPRESENTATION_CONTEXT ( 3 ) GLOBAL_UNCERTAINTY_ASSIGNED_CONTEXT ( ( #72 ) ) GLOBAL_UNIT_ASSIGNED_CONTEXT ( ( #131, #303, #209 ) ) REPRESENTATION_CONTEXT ( 'NONE', 'WORKASPACE' ) );
#309 = AXIS2_PLACEMENT_3D ( 'NONE', #203, #89, #297 ) ;
ENDSEC;
END-ISO-10303-21;
