ISO-10303-21;
HEADER;
FILE_DESCRIPTION (( 'STEP AP214' ),
    '1' );
FILE_NAME ('Micro_BEM-093-02X.STEP',
    '2021-09-03T13:00:28',
    ( '' ),
    ( '' ),
    'SwSTEP 2.0',
    'SolidWorks 2020',
    '' );
FILE_SCHEMA (( 'AUTOMOTIVE_DESIGN' ));
ENDSEC;

DATA;
#1 = CARTESIAN_POINT ( 'NONE',  ( 0.0000000000000000000, 0.0000000000000000000, 0.0000000000000000000 ) ) ;
#2 = CARTESIAN_POINT ( 'NONE',  ( 0.04750000000000064587, 5.817072295950006528E-18, 1.500000000000000222 ) ) ;
#3 = EDGE_LOOP ( 'NONE', ( #144, #141, #280, #171 ) ) ;
#4 = DIRECTION ( 'NONE',  ( 1.000000000000000000, 0.0000000000000000000, 0.0000000000000000000 ) ) ;
#5 = CARTESIAN_POINT ( 'NONE',  ( 0.0000000000000000000, 0.0000000000000000000, 1.500000000000000222 ) ) ;
#6 =( LENGTH_UNIT ( ) NAMED_UNIT ( * ) SI_UNIT ( $, .METRE. ) );
#7 = CARTESIAN_POINT ( 'NONE',  ( 0.0000000000000000000, 0.0000000000000000000, 1.500000000000000222 ) ) ;
#8 = MECHANICAL_DESIGN_GEOMETRIC_PRESENTATION_REPRESENTATION (  '', ( #61 ), #105 ) ;
#9 = PRODUCT_DEFINITION_CONTEXT ( 'detailed design', #164, 'design' ) ;
#10 = EDGE_CURVE ( 'NONE', #118, #221, #226, .T. ) ;
#11 = ADVANCED_FACE ( 'NONE', ( #272 ), #56, .T. ) ;
#12 = DIRECTION ( 'NONE',  ( 1.224646799147353700E-16, 0.0000000000000000000, 1.000000000000000000 ) ) ;
#13 = VERTEX_POINT ( 'NONE', #101 ) ;
#14 =( CONVERSION_BASED_UNIT ( 'INCH', #42 ) LENGTH_UNIT ( ) NAMED_UNIT ( #250 ) );
#15 = PRODUCT_RELATED_PRODUCT_CATEGORY ( 'part', '', ( #46 ) ) ;
#16 = CARTESIAN_POINT ( 'NONE',  ( 0.0000000000000000000, 0.0000000000000000000, 1.485000000000000764 ) ) ;
#17 = ORIENTED_EDGE ( 'NONE', *, *, #209, .T. ) ;
#18 = ORIENTED_EDGE ( 'NONE', *, *, #291, .F. ) ;
#19 = FACE_OUTER_BOUND ( 'NONE', #26, .T. ) ;
#20 = EDGE_LOOP ( 'NONE', ( #66, #127, #262 ) ) ;
#21 = CIRCLE ( 'NONE', #112, 0.04680315000000000170 ) ;
#22 = DIRECTION ( 'NONE',  ( -1.224646799147353700E-16, -0.0000000000000000000, -1.000000000000000000 ) ) ;
#23 = DIRECTION ( 'NONE',  ( -1.000000000000000000, 0.0000000000000000000, 0.0000000000000000000 ) ) ;
#24 = EDGE_LOOP ( 'NONE', ( #255, #197, #194, #213 ) ) ;
#25 = CARTESIAN_POINT ( 'NONE',  ( 0.04680315000000004333, 0.0000000000000000000, 0.3750000000000000555 ) ) ;
#26 = EDGE_LOOP ( 'NONE', ( #179, #278, #79, #44 ) ) ;
#27 = DIRECTION ( 'NONE',  ( 0.0000000000000000000, 1.000000000000000000, 0.0000000000000000000 ) ) ;
#28 = ORIENTED_EDGE ( 'NONE', *, *, #311, .F. ) ;
#29 = DIRECTION ( 'NONE',  ( 0.7071067811865462405, 8.659560562354916834E-17, -0.7071067811865486830 ) ) ;
#30 = VECTOR ( 'NONE', #235, 39.37007874015748854 ) ;
#31 = CARTESIAN_POINT ( 'NONE',  ( 0.04750000000000064587, 6.735557395310483192E-18, 1.500000000000000222 ) ) ;
#32 = ADVANCED_FACE ( 'NONE', ( #299 ), #74, .T. ) ;
#33 = CONICAL_SURFACE ( 'NONE', #143, 0.04750000000000064587, 0.7853981633974466137 ) ;
#34 = UNCERTAINTY_MEASURE_WITH_UNIT (LENGTH_MEASURE( 1.000000000000000082E-05 ), #134, 'distance_accuracy_value', 'NONE');
#35 = ADVANCED_FACE ( 'NONE', ( #131 ), #216, .T. ) ;
#36 = ORIENTED_EDGE ( 'NONE', *, *, #136, .F. ) ;
#37 = PRESENTATION_STYLE_ASSIGNMENT (( #57 ) ) ;
#38 = COLOUR_RGB ( '',0.7921568627450980005, 0.8196078431372548767, 0.9333333333333333481 ) ;
#39 = EDGE_CURVE ( 'NONE', #264, #13, #245, .T. ) ;
#40 = EDGE_LOOP ( 'NONE', ( #28, #303, #71, #18 ) ) ;
#41 = AXIS2_PLACEMENT_3D ( 'NONE', #304, #80, #178 ) ;
#42 = LENGTH_MEASURE_WITH_UNIT ( LENGTH_MEASURE( 0.02539999999999999897 ), #297 );
#43 = DIRECTION ( 'NONE',  ( -1.000000000000000000, 0.0000000000000000000, 1.824027865688703052E-16 ) ) ;
#44 = ORIENTED_EDGE ( 'NONE', *, *, #291, .T. ) ;
#45 = DIRECTION ( 'NONE',  ( 1.000000000000000000, 0.0000000000000000000, 0.0000000000000000000 ) ) ;
#46 = PRODUCT ( 'Micro_BEM-093-02X', 'Micro_BEM-093-02X', '', ( #64 ) ) ;
#47 = DIMENSIONAL_EXPONENTS ( 1.000000000000000000, 0.0000000000000000000, 0.0000000000000000000, 0.0000000000000000000, 0.0000000000000000000, 0.0000000000000000000, 0.0000000000000000000 ) ;
#48 = ORIENTED_EDGE ( 'NONE', *, *, #135, .T. ) ;
#49 =( CONVERSION_BASED_UNIT ( 'INCH', #318 ) LENGTH_UNIT ( ) NAMED_UNIT ( #196 ) );
#50 = ORIENTED_EDGE ( 'NONE', *, *, #69, .F. ) ;
#51 = ADVANCED_FACE ( 'NONE', ( #306 ), #142, .T. ) ;
#52 = CARTESIAN_POINT ( 'NONE',  ( 0.06250000000000002776, 7.654042494670959086E-18, 1.500000000000000222 ) ) ;
#53 = DIRECTION ( 'NONE',  ( 1.000000000000000000, 0.0000000000000000000, 0.0000000000000000000 ) ) ;
#54 = PRODUCT_DEFINITION_FORMATION_WITH_SPECIFIED_SOURCE ( 'ANY', '', #46, .NOT_KNOWN. ) ;
#55 = DIRECTION ( 'NONE',  ( 1.000000000000000000, 0.0000000000000000000, 0.0000000000000000000 ) ) ;
#56 = SPHERICAL_SURFACE ( 'NONE', #180, 0.04680315000000000170 ) ;
#57 = SURFACE_STYLE_USAGE ( .BOTH. , #162 ) ;
#58 = AXIS2_PLACEMENT_3D ( 'NONE', #198, #244, #123 ) ;
#59 = DIRECTION ( 'NONE',  ( -1.224646799147353700E-16, -0.0000000000000000000, -1.000000000000000000 ) ) ;
#60 = AXIS2_PLACEMENT_3D ( 'NONE', #253, #27, #227 ) ;
#61 = STYLED_ITEM ( 'NONE', ( #316 ), #234 ) ;
#62 = DIRECTION ( 'NONE',  ( -1.000000000000000000, 0.0000000000000000000, 0.0000000000000000000 ) ) ;
#63 = ORIENTED_EDGE ( 'NONE', *, *, #136, .T. ) ;
#64 = PRODUCT_CONTEXT ( 'NONE', #153, 'mechanical' ) ;
#65 = CARTESIAN_POINT ( 'NONE',  ( 0.0000000000000000000, 0.0000000000000000000, 1.500000000000000222 ) ) ;
#66 = ORIENTED_EDGE ( 'NONE', *, *, #208, .F. ) ;
#67 = LINE ( 'NONE', #268, #175 ) ;
#68 = EDGE_CURVE ( 'NONE', #274, #249, #21, .T. ) ;
#69 = EDGE_CURVE ( 'NONE', #249, #296, #84, .T. ) ;
#70 = CARTESIAN_POINT ( 'NONE',  ( 5.731732783751346705E-18, 0.0000000000000000000, 0.04680315000000000170 ) ) ;
#71 = ORIENTED_EDGE ( 'NONE', *, *, #248, .T. ) ;
#72 = SHAPE_DEFINITION_REPRESENTATION ( #204, #234 ) ;
#73 = DIRECTION ( 'NONE',  ( -1.224646799147353700E-16, -0.0000000000000000000, -1.000000000000000000 ) ) ;
#74 = SPHERICAL_SURFACE ( 'NONE', #60, 0.04680315000000000170 ) ;
#75 = AXIS2_PLACEMENT_3D ( 'NONE', #231, #137, #43 ) ;
#76 =( LENGTH_UNIT ( ) NAMED_UNIT ( * ) SI_UNIT ( $, .METRE. ) );
#77 = ADVANCED_FACE ( 'NONE', ( #284 ), #282, .T. ) ;
#78 = EDGE_CURVE ( 'NONE', #99, #296, #183, .T. ) ;
#79 = ORIENTED_EDGE ( 'NONE', *, *, #109, .T. ) ;
#80 = DIRECTION ( 'NONE',  ( -1.224646799147353700E-16, -0.0000000000000000000, -1.000000000000000000 ) ) ;
#81 = VERTEX_POINT ( 'NONE', #238 ) ;
#82 = CARTESIAN_POINT ( 'NONE',  ( 4.592425496802576684E-17, 0.0000000000000000000, 0.3750000000000000555 ) ) ;
#83 = CONICAL_SURFACE ( 'NONE', #133, 0.04680315000000000170, 0.1745329251994338082 ) ;
#84 = LINE ( 'NONE', #85, #104 ) ;
#85 = CARTESIAN_POINT ( 'NONE',  ( 0.04680315000000000170, 5.731732783751344394E-18, -5.731732783751346705E-18 ) ) ;
#86 = CIRCLE ( 'NONE', #307, 0.06250000000000002776 ) ;
#87 = FACE_OUTER_BOUND ( 'NONE', #116, .T. ) ;
#88 = CARTESIAN_POINT ( 'NONE',  ( 0.0000000000000000000, 0.0000000000000000000, 1.485000000000000764 ) ) ;
#89 = FILL_AREA_STYLE ('',( #312 ) ) ;
#90 = ORIENTED_EDGE ( 'NONE', *, *, #311, .T. ) ;
#91 = APPLICATION_PROTOCOL_DEFINITION ( 'draft international standard', 'automotive_design', 1998, #164 ) ;
#92 = DIRECTION ( 'NONE',  ( -1.000000000000000000, 1.224646799147353207E-16, 0.0000000000000000000 ) ) ;
#93 = VECTOR ( 'NONE', #29, 39.37007874015748854 ) ;
#94 =( GEOMETRIC_REPRESENTATION_CONTEXT ( 3 ) GLOBAL_UNCERTAINTY_ASSIGNED_CONTEXT ( ( #34 ) ) GLOBAL_UNIT_ASSIGNED_CONTEXT ( ( #134, #159, #115 ) ) REPRESENTATION_CONTEXT ( 'NONE', 'WORKASPACE' ) );
#95 = FACE_OUTER_BOUND ( 'NONE', #322, .T. ) ;
#96 = FILL_AREA_STYLE_COLOUR ( '', #313 ) ;
#97 = DIRECTION ( 'NONE',  ( 1.224646799147353700E-16, 0.0000000000000000000, 1.000000000000000000 ) ) ;
#98 = CYLINDRICAL_SURFACE ( 'NONE', #184, 0.04680315000000000170 ) ;
#99 = VERTEX_POINT ( 'NONE', #166 ) ;
#100 = CARTESIAN_POINT ( 'NONE',  ( -0.04680314999999996006, 6.692887639211152895E-18, 0.3750000000000000555 ) ) ;
#101 = CARTESIAN_POINT ( 'NONE',  ( 0.06250000000000008327, 7.654042494670966789E-18, 0.4640212600302659474 ) ) ;
#102 = CARTESIAN_POINT ( 'NONE',  ( 5.682621508323871149E-17, 0.0000000000000000000, 0.4640212600302659474 ) ) ;
#103 = CARTESIAN_POINT ( 'NONE',  ( 4.592425496802576684E-17, 0.0000000000000000000, 0.3750000000000000555 ) ) ;
#104 = VECTOR ( 'NONE', #59, 39.37007874015748143 ) ;
#105 =( GEOMETRIC_REPRESENTATION_CONTEXT ( 3 ) GLOBAL_UNCERTAINTY_ASSIGNED_CONTEXT ( ( #138 ) ) GLOBAL_UNIT_ASSIGNED_CONTEXT ( ( #14, #222, #148 ) ) REPRESENTATION_CONTEXT ( 'NONE', 'WORKASPACE' ) );
#106 = DIRECTION ( 'NONE',  ( 0.0000000000000000000, 0.0000000000000000000, -1.000000000000000000 ) ) ;
#107 = DIRECTION ( 'NONE',  ( 0.0000000000000000000, 0.0000000000000000000, -1.000000000000000000 ) ) ;
#108 = DIRECTION ( 'NONE',  ( 0.1736481776669313026, 0.0000000000000000000, 0.9848077530122077983 ) ) ;
#109 = EDGE_CURVE ( 'NONE', #249, #13, #257, .T. ) ;
#110 = VECTOR ( 'NONE', #119, 39.37007874015747433 ) ;
#111 = MANIFOLD_SOLID_BREP ( 'Fillet1', #230 ) ;
#112 = AXIS2_PLACEMENT_3D ( 'NONE', #103, #201, #308 ) ;
#113 = CIRCLE ( 'NONE', #252, 0.04680315000000000170 ) ;
#114 = SURFACE_SIDE_STYLE ('',( #172 ) ) ;
#115 =( NAMED_UNIT ( * ) SI_UNIT ( $, .STERADIAN. ) SOLID_ANGLE_UNIT ( ) );
#116 = EDGE_LOOP ( 'NONE', ( #17, #157 ) ) ;
#117 = ADVANCED_FACE ( 'NONE', ( #87 ), #290, .T. ) ;
#118 = VERTEX_POINT ( 'NONE', #31 ) ;
#119 = DIRECTION ( 'NONE',  ( -0.1736481776669311083, 2.126576849575782084E-17, 0.9848077530122080203 ) ) ;
#120 = AXIS2_PLACEMENT_3D ( 'NONE', #70, #214, #92 ) ;
#121 = CYLINDRICAL_SURFACE ( 'NONE', #287, 0.06250000000000002776 ) ;
#122 = EDGE_CURVE ( 'NONE', #221, #81, #181, .T. ) ;
#123 = DIRECTION ( 'NONE',  ( -1.000000000000000000, 0.0000000000000000000, 1.224646799147353700E-16 ) ) ;
#124 = ORIENTED_EDGE ( 'NONE', *, *, #139, .T. ) ;
#125 = ADVANCED_FACE ( 'NONE', ( #315 ), #33, .T. ) ;
#126 = CARTESIAN_POINT ( 'NONE',  ( 4.592425496802576684E-17, 0.0000000000000000000, 0.3750000000000000555 ) ) ;
#127 = ORIENTED_EDGE ( 'NONE', *, *, #78, .T. ) ;
#128 = AXIS2_PLACEMENT_3D ( 'NONE', #149, #275, #323 ) ;
#129 = APPLICATION_PROTOCOL_DEFINITION ( 'draft international standard', 'automotive_design', 1998, #153 ) ;
#130 = EDGE_LOOP ( 'NONE', ( #177, #90, #239, #236 ) ) ;
#131 = FACE_OUTER_BOUND ( 'NONE', #154, .T. ) ;
#132 = CARTESIAN_POINT ( 'NONE',  ( 5.731732783751346705E-18, 0.0000000000000000000, 0.04680315000000000170 ) ) ;
#133 = AXIS2_PLACEMENT_3D ( 'NONE', #126, #97, #295 ) ;
#134 =( CONVERSION_BASED_UNIT ( 'INCH', #167 ) LENGTH_UNIT ( ) NAMED_UNIT ( #47 ) );
#135 = EDGE_CURVE ( 'NONE', #305, #296, #246, .T. ) ;
#136 = EDGE_CURVE ( 'NONE', #296, #305, #113, .T. ) ;
#137 = DIRECTION ( 'NONE',  ( 1.224646799147353700E-16, 0.0000000000000000000, 1.000000000000000000 ) ) ;
#138 = UNCERTAINTY_MEASURE_WITH_UNIT (LENGTH_MEASURE( 1.000000000000000082E-05 ), #14, 'distance_accuracy_value', 'NONE');
#139 = EDGE_CURVE ( 'NONE', #224, #81, #317, .T. ) ;
#140 = CARTESIAN_POINT ( 'NONE',  ( 5.731732783751346705E-18, 0.0000000000000000000, 0.04680315000000000170 ) ) ;
#141 = ORIENTED_EDGE ( 'NONE', *, *, #233, .T. ) ;
#142 = CONICAL_SURFACE ( 'NONE', #163, 0.04680315000000000170, 0.1745329251994338082 ) ;
#143 = AXIS2_PLACEMENT_3D ( 'NONE', #65, #260, #212 ) ;
#144 = ORIENTED_EDGE ( 'NONE', *, *, #68, .F. ) ;
#145 = DIRECTION ( 'NONE',  ( 0.0000000000000000000, 0.0000000000000000000, -1.000000000000000000 ) ) ;
#146 = EDGE_LOOP ( 'NONE', ( #256, #211, #36 ) ) ;
#147 =( NAMED_UNIT ( * ) SI_UNIT ( $, .STERADIAN. ) SOLID_ANGLE_UNIT ( ) );
#148 =( NAMED_UNIT ( * ) SI_UNIT ( $, .STERADIAN. ) SOLID_ANGLE_UNIT ( ) );
#149 = CARTESIAN_POINT ( 'NONE',  ( 0.0000000000000000000, 0.0000000000000000000, 1.500000000000000222 ) ) ;
#150 = EDGE_CURVE ( 'NONE', #81, #221, #202, .T. ) ;
#151 = DIRECTION ( 'NONE',  ( 0.0000000000000000000, 0.0000000000000000000, 1.000000000000000000 ) ) ;
#152 = ORIENTED_EDGE ( 'NONE', *, *, #254, .T. ) ;
#153 = APPLICATION_CONTEXT ( 'automotive_design' ) ;
#154 = EDGE_LOOP ( 'NONE', ( #325, #251, #124, #267 ) ) ;
#155 = DIRECTION ( 'NONE',  ( -1.224646799147353700E-16, -0.0000000000000000000, -1.000000000000000000 ) ) ;
#156 = PRESENTATION_LAYER_ASSIGNMENT (  '', '', ( #61 ) ) ;
#157 = ORIENTED_EDGE ( 'NONE', *, *, #310, .T. ) ;
#158 = DIRECTION ( 'NONE',  ( 0.0000000000000000000, 0.0000000000000000000, -1.000000000000000000 ) ) ;
#159 =( NAMED_UNIT ( * ) PLANE_ANGLE_UNIT ( ) SI_UNIT ( $, .RADIAN. ) );
#160 = STYLED_ITEM ( 'NONE', ( #37 ), #111 ) ;
#161 = CARTESIAN_POINT ( 'NONE',  ( 0.04680315000000004333, 0.0000000000000000000, 0.3750000000000000555 ) ) ;
#162 = SURFACE_SIDE_STYLE ('',( #263 ) ) ;
#163 = AXIS2_PLACEMENT_3D ( 'NONE', #82, #228, #4 ) ;
#164 = APPLICATION_CONTEXT ( 'automotive_design' ) ;
#165 = UNCERTAINTY_MEASURE_WITH_UNIT (LENGTH_MEASURE( 1.000000000000000082E-05 ), #49, 'distance_accuracy_value', 'NONE');
#166 = CARTESIAN_POINT ( 'NONE',  ( 8.597599175627018516E-18, 0.0000000000000000000, 0.0000000000000000000 ) ) ;
#167 = LENGTH_MEASURE_WITH_UNIT ( LENGTH_MEASURE( 0.02539999999999999897 ), #6 );
#168 = VECTOR ( 'NONE', #108, 39.37007874015748143 ) ;
#169 = CARTESIAN_POINT ( 'NONE',  ( 0.06250000000000002776, 7.654042494670959086E-18, 1.485000000000000764 ) ) ;
#170 = CARTESIAN_POINT ( 'NONE',  ( 0.0000000000000000000, 0.0000000000000000000, 1.500000000000000222 ) ) ;
#171 = ORIENTED_EDGE ( 'NONE', *, *, #109, .F. ) ;
#172 = SURFACE_STYLE_FILL_AREA ( #292 ) ;
#173 = AXIS2_PLACEMENT_3D ( 'NONE', #16, #145, #281 ) ;
#174 = ORIENTED_EDGE ( 'NONE', *, *, #69, .T. ) ;
#175 = VECTOR ( 'NONE', #223, 39.37007874015748143 ) ;
#176 = DIRECTION ( 'NONE',  ( -1.000000000000000000, 0.0000000000000000000, 1.224646799147353700E-16 ) ) ;
#177 = ORIENTED_EDGE ( 'NONE', *, *, #150, .T. ) ;
#178 = DIRECTION ( 'NONE',  ( -1.000000000000000000, 0.0000000000000000000, 0.0000000000000000000 ) ) ;
#179 = ORIENTED_EDGE ( 'NONE', *, *, #233, .F. ) ;
#180 = AXIS2_PLACEMENT_3D ( 'NONE', #132, #276, #53 ) ;
#181 = CIRCLE ( 'NONE', #173, 0.06250000000000002776 ) ;
#182 = ORIENTED_EDGE ( 'NONE', *, *, #285, .T. ) ;
#183 = CIRCLE ( 'NONE', #300, 0.04680315000000000170 ) ;
#184 = AXIS2_PLACEMENT_3D ( 'NONE', #1, #73, #176 ) ;
#185 = PRODUCT_DEFINITION ( 'UNKNOWN', '', #54, #9 ) ;
#186 = DIRECTION ( 'NONE',  ( 1.000000000000000000, 0.0000000000000000000, 0.0000000000000000000 ) ) ;
#187 = CARTESIAN_POINT ( 'NONE',  ( 5.731732783751346705E-18, 0.0000000000000000000, 0.04680315000000000170 ) ) ;
#188 = DIRECTION ( 'NONE',  ( -0.0000000000000000000, -0.0000000000000000000, -1.000000000000000000 ) ) ;
#189 = VECTOR ( 'NONE', #22, 39.37007874015748143 ) ;
#190 = LINE ( 'NONE', #220, #110 ) ;
#191 = ADVANCED_FACE ( 'NONE', ( #203 ), #309, .T. ) ;
#192 = SURFACE_STYLE_USAGE ( .BOTH. , #114 ) ;
#193 = CARTESIAN_POINT ( 'NONE',  ( -0.06249999999999996531, 0.0000000000000000000, 0.4640212600302659474 ) ) ;
#194 = ORIENTED_EDGE ( 'NONE', *, *, #150, .F. ) ;
#195 = LINE ( 'NONE', #52, #293 ) ;
#196 = DIMENSIONAL_EXPONENTS ( 1.000000000000000000, 0.0000000000000000000, 0.0000000000000000000, 0.0000000000000000000, 0.0000000000000000000, 0.0000000000000000000, 0.0000000000000000000 ) ;
#197 = ORIENTED_EDGE ( 'NONE', *, *, #10, .T. ) ;
#198 = CARTESIAN_POINT ( 'NONE',  ( 0.0000000000000000000, 0.0000000000000000000, 0.0000000000000000000 ) ) ;
#199 = ORIENTED_EDGE ( 'NONE', *, *, #254, .F. ) ;
#200 = DIRECTION ( 'NONE',  ( -1.224646799147353700E-16, -0.0000000000000000000, -1.000000000000000000 ) ) ;
#201 = DIRECTION ( 'NONE',  ( -1.224646799147353700E-16, -0.0000000000000000000, -1.000000000000000000 ) ) ;
#202 = CIRCLE ( 'NONE', #277, 0.06250000000000002776 ) ;
#203 = FACE_OUTER_BOUND ( 'NONE', #243, .T. ) ;
#204 = PRODUCT_DEFINITION_SHAPE ( 'NONE', 'NONE',  #185 ) ;
#205 = DIRECTION ( 'NONE',  ( -0.0000000000000000000, -0.0000000000000000000, -1.000000000000000000 ) ) ;
#206 = DIRECTION ( 'NONE',  ( 0.0000000000000000000, -1.000000000000000000, 0.0000000000000000000 ) ) ;
#207 = AXIS2_PLACEMENT_3D ( 'NONE', #289, #319, #219 ) ;
#208 = EDGE_CURVE ( 'NONE', #99, #305, #217, .T. ) ;
#209 = EDGE_CURVE ( 'NONE', #224, #118, #314, .T. ) ;
#210 = DIRECTION ( 'NONE',  ( 0.0000000000000000000, 0.0000000000000000000, 1.000000000000000000 ) ) ;
#211 = ORIENTED_EDGE ( 'NONE', *, *, #208, .T. ) ;
#212 = DIRECTION ( 'NONE',  ( -1.000000000000000000, 0.0000000000000000000, 0.0000000000000000000 ) ) ;
#213 = ORIENTED_EDGE ( 'NONE', *, *, #139, .F. ) ;
#214 = DIRECTION ( 'NONE',  ( 1.224646799147353207E-16, 1.000000000000000000, -0.0000000000000000000 ) ) ;
#215 = DIRECTION ( 'NONE',  ( -0.0000000000000000000, -0.0000000000000000000, -1.000000000000000000 ) ) ;
#216 = CONICAL_SURFACE ( 'NONE', #270, 0.04750000000000064587, 0.7853981633974466137 ) ;
#217 = CIRCLE ( 'NONE', #120, 0.04680315000000000170 ) ;
#218 = ORIENTED_EDGE ( 'NONE', *, *, #68, .T. ) ;
#219 = DIRECTION ( 'NONE',  ( 1.000000000000000000, 0.0000000000000000000, 0.0000000000000000000 ) ) ;
#220 = CARTESIAN_POINT ( 'NONE',  ( -0.04680314999999996006, 5.731732783751344394E-18, 0.3750000000000000555 ) ) ;
#221 = VERTEX_POINT ( 'NONE', #169 ) ;
#222 =( NAMED_UNIT ( * ) PLANE_ANGLE_UNIT ( ) SI_UNIT ( $, .RADIAN. ) );
#223 = DIRECTION ( 'NONE',  ( -0.0000000000000000000, -0.0000000000000000000, -1.000000000000000000 ) ) ;
#224 = VERTEX_POINT ( 'NONE', #247 ) ;
#225 = CARTESIAN_POINT ( 'NONE',  ( 5.682621508323871149E-17, 0.0000000000000000000, 0.4640212600302659474 ) ) ;
#226 = LINE ( 'NONE', #2, #93 ) ;
#227 = DIRECTION ( 'NONE',  ( 1.000000000000000000, 0.0000000000000000000, 0.0000000000000000000 ) ) ;
#228 = DIRECTION ( 'NONE',  ( 1.224646799147353700E-16, 0.0000000000000000000, 1.000000000000000000 ) ) ;
#229 = DIRECTION ( 'NONE',  ( -1.000000000000000000, 0.0000000000000000000, 0.0000000000000000000 ) ) ;
#230 = CLOSED_SHELL ( 'NONE', ( #11, #271, #51, #125, #77, #242, #117, #35, #279, #191, #32 ) ) ;
#231 = CARTESIAN_POINT ( 'NONE',  ( 5.731732783751346705E-18, 0.0000000000000000000, 0.04680315000000000170 ) ) ;
#232 = CARTESIAN_POINT ( 'NONE',  ( -0.04750000000000064587, 0.0000000000000000000, 1.500000000000000222 ) ) ;
#233 = EDGE_CURVE ( 'NONE', #274, #264, #190, .T. ) ;
#234 = ADVANCED_BREP_SHAPE_REPRESENTATION ( 'Micro_BEM-093-02X', ( #111, #207 ), #302 ) ;
#235 = DIRECTION ( 'NONE',  ( -0.7071067811865462405, 0.0000000000000000000, -0.7071067811865486830 ) ) ;
#236 = ORIENTED_EDGE ( 'NONE', *, *, #248, .F. ) ;
#237 = AXIS2_PLACEMENT_3D ( 'NONE', #269, #151, #298 ) ;
#238 = CARTESIAN_POINT ( 'NONE',  ( -0.06250000000000002776, 0.0000000000000000000, 1.485000000000000764 ) ) ;
#239 = ORIENTED_EDGE ( 'NONE', *, *, #39, .F. ) ;
#240 = DIRECTION ( 'NONE',  ( -1.000000000000000000, 0.0000000000000000000, 1.824027865688703052E-16 ) ) ;
#241 = CARTESIAN_POINT ( 'NONE',  ( 0.04680315000000000863, 5.731732783751344394E-18, 0.04680314999999999476 ) ) ;
#242 = ADVANCED_FACE ( 'NONE', ( #301 ), #121, .T. ) ;
#243 = EDGE_LOOP ( 'NONE', ( #50, #182, #152, #48 ) ) ;
#244 = DIRECTION ( 'NONE',  ( -1.224646799147353700E-16, -0.0000000000000000000, -1.000000000000000000 ) ) ;
#245 = CIRCLE ( 'NONE', #265, 0.06250000000000002776 ) ;
#246 = CIRCLE ( 'NONE', #75, 0.04680315000000000170 ) ;
#247 = CARTESIAN_POINT ( 'NONE',  ( -0.04750000000000064587, 0.0000000000000000000, 1.500000000000000222 ) ) ;
#248 = EDGE_CURVE ( 'NONE', #81, #264, #67, .T. ) ;
#249 = VERTEX_POINT ( 'NONE', #25 ) ;
#250 = DIMENSIONAL_EXPONENTS ( 1.000000000000000000, 0.0000000000000000000, 0.0000000000000000000, 0.0000000000000000000, 0.0000000000000000000, 0.0000000000000000000, 0.0000000000000000000 ) ;
#251 = ORIENTED_EDGE ( 'NONE', *, *, #209, .F. ) ;
#252 = AXIS2_PLACEMENT_3D ( 'NONE', #140, #12, #240 ) ;
#253 = CARTESIAN_POINT ( 'NONE',  ( 5.731732783751346705E-18, 0.0000000000000000000, 0.04680315000000000170 ) ) ;
#254 = EDGE_CURVE ( 'NONE', #274, #305, #321, .T. ) ;
#255 = ORIENTED_EDGE ( 'NONE', *, *, #310, .F. ) ;
#256 = ORIENTED_EDGE ( 'NONE', *, *, #78, .F. ) ;
#257 = LINE ( 'NONE', #161, #168 ) ;
#258 = PRESENTATION_LAYER_ASSIGNMENT (  '', '', ( #160 ) ) ;
#259 = DIRECTION ( 'NONE',  ( 1.000000000000000000, 0.0000000000000000000, -0.0000000000000000000 ) ) ;
#260 = DIRECTION ( 'NONE',  ( 0.0000000000000000000, 0.0000000000000000000, -1.000000000000000000 ) ) ;
#261 = CIRCLE ( 'NONE', #41, 0.04680315000000000170 ) ;
#262 = ORIENTED_EDGE ( 'NONE', *, *, #135, .F. ) ;
#263 = SURFACE_STYLE_FILL_AREA ( #89 ) ;
#264 = VERTEX_POINT ( 'NONE', #193 ) ;
#265 = AXIS2_PLACEMENT_3D ( 'NONE', #102, #200, #55 ) ;
#266 = CIRCLE ( 'NONE', #128, 0.04750000000000064587 ) ;
#267 = ORIENTED_EDGE ( 'NONE', *, *, #122, .F. ) ;
#268 = CARTESIAN_POINT ( 'NONE',  ( -0.06250000000000002776, 0.0000000000000000000, 1.500000000000000222 ) ) ;
#269 = CARTESIAN_POINT ( 'NONE',  ( 0.0000000000000000000, 0.0000000000000000000, 1.500000000000000222 ) ) ;
#270 = AXIS2_PLACEMENT_3D ( 'NONE', #5, #158, #229 ) ;
#271 = ADVANCED_FACE ( 'NONE', ( #95 ), #98, .T. ) ;
#272 = FACE_OUTER_BOUND ( 'NONE', #146, .T. ) ;
#273 = CARTESIAN_POINT ( 'NONE',  ( -0.04680314999999999476, 0.0000000000000000000, 0.04680315000000000863 ) ) ;
#274 = VERTEX_POINT ( 'NONE', #100 ) ;
#275 = DIRECTION ( 'NONE',  ( 0.0000000000000000000, 0.0000000000000000000, 1.000000000000000000 ) ) ;
#276 = DIRECTION ( 'NONE',  ( 0.0000000000000000000, 1.000000000000000000, 0.0000000000000000000 ) ) ;
#277 = AXIS2_PLACEMENT_3D ( 'NONE', #88, #106, #186 ) ;
#278 = ORIENTED_EDGE ( 'NONE', *, *, #285, .F. ) ;
#279 = ADVANCED_FACE ( 'NONE', ( #19 ), #83, .T. ) ;
#280 = ORIENTED_EDGE ( 'NONE', *, *, #39, .T. ) ;
#281 = DIRECTION ( 'NONE',  ( 1.000000000000000000, 0.0000000000000000000, 0.0000000000000000000 ) ) ;
#282 = CYLINDRICAL_SURFACE ( 'NONE', #286, 0.06250000000000002776 ) ;
#283 = AXIS2_PLACEMENT_3D ( 'NONE', #7, #210, #259 ) ;
#284 = FACE_OUTER_BOUND ( 'NONE', #130, .T. ) ;
#285 = EDGE_CURVE ( 'NONE', #249, #274, #261, .T. ) ;
#286 = AXIS2_PLACEMENT_3D ( 'NONE', #288, #205, #62 ) ;
#287 = AXIS2_PLACEMENT_3D ( 'NONE', #170, #215, #23 ) ;
#288 = CARTESIAN_POINT ( 'NONE',  ( 0.0000000000000000000, 0.0000000000000000000, 1.500000000000000222 ) ) ;
#289 = CARTESIAN_POINT ( 'NONE',  ( 0.0000000000000000000, 0.0000000000000000000, 0.0000000000000000000 ) ) ;
#290 = PLANE ( 'NONE',  #283 ) ;
#291 = EDGE_CURVE ( 'NONE', #13, #264, #86, .T. ) ;
#292 = FILL_AREA_STYLE ('',( #96 ) ) ;
#293 = VECTOR ( 'NONE', #188, 39.37007874015748143 ) ;
#294 =( NAMED_UNIT ( * ) PLANE_ANGLE_UNIT ( ) SI_UNIT ( $, .RADIAN. ) );
#295 = DIRECTION ( 'NONE',  ( 1.000000000000000000, 0.0000000000000000000, 0.0000000000000000000 ) ) ;
#296 = VERTEX_POINT ( 'NONE', #241 ) ;
#297 =( LENGTH_UNIT ( ) NAMED_UNIT ( * ) SI_UNIT ( $, .METRE. ) );
#298 = DIRECTION ( 'NONE',  ( 1.000000000000000000, 0.0000000000000000000, 0.0000000000000000000 ) ) ;
#299 = FACE_OUTER_BOUND ( 'NONE', #20, .T. ) ;
#300 = AXIS2_PLACEMENT_3D ( 'NONE', #187, #206, #107 ) ;
#301 = FACE_OUTER_BOUND ( 'NONE', #40, .T. ) ;
#302 =( GEOMETRIC_REPRESENTATION_CONTEXT ( 3 ) GLOBAL_UNCERTAINTY_ASSIGNED_CONTEXT ( ( #165 ) ) GLOBAL_UNIT_ASSIGNED_CONTEXT ( ( #49, #294, #147 ) ) REPRESENTATION_CONTEXT ( 'NONE', 'WORKASPACE' ) );
#303 = ORIENTED_EDGE ( 'NONE', *, *, #122, .T. ) ;
#304 = CARTESIAN_POINT ( 'NONE',  ( 4.592425496802576684E-17, 0.0000000000000000000, 0.3750000000000000555 ) ) ;
#305 = VERTEX_POINT ( 'NONE', #273 ) ;
#306 = FACE_OUTER_BOUND ( 'NONE', #3, .T. ) ;
#307 = AXIS2_PLACEMENT_3D ( 'NONE', #225, #155, #45 ) ;
#308 = DIRECTION ( 'NONE',  ( -1.000000000000000000, 0.0000000000000000000, 0.0000000000000000000 ) ) ;
#309 = CYLINDRICAL_SURFACE ( 'NONE', #58, 0.04680315000000000170 ) ;
#310 = EDGE_CURVE ( 'NONE', #118, #224, #266, .T. ) ;
#311 = EDGE_CURVE ( 'NONE', #221, #13, #195, .T. ) ;
#312 = FILL_AREA_STYLE_COLOUR ( '', #38 ) ;
#313 = COLOUR_RGB ( '',0.7921568627450980005, 0.8196078431372548767, 0.9333333333333333481 ) ;
#314 = CIRCLE ( 'NONE', #237, 0.04750000000000064587 ) ;
#315 = FACE_OUTER_BOUND ( 'NONE', #24, .T. ) ;
#316 = PRESENTATION_STYLE_ASSIGNMENT (( #192 ) ) ;
#317 = LINE ( 'NONE', #232, #30 ) ;
#318 = LENGTH_MEASURE_WITH_UNIT ( LENGTH_MEASURE( 0.02539999999999999897 ), #76 );
#319 = DIRECTION ( 'NONE',  ( 0.0000000000000000000, 0.0000000000000000000, 1.000000000000000000 ) ) ;
#320 = MECHANICAL_DESIGN_GEOMETRIC_PRESENTATION_REPRESENTATION (  '', ( #160 ), #94 ) ;
#321 = LINE ( 'NONE', #324, #189 ) ;
#322 = EDGE_LOOP ( 'NONE', ( #218, #174, #63, #199 ) ) ;
#323 = DIRECTION ( 'NONE',  ( 1.000000000000000000, 0.0000000000000000000, 0.0000000000000000000 ) ) ;
#324 = CARTESIAN_POINT ( 'NONE',  ( -0.04680315000000000170, 0.0000000000000000000, 5.731732783751346705E-18 ) ) ;
#325 = ORIENTED_EDGE ( 'NONE', *, *, #10, .F. ) ;
ENDSEC;
END-ISO-10303-21;
