ISO-10303-21;
HEADER;
FILE_DESCRIPTION (( 'STEP AP214' ),
    '1' );
FILE_NAME ('81829.STEP',
    '2023-06-23T03:19:34',
    ( '' ),
    ( '' ),
    'SwSTEP 2.0',
    'SolidWorks 2023',
    '' );
FILE_SCHEMA (( 'AUTOMOTIVE_DESIGN' ));
ENDSEC;

DATA;
#1 = CARTESIAN_POINT ( 'NONE',  ( 0.000000000000000000, 0.000000000000000000, -0.2500000000000000000 ) ) ;
#2 = DIMENSIONAL_EXPONENTS ( 1.000000000000000000, 0.000000000000000000, 0.000000000000000000, 0.000000000000000000, 0.000000000000000000, 0.000000000000000000, 0.000000000000000000 ) ;
#3 = EDGE_CURVE ( 'NONE', #104, #107, #109, .T. ) ;
#4 = VERTEX_POINT ( 'NONE', #161 ) ;
#5 = MECHANICAL_DESIGN_GEOMETRIC_PRESENTATION_REPRESENTATION (  '', ( #111 ), #59 ) ;
#6 = STYLED_ITEM ( 'NONE', ( #289 ), #201 ) ;
#7 = ORIENTED_EDGE ( 'NONE', *, *, #151, .F. ) ;
#8 = SURFACE_SIDE_STYLE ('',( #184 ) ) ;
#9 = PRESENTATION_LAYER_ASSIGNMENT (  '', '', ( #111 ) ) ;
#10 = AXIS2_PLACEMENT_3D ( 'NONE', #188, #12, #86 ) ;
#11 = SURFACE_STYLE_FILL_AREA ( #272 ) ;
#12 = DIRECTION ( 'NONE',  ( -0.000000000000000000, -1.000000000000000000, -0.000000000000000000 ) ) ;
#13 = FACE_OUTER_BOUND ( 'NONE', #225, .T. ) ;
#14 = CARTESIAN_POINT ( 'NONE',  ( 0.000000000000000000, 0.000000000000000000, 0.000000000000000000 ) ) ;
#15 = EDGE_LOOP ( 'NONE', ( #52, #288 ) ) ;
#16 =( CONVERSION_BASED_UNIT ( 'INCH', #146 ) LENGTH_UNIT ( ) NAMED_UNIT ( #222 ) );
#17 = EDGE_LOOP ( 'NONE', ( #251, #140, #54, #75 ) ) ;
#18 =( GEOMETRIC_REPRESENTATION_CONTEXT ( 3 ) GLOBAL_UNCERTAINTY_ASSIGNED_CONTEXT ( ( #265 ) ) GLOBAL_UNIT_ASSIGNED_CONTEXT ( ( #268, #157, #125 ) ) REPRESENTATION_CONTEXT ( 'NONE', 'WORKASPACE' ) );
#19 = SURFACE_STYLE_USAGE ( .BOTH. , #114 ) ;
#20 = DIRECTION ( 'NONE',  ( -0.000000000000000000, -1.000000000000000000, -0.000000000000000000 ) ) ;
#21 =( LENGTH_UNIT ( ) NAMED_UNIT ( * ) SI_UNIT ( $, .METRE. ) );
#22 = COLOUR_RGB ( '',1.000000000000000000, 0.000000000000000000, 0.000000000000000000 ) ;
#23 = UNCERTAINTY_MEASURE_WITH_UNIT (LENGTH_MEASURE( 1.000000000000000082E-05 ), #185, 'distance_accuracy_value', 'NONE');
#24 = EDGE_CURVE ( 'NONE', #208, #107, #215, .T. ) ;
#25 = FACE_OUTER_BOUND ( 'NONE', #30, .T. ) ;
#26 = VERTEX_POINT ( 'NONE', #275 ) ;
#27 = AXIS2_PLACEMENT_3D ( 'NONE', #14, #163, #110 ) ;
#28 = CARTESIAN_POINT ( 'NONE',  ( 0.2500000000000000000, 2.500000000000000000, 3.061616997868383634E-17 ) ) ;
#29 = MECHANICAL_DESIGN_GEOMETRIC_PRESENTATION_REPRESENTATION (  '', ( #6 ), #50 ) ;
#30 = EDGE_LOOP ( 'NONE', ( #158, #127, #131, #287 ) ) ;
#31 = FILL_AREA_STYLE_COLOUR ( '', #83 ) ;
#32 = PLANE ( 'NONE',  #152 ) ;
#33 = PRODUCT_DEFINITION_SHAPE ( 'NONE', 'NONE',  #60 ) ;
#34 = PRODUCT_RELATED_PRODUCT_CATEGORY ( 'part', '', ( #77 ) ) ;
#35 = DIRECTION ( 'NONE',  ( -0.000000000000000000, -1.000000000000000000, -0.000000000000000000 ) ) ;
#36 = LENGTH_MEASURE_WITH_UNIT ( LENGTH_MEASURE( 0.02539999999999999897 ), #87 );
#37 = COLOUR_RGB ( '',0.7921568627450980005, 0.8196078431372548767, 0.9333333333333333481 ) ;
#38 = VECTOR ( 'NONE', #102, 39.37007874015748143 ) ;
#39 = ORIENTED_EDGE ( 'NONE', *, *, #95, .F. ) ;
#40 = SURFACE_STYLE_FILL_AREA ( #139 ) ;
#41 = DIRECTION ( 'NONE',  ( -4.082155997157843818E-17, 1.000000000000000000, -0.000000000000000000 ) ) ;
#42 = CARTESIAN_POINT ( 'NONE',  ( 0.000000000000000000, 0.000000000000000000, 0.000000000000000000 ) ) ;
#43 =( NAMED_UNIT ( * ) SI_UNIT ( $, .STERADIAN. ) SOLID_ANGLE_UNIT ( ) );
#44 = CARTESIAN_POINT ( 'NONE',  ( 0.2500000000000000555, 2.500000000000000000, 0.000000000000000000 ) ) ;
#45 = AXIS2_PLACEMENT_3D ( 'NONE', #199, #117, #228 ) ;
#46 = AXIS2_PLACEMENT_3D ( 'NONE', #223, #35, #128 ) ;
#47 = ADVANCED_BREP_SHAPE_REPRESENTATION ( '81829', ( #195, #80, #211 ), #162 ) ;
#48 = DIRECTION ( 'NONE',  ( -0.000000000000000000, -1.000000000000000000, -0.000000000000000000 ) ) ;
#49 = CIRCLE ( 'NONE', #264, 0.2500000000000000555 ) ;
#50 =( GEOMETRIC_REPRESENTATION_CONTEXT ( 3 ) GLOBAL_UNCERTAINTY_ASSIGNED_CONTEXT ( ( #170 ) ) GLOBAL_UNIT_ASSIGNED_CONTEXT ( ( #273, #175, #295 ) ) REPRESENTATION_CONTEXT ( 'NONE', 'WORKASPACE' ) );
#51 = ADVANCED_FACE ( 'NONE', ( #13 ), #32, .T. ) ;
#52 = ORIENTED_EDGE ( 'NONE', *, *, #193, .T. ) ;
#53 = DIMENSIONAL_EXPONENTS ( 1.000000000000000000, 0.000000000000000000, 0.000000000000000000, 0.000000000000000000, 0.000000000000000000, 0.000000000000000000, 0.000000000000000000 ) ;
#54 = ORIENTED_EDGE ( 'NONE', *, *, #3, .T. ) ;
#55 = LENGTH_MEASURE_WITH_UNIT ( LENGTH_MEASURE( 0.02539999999999999897 ), #182 );
#56 = DIRECTION ( 'NONE',  ( -1.000000000000000000, 0.000000000000000000, 0.000000000000000000 ) ) ;
#57 = APPLICATION_PROTOCOL_DEFINITION ( 'draft international standard', 'automotive_design', 1998, #84 ) ;
#58 = UNCERTAINTY_MEASURE_WITH_UNIT (LENGTH_MEASURE( 1.000000000000000082E-05 ), #72, 'distance_accuracy_value', 'NONE');
#59 =( GEOMETRIC_REPRESENTATION_CONTEXT ( 3 ) GLOBAL_UNCERTAINTY_ASSIGNED_CONTEXT ( ( #58 ) ) GLOBAL_UNIT_ASSIGNED_CONTEXT ( ( #72, #171, #243 ) ) REPRESENTATION_CONTEXT ( 'NONE', 'WORKASPACE' ) );
#60 = PRODUCT_DEFINITION ( 'UNKNOWN', '', #73, #221 ) ;
#61 = PRESENTATION_STYLE_ASSIGNMENT (( #297 ) ) ;
#62 = CARTESIAN_POINT ( 'NONE',  ( 0.2500000000000000555, 1.000000000000000000, 3.061616997868384251E-17 ) ) ;
#63 = STYLED_ITEM ( 'NONE', ( #85 ), #51 ) ;
#64 = ORIENTED_EDGE ( 'NONE', *, *, #24, .T. ) ;
#65 = DIRECTION ( 'NONE',  ( -4.082155997157843818E-17, 1.000000000000000000, -0.000000000000000000 ) ) ;
#66 = FILL_AREA_STYLE_COLOUR ( '', #119 ) ;
#67 = DIRECTION ( 'NONE',  ( -0.000000000000000000, -1.000000000000000000, -0.000000000000000000 ) ) ;
#68 = MECHANICAL_DESIGN_GEOMETRIC_PRESENTATION_REPRESENTATION (  '', ( #63 ), #176 ) ;
#69 = CARTESIAN_POINT ( 'NONE',  ( 0.000000000000000000, 1.000000000000000000, 0.000000000000000000 ) ) ;
#70 = DIRECTION ( 'NONE',  ( 0.000000000000000000, 0.000000000000000000, -1.000000000000000000 ) ) ;
#71 = FILL_AREA_STYLE ('',( #31 ) ) ;
#72 =( CONVERSION_BASED_UNIT ( 'INCH', #286 ) LENGTH_UNIT ( ) NAMED_UNIT ( #2 ) );
#73 = PRODUCT_DEFINITION_FORMATION_WITH_SPECIFIED_SOURCE ( 'ANY', '', #77, .NOT_KNOWN. ) ;
#74 = ORIENTED_EDGE ( 'NONE', *, *, #95, .T. ) ;
#75 = ORIENTED_EDGE ( 'NONE', *, *, #24, .F. ) ;
#76 = CARTESIAN_POINT ( 'NONE',  ( 0.000000000000000000, 0.000000000000000000, 0.000000000000000000 ) ) ;
#77 = PRODUCT ( '81829', '81829', '', ( #250 ) ) ;
#78 = PRESENTATION_LAYER_ASSIGNMENT (  '', '', ( #156 ) ) ;
#79 = ORIENTED_EDGE ( 'NONE', *, *, #214, .F. ) ;
#80 = MANIFOLD_SOLID_BREP ( 'Revolve - Tool Body (Straight Shanked)', #210 ) ;
#81 = FILL_AREA_STYLE_COLOUR ( '', #37 ) ;
#82 = STYLED_ITEM ( 'NONE', ( #130 ), #195 ) ;
#83 = COLOUR_RGB ( '',0.7921568627450980005, 0.8196078431372548767, 0.9333333333333333481 ) ;
#84 = APPLICATION_CONTEXT ( 'automotive_design' ) ;
#85 = PRESENTATION_STYLE_ASSIGNMENT (( #159 ) ) ;
#86 = DIRECTION ( 'NONE',  ( 0.000000000000000000, 0.000000000000000000, -1.000000000000000000 ) ) ;
#87 =( LENGTH_UNIT ( ) NAMED_UNIT ( * ) SI_UNIT ( $, .METRE. ) );
#88 = CIRCLE ( 'NONE', #278, 0.2500000000000000555 ) ;
#89 = MECHANICAL_DESIGN_GEOMETRIC_PRESENTATION_REPRESENTATION (  '', ( #296 ), #98 ) ;
#90 = ORIENTED_EDGE ( 'NONE', *, *, #281, .T. ) ;
#91 = CARTESIAN_POINT ( 'NONE',  ( -0.2500000000000000555, 1.000000000000000000, 0.000000000000000000 ) ) ;
#92 = LINE ( 'NONE', #160, #172 ) ;
#93 = ADVANCED_FACE ( 'NONE', ( #147 ), #132, .T. ) ;
#94 =( CONVERSION_BASED_UNIT ( 'INCH', #308 ) LENGTH_UNIT ( ) NAMED_UNIT ( #174 ) );
#95 = EDGE_CURVE ( 'NONE', #235, #4, #227, .T. ) ;
#96 = DIRECTION ( 'NONE',  ( -1.000000000000000000, -4.082155997157843818E-17, 0.000000000000000000 ) ) ;
#97 = AXIS2_PLACEMENT_3D ( 'NONE', #115, #177, #56 ) ;
#98 =( GEOMETRIC_REPRESENTATION_CONTEXT ( 3 ) GLOBAL_UNCERTAINTY_ASSIGNED_CONTEXT ( ( #23 ) ) GLOBAL_UNIT_ASSIGNED_CONTEXT ( ( #185, #137, #43 ) ) REPRESENTATION_CONTEXT ( 'NONE', 'WORKASPACE' ) );
#99 = DIMENSIONAL_EXPONENTS ( 1.000000000000000000, 0.000000000000000000, 0.000000000000000000, 0.000000000000000000, 0.000000000000000000, 0.000000000000000000, 0.000000000000000000 ) ;
#100 = SURFACE_SIDE_STYLE ('',( #203 ) ) ;
#101 = EDGE_CURVE ( 'NONE', #255, #104, #88, .T. ) ;
#102 = DIRECTION ( 'NONE',  ( -4.082155997157843818E-17, 1.000000000000000000, -0.000000000000000000 ) ) ;
#103 = DIRECTION ( 'NONE',  ( 1.000000000000000000, 0.000000000000000000, 0.000000000000000000 ) ) ;
#104 = VERTEX_POINT ( 'NONE', #91 ) ;
#105 = CLOSED_SHELL ( 'NONE', ( #201, #51, #230, #205 ) ) ;
#106 = FACE_OUTER_BOUND ( 'NONE', #204, .T. ) ;
#107 = VERTEX_POINT ( 'NONE', #212 ) ;
#108 = SURFACE_SIDE_STYLE ('',( #234 ) ) ;
#109 = LINE ( 'NONE', #207, #249 ) ;
#110 = DIRECTION ( 'NONE',  ( 0.000000000000000000, 0.000000000000000000, -1.000000000000000000 ) ) ;
#111 = STYLED_ITEM ( 'NONE', ( #61 ), #80 ) ;
#112 = CARTESIAN_POINT ( 'NONE',  ( 0.000000000000000000, 1.000000000000000000, 0.000000000000000000 ) ) ;
#113 = EDGE_CURVE ( 'NONE', #4, #235, #49, .T. ) ;
#114 = SURFACE_SIDE_STYLE ('',( #40 ) ) ;
#115 = CARTESIAN_POINT ( 'NONE',  ( 0.000000000000000000, 1.000000000000000000, 0.000000000000000000 ) ) ;
#116 = APPLICATION_CONTEXT ( 'automotive_design' ) ;
#117 = DIRECTION ( 'NONE',  ( -4.082155997157843818E-17, 1.000000000000000000, -0.000000000000000000 ) ) ;
#118 = CARTESIAN_POINT ( 'NONE',  ( 3.061616997868383018E-17, 0.000000000000000000, 0.2500000000000000000 ) ) ;
#119 = COLOUR_RGB ( '',1.000000000000000000, 0.000000000000000000, 0.000000000000000000 ) ;
#120 = SURFACE_SIDE_STYLE ('',( #218 ) ) ;
#121 = DIRECTION ( 'NONE',  ( -4.082155997157843818E-17, 1.000000000000000000, 0.000000000000000000 ) ) ;
#122 = UNCERTAINTY_MEASURE_WITH_UNIT (LENGTH_MEASURE( 1.000000000000000082E-05 ), #16, 'distance_accuracy_value', 'NONE');
#123 = ORIENTED_EDGE ( 'NONE', *, *, #193, .F. ) ;
#124 = DIMENSIONAL_EXPONENTS ( 1.000000000000000000, 0.000000000000000000, 0.000000000000000000, 0.000000000000000000, 0.000000000000000000, 0.000000000000000000, 0.000000000000000000 ) ;
#125 =( NAMED_UNIT ( * ) SI_UNIT ( $, .STERADIAN. ) SOLID_ANGLE_UNIT ( ) );
#126 = DIRECTION ( 'NONE',  ( 0.000000000000000000, 0.000000000000000000, 1.000000000000000000 ) ) ;
#127 = ORIENTED_EDGE ( 'NONE', *, *, #197, .T. ) ;
#128 = DIRECTION ( 'NONE',  ( 0.000000000000000000, 0.000000000000000000, -1.000000000000000000 ) ) ;
#129 = FACE_OUTER_BOUND ( 'NONE', #245, .T. ) ;
#130 = PRESENTATION_STYLE_ASSIGNMENT (( #246 ) ) ;
#131 = ORIENTED_EDGE ( 'NONE', *, *, #281, .F. ) ;
#132 = CYLINDRICAL_SURFACE ( 'NONE', #149, 0.2500000000000000555 ) ;
#133 = ADVANCED_FACE ( 'NONE', ( #307 ), #191, .F. ) ;
#134 = FACE_OUTER_BOUND ( 'NONE', #15, .T. ) ;
#135 =( CONVERSION_BASED_UNIT ( 'INCH', #36 ) LENGTH_UNIT ( ) NAMED_UNIT ( #247 ) );
#136 = COLOUR_RGB ( '',1.000000000000000000, 0.000000000000000000, 0.000000000000000000 ) ;
#137 =( NAMED_UNIT ( * ) PLANE_ANGLE_UNIT ( ) SI_UNIT ( $, .RADIAN. ) );
#138 = ORIENTED_EDGE ( 'NONE', *, *, #151, .T. ) ;
#139 = FILL_AREA_STYLE ('',( #66 ) ) ;
#140 = ORIENTED_EDGE ( 'NONE', *, *, #101, .T. ) ;
#141 = DIRECTION ( 'NONE',  ( -0.000000000000000000, -1.000000000000000000, -0.000000000000000000 ) ) ;
#142 = DIRECTION ( 'NONE',  ( 0.000000000000000000, 1.000000000000000000, 0.000000000000000000 ) ) ;
#143 = DIRECTION ( 'NONE',  ( -0.000000000000000000, -1.000000000000000000, -0.000000000000000000 ) ) ;
#144 = CIRCLE ( 'NONE', #97, 0.2500000000000000555 ) ;
#145 = CIRCLE ( 'NONE', #220, 0.2500000000000001110 ) ;
#146 = LENGTH_MEASURE_WITH_UNIT ( LENGTH_MEASURE( 0.02539999999999999897 ), #190 );
#147 = FACE_OUTER_BOUND ( 'NONE', #17, .T. ) ;
#148 = DIRECTION ( 'NONE',  ( 0.000000000000000000, 0.000000000000000000, -1.000000000000000000 ) ) ;
#149 = AXIS2_PLACEMENT_3D ( 'NONE', #309, #196, #285 ) ;
#150 = ORIENTED_EDGE ( 'NONE', *, *, #304, .F. ) ;
#151 = EDGE_CURVE ( 'NONE', #4, #26, #259, .T. ) ;
#152 = AXIS2_PLACEMENT_3D ( 'NONE', #302, #142, #294 ) ;
#153 = EDGE_CURVE ( 'NONE', #104, #255, #144, .T. ) ;
#154 = LINE ( 'NONE', #28, #38 ) ;
#155 = PLANE ( 'NONE',  #271 ) ;
#156 = STYLED_ITEM ( 'NONE', ( #261 ), #230 ) ;
#157 =( NAMED_UNIT ( * ) PLANE_ANGLE_UNIT ( ) SI_UNIT ( $, .RADIAN. ) );
#158 = ORIENTED_EDGE ( 'NONE', *, *, #153, .T. ) ;
#159 = SURFACE_STYLE_USAGE ( .BOTH. , #189 ) ;
#160 = CARTESIAN_POINT ( 'NONE',  ( 0.000000000000000000, 0.000000000000000000, -0.2500000000000000000 ) ) ;
#161 = CARTESIAN_POINT ( 'NONE',  ( 3.061616997868383634E-17, 1.000000000000000000, 0.2500000000000000555 ) ) ;
#162 =( GEOMETRIC_REPRESENTATION_CONTEXT ( 3 ) GLOBAL_UNCERTAINTY_ASSIGNED_CONTEXT ( ( #217 ) ) GLOBAL_UNIT_ASSIGNED_CONTEXT ( ( #94, #262, #178 ) ) REPRESENTATION_CONTEXT ( 'NONE', 'WORKASPACE' ) );
#163 = DIRECTION ( 'NONE',  ( 0.000000000000000000, -1.000000000000000000, -0.000000000000000000 ) ) ;
#164 = ORIENTED_EDGE ( 'NONE', *, *, #214, .T. ) ;
#165 = DIRECTION ( 'NONE',  ( 4.082155997157843818E-17, -1.000000000000000000, 0.000000000000000000 ) ) ;
#166 = FILL_AREA_STYLE ('',( #192 ) ) ;
#167 = CIRCLE ( 'NONE', #233, 0.2500000000000000000 ) ;
#168 = ADVANCED_FACE ( 'NONE', ( #129 ), #155, .F. ) ;
#169 = DIRECTION ( 'NONE',  ( -4.082155997157843818E-17, 1.000000000000000000, -0.000000000000000000 ) ) ;
#170 = UNCERTAINTY_MEASURE_WITH_UNIT (LENGTH_MEASURE( 1.000000000000000082E-05 ), #273, 'distance_accuracy_value', 'NONE');
#171 =( NAMED_UNIT ( * ) PLANE_ANGLE_UNIT ( ) SI_UNIT ( $, .RADIAN. ) );
#172 = VECTOR ( 'NONE', #143, 39.37007874015748143 ) ;
#173 = ADVANCED_FACE ( 'NONE', ( #25 ), #198, .T. ) ;
#174 = DIMENSIONAL_EXPONENTS ( 1.000000000000000000, 0.000000000000000000, 0.000000000000000000, 0.000000000000000000, 0.000000000000000000, 0.000000000000000000, 0.000000000000000000 ) ;
#175 =( NAMED_UNIT ( * ) PLANE_ANGLE_UNIT ( ) SI_UNIT ( $, .RADIAN. ) );
#176 =( GEOMETRIC_REPRESENTATION_CONTEXT ( 3 ) GLOBAL_UNCERTAINTY_ASSIGNED_CONTEXT ( ( #179 ) ) GLOBAL_UNIT_ASSIGNED_CONTEXT ( ( #135, #232, #257 ) ) REPRESENTATION_CONTEXT ( 'NONE', 'WORKASPACE' ) );
#177 = DIRECTION ( 'NONE',  ( -4.082155997157843818E-17, 1.000000000000000000, -0.000000000000000000 ) ) ;
#178 =( NAMED_UNIT ( * ) SI_UNIT ( $, .STERADIAN. ) SOLID_ANGLE_UNIT ( ) );
#179 = UNCERTAINTY_MEASURE_WITH_UNIT (LENGTH_MEASURE( 1.000000000000000082E-05 ), #135, 'distance_accuracy_value', 'NONE');
#180 = DIRECTION ( 'NONE',  ( -4.082155997157843818E-17, 1.000000000000000000, -0.000000000000000000 ) ) ;
#181 = CIRCLE ( 'NONE', #219, 0.2500000000000000000 ) ;
#182 =( LENGTH_UNIT ( ) NAMED_UNIT ( * ) SI_UNIT ( $, .METRE. ) );
#183 = CYLINDRICAL_SURFACE ( 'NONE', #10, 0.2500000000000000000 ) ;
#184 = SURFACE_STYLE_FILL_AREA ( #231 ) ;
#185 =( CONVERSION_BASED_UNIT ( 'INCH', #258 ) LENGTH_UNIT ( ) NAMED_UNIT ( #124 ) );
#186 = VERTEX_POINT ( 'NONE', #1 ) ;
#187 = PRESENTATION_LAYER_ASSIGNMENT (  '', '', ( #6 ) ) ;
#188 = CARTESIAN_POINT ( 'NONE',  ( 0.000000000000000000, 0.000000000000000000, 0.000000000000000000 ) ) ;
#189 = SURFACE_SIDE_STYLE ('',( #11 ) ) ;
#190 =( LENGTH_UNIT ( ) NAMED_UNIT ( * ) SI_UNIT ( $, .METRE. ) );
#191 = PLANE ( 'NONE',  #303 ) ;
#192 = FILL_AREA_STYLE_COLOUR ( '', #238 ) ;
#193 = EDGE_CURVE ( 'NONE', #186, #26, #181, .T. ) ;
#194 = DIRECTION ( 'NONE',  ( 0.000000000000000000, 0.000000000000000000, -1.000000000000000000 ) ) ;
#195 = MANIFOLD_SOLID_BREP ( 'Revolve - Cutting Edge', #105 ) ;
#196 = DIRECTION ( 'NONE',  ( -4.082155997157843818E-17, 1.000000000000000000, -0.000000000000000000 ) ) ;
#197 = EDGE_CURVE ( 'NONE', #255, #208, #154, .T. ) ;
#198 = CYLINDRICAL_SURFACE ( 'NONE', #45, 0.2500000000000000555 ) ;
#199 = CARTESIAN_POINT ( 'NONE',  ( -6.123233995736766036E-17, 2.500000000000000000, 0.000000000000000000 ) ) ;
#200 = EDGE_LOOP ( 'NONE', ( #7, #202, #164, #150 ) ) ;
#201 = ADVANCED_FACE ( 'NONE', ( #106 ), #252, .T. ) ;
#202 = ORIENTED_EDGE ( 'NONE', *, *, #113, .T. ) ;
#203 = SURFACE_STYLE_FILL_AREA ( #226 ) ;
#204 = EDGE_LOOP ( 'NONE', ( #74, #138, #123, #79 ) ) ;
#205 = ADVANCED_FACE ( 'NONE', ( #134 ), #280, .T. ) ;
#206 = SURFACE_STYLE_USAGE ( .BOTH. , #108 ) ;
#207 = CARTESIAN_POINT ( 'NONE',  ( -0.2500000000000001110, 2.500000000000000000, 0.000000000000000000 ) ) ;
#208 = VERTEX_POINT ( 'NONE', #306 ) ;
#209 = DIRECTION ( 'NONE',  ( -1.000000000000000000, 0.000000000000000000, 0.000000000000000000 ) ) ;
#210 = CLOSED_SHELL ( 'NONE', ( #173, #168, #93, #133 ) ) ;
#211 = AXIS2_PLACEMENT_3D ( 'NONE', #267, #126, #103 ) ;
#212 = CARTESIAN_POINT ( 'NONE',  ( -0.2500000000000001665, 2.500000000000000000, 0.000000000000000000 ) ) ;
#213 =( LENGTH_UNIT ( ) NAMED_UNIT ( * ) SI_UNIT ( $, .METRE. ) );
#214 = EDGE_CURVE ( 'NONE', #235, #186, #92, .T. ) ;
#215 = CIRCLE ( 'NONE', #283, 0.2500000000000001110 ) ;
#216 =( GEOMETRIC_REPRESENTATION_CONTEXT ( 3 ) GLOBAL_UNCERTAINTY_ASSIGNED_CONTEXT ( ( #122 ) ) GLOBAL_UNIT_ASSIGNED_CONTEXT ( ( #16, #301, #298 ) ) REPRESENTATION_CONTEXT ( 'NONE', 'WORKASPACE' ) );
#217 = UNCERTAINTY_MEASURE_WITH_UNIT (LENGTH_MEASURE( 1.000000000000000082E-05 ), #94, 'distance_accuracy_value', 'NONE');
#218 = SURFACE_STYLE_FILL_AREA ( #71 ) ;
#219 = AXIS2_PLACEMENT_3D ( 'NONE', #76, #248, #282 ) ;
#220 = AXIS2_PLACEMENT_3D ( 'NONE', #279, #65, #256 ) ;
#221 = PRODUCT_DEFINITION_CONTEXT ( 'detailed design', #116, 'design' ) ;
#222 = DIMENSIONAL_EXPONENTS ( 1.000000000000000000, 0.000000000000000000, 0.000000000000000000, 0.000000000000000000, 0.000000000000000000, 0.000000000000000000, 0.000000000000000000 ) ;
#223 = CARTESIAN_POINT ( 'NONE',  ( 0.000000000000000000, 0.000000000000000000, 0.000000000000000000 ) ) ;
#224 = SHAPE_DEFINITION_REPRESENTATION ( #33, #47 ) ;
#225 = EDGE_LOOP ( 'NONE', ( #39, #229 ) ) ;
#226 = FILL_AREA_STYLE ('',( #291 ) ) ;
#227 = CIRCLE ( 'NONE', #266, 0.2500000000000000555 ) ;
#228 = DIRECTION ( 'NONE',  ( -1.000000000000000000, 0.000000000000000000, 0.000000000000000000 ) ) ;
#229 = ORIENTED_EDGE ( 'NONE', *, *, #113, .F. ) ;
#230 = ADVANCED_FACE ( 'NONE', ( #239 ), #183, .T. ) ;
#231 = FILL_AREA_STYLE ('',( #81 ) ) ;
#232 =( NAMED_UNIT ( * ) PLANE_ANGLE_UNIT ( ) SI_UNIT ( $, .RADIAN. ) );
#233 = AXIS2_PLACEMENT_3D ( 'NONE', #42, #141, #194 ) ;
#234 = SURFACE_STYLE_FILL_AREA ( #166 ) ;
#235 = VERTEX_POINT ( 'NONE', #276 ) ;
#236 = EDGE_LOOP ( 'NONE', ( #90, #64 ) ) ;
#237 = VECTOR ( 'NONE', #20, 39.37007874015748143 ) ;
#238 = COLOUR_RGB ( '',1.000000000000000000, 0.000000000000000000, 0.000000000000000000 ) ;
#239 = FACE_OUTER_BOUND ( 'NONE', #200, .T. ) ;
#240 = PRESENTATION_STYLE_ASSIGNMENT (( #19 ) ) ;
#241 = DIRECTION ( 'NONE',  ( 1.000000000000000000, 4.082155997157843818E-17, 0.000000000000000000 ) ) ;
#242 = PRESENTATION_LAYER_ASSIGNMENT (  '', '', ( #296 ) ) ;
#243 =( NAMED_UNIT ( * ) SI_UNIT ( $, .STERADIAN. ) SOLID_ANGLE_UNIT ( ) );
#244 = CARTESIAN_POINT ( 'NONE',  ( 2.082999698141468757E-34, 1.000000000000000000, 0.000000000000000000 ) ) ;
#245 = EDGE_LOOP ( 'NONE', ( #269, #274 ) ) ;
#246 = SURFACE_STYLE_USAGE ( .BOTH. , #120 ) ;
#247 = DIMENSIONAL_EXPONENTS ( 1.000000000000000000, 0.000000000000000000, 0.000000000000000000, 0.000000000000000000, 0.000000000000000000, 0.000000000000000000, 0.000000000000000000 ) ;
#248 = DIRECTION ( 'NONE',  ( -0.000000000000000000, -1.000000000000000000, -0.000000000000000000 ) ) ;
#249 = VECTOR ( 'NONE', #41, 39.37007874015748143 ) ;
#250 = PRODUCT_CONTEXT ( 'NONE', #84, 'mechanical' ) ;
#251 = ORIENTED_EDGE ( 'NONE', *, *, #197, .F. ) ;
#252 = CYLINDRICAL_SURFACE ( 'NONE', #46, 0.2500000000000000000 ) ;
#253 =( LENGTH_UNIT ( ) NAMED_UNIT ( * ) SI_UNIT ( $, .METRE. ) );
#254 = MECHANICAL_DESIGN_GEOMETRIC_PRESENTATION_REPRESENTATION (  '', ( #82 ), #18 ) ;
#255 = VERTEX_POINT ( 'NONE', #62 ) ;
#256 = DIRECTION ( 'NONE',  ( -1.000000000000000000, 0.000000000000000000, 0.000000000000000000 ) ) ;
#257 =( NAMED_UNIT ( * ) SI_UNIT ( $, .STERADIAN. ) SOLID_ANGLE_UNIT ( ) );
#258 = LENGTH_MEASURE_WITH_UNIT ( LENGTH_MEASURE( 0.02539999999999999897 ), #21 );
#259 = LINE ( 'NONE', #118, #237 ) ;
#260 = PRESENTATION_LAYER_ASSIGNMENT (  '', '', ( #82 ) ) ;
#261 = PRESENTATION_STYLE_ASSIGNMENT (( #206 ) ) ;
#262 =( NAMED_UNIT ( * ) PLANE_ANGLE_UNIT ( ) SI_UNIT ( $, .RADIAN. ) );
#263 = DIRECTION ( 'NONE',  ( -1.000000000000000000, 0.000000000000000000, 0.000000000000000000 ) ) ;
#264 = AXIS2_PLACEMENT_3D ( 'NONE', #305, #48, #148 ) ;
#265 = UNCERTAINTY_MEASURE_WITH_UNIT (LENGTH_MEASURE( 1.000000000000000082E-05 ), #268, 'distance_accuracy_value', 'NONE');
#266 = AXIS2_PLACEMENT_3D ( 'NONE', #69, #67, #70 ) ;
#267 = CARTESIAN_POINT ( 'NONE',  ( 0.000000000000000000, 0.000000000000000000, 0.000000000000000000 ) ) ;
#268 =( CONVERSION_BASED_UNIT ( 'INCH', #270 ) LENGTH_UNIT ( ) NAMED_UNIT ( #99 ) );
#269 = ORIENTED_EDGE ( 'NONE', *, *, #153, .F. ) ;
#270 = LENGTH_MEASURE_WITH_UNIT ( LENGTH_MEASURE( 0.02539999999999999897 ), #299 );
#271 = AXIS2_PLACEMENT_3D ( 'NONE', #244, #121, #96 ) ;
#272 = FILL_AREA_STYLE ('',( #300 ) ) ;
#273 =( CONVERSION_BASED_UNIT ( 'INCH', #55 ) LENGTH_UNIT ( ) NAMED_UNIT ( #53 ) );
#274 = ORIENTED_EDGE ( 'NONE', *, *, #101, .F. ) ;
#275 = CARTESIAN_POINT ( 'NONE',  ( 3.061616997868383018E-17, 0.000000000000000000, 0.2500000000000000000 ) ) ;
#276 = CARTESIAN_POINT ( 'NONE',  ( 0.000000000000000000, 1.000000000000000000, -0.2500000000000000555 ) ) ;
#277 = CARTESIAN_POINT ( 'NONE',  ( -6.123233995736766036E-17, 2.500000000000000000, 0.000000000000000000 ) ) ;
#278 = AXIS2_PLACEMENT_3D ( 'NONE', #112, #169, #263 ) ;
#279 = CARTESIAN_POINT ( 'NONE',  ( -6.123233995736766036E-17, 2.500000000000000000, 0.000000000000000000 ) ) ;
#280 = PLANE ( 'NONE',  #27 ) ;
#281 = EDGE_CURVE ( 'NONE', #107, #208, #145, .T. ) ;
#282 = DIRECTION ( 'NONE',  ( 0.000000000000000000, 0.000000000000000000, -1.000000000000000000 ) ) ;
#283 = AXIS2_PLACEMENT_3D ( 'NONE', #277, #180, #209 ) ;
#284 = MECHANICAL_DESIGN_GEOMETRIC_PRESENTATION_REPRESENTATION (  '', ( #156 ), #216 ) ;
#285 = DIRECTION ( 'NONE',  ( -1.000000000000000000, 0.000000000000000000, 0.000000000000000000 ) ) ;
#286 = LENGTH_MEASURE_WITH_UNIT ( LENGTH_MEASURE( 0.02539999999999999897 ), #253 );
#287 = ORIENTED_EDGE ( 'NONE', *, *, #3, .F. ) ;
#288 = ORIENTED_EDGE ( 'NONE', *, *, #304, .T. ) ;
#289 = PRESENTATION_STYLE_ASSIGNMENT (( #293 ) ) ;
#290 = PRESENTATION_LAYER_ASSIGNMENT (  '', '', ( #63 ) ) ;
#291 = FILL_AREA_STYLE_COLOUR ( '', #22 ) ;
#292 = APPLICATION_PROTOCOL_DEFINITION ( 'draft international standard', 'automotive_design', 1998, #116 ) ;
#293 = SURFACE_STYLE_USAGE ( .BOTH. , #100 ) ;
#294 = DIRECTION ( 'NONE',  ( 0.000000000000000000, -0.000000000000000000, 1.000000000000000000 ) ) ;
#295 =( NAMED_UNIT ( * ) SI_UNIT ( $, .STERADIAN. ) SOLID_ANGLE_UNIT ( ) );
#296 = STYLED_ITEM ( 'NONE', ( #240 ), #205 ) ;
#297 = SURFACE_STYLE_USAGE ( .BOTH. , #8 ) ;
#298 =( NAMED_UNIT ( * ) SI_UNIT ( $, .STERADIAN. ) SOLID_ANGLE_UNIT ( ) );
#299 =( LENGTH_UNIT ( ) NAMED_UNIT ( * ) SI_UNIT ( $, .METRE. ) );
#300 = FILL_AREA_STYLE_COLOUR ( '', #136 ) ;
#301 =( NAMED_UNIT ( * ) PLANE_ANGLE_UNIT ( ) SI_UNIT ( $, .RADIAN. ) );
#302 = CARTESIAN_POINT ( 'NONE',  ( 0.000000000000000000, 1.000000000000000000, 0.000000000000000000 ) ) ;
#303 = AXIS2_PLACEMENT_3D ( 'NONE', #44, #165, #241 ) ;
#304 = EDGE_CURVE ( 'NONE', #26, #186, #167, .T. ) ;
#305 = CARTESIAN_POINT ( 'NONE',  ( 0.000000000000000000, 1.000000000000000000, 0.000000000000000000 ) ) ;
#306 = CARTESIAN_POINT ( 'NONE',  ( 0.2500000000000000555, 2.500000000000000000, 3.061616997868384251E-17 ) ) ;
#307 = FACE_OUTER_BOUND ( 'NONE', #236, .T. ) ;
#308 = LENGTH_MEASURE_WITH_UNIT ( LENGTH_MEASURE( 0.02539999999999999897 ), #213 );
#309 = CARTESIAN_POINT ( 'NONE',  ( -6.123233995736766036E-17, 2.500000000000000000, 0.000000000000000000 ) ) ;
ENDSEC;
END-ISO-10303-21;
