ISO-10303-21;
HEADER;
FILE_DESCRIPTION (( 'STEP AP214' ),
    '1' );
FILE_NAME ('48060.STEP',
    '2023-06-22T21:05:00',
    ( '' ),
    ( '' ),
    'SwSTEP 2.0',
    'SolidWorks 2023',
    '' );
FILE_SCHEMA (( 'AUTOMOTIVE_DESIGN' ));
ENDSEC;

DATA;
#1 = LINE ( 'NONE', #282, #280 ) ;
#2 = FACE_OUTER_BOUND ( 'NONE', #51, .T. ) ;
#3 =( CONVERSION_BASED_UNIT ( 'INCH', #87 ) LENGTH_UNIT ( ) NAMED_UNIT ( #247 ) );
#4 = CARTESIAN_POINT ( 'NONE',  ( -6.123233995736772199E-17, 3.000000000000000444, 0.000000000000000000 ) ) ;
#5 =( CONVERSION_BASED_UNIT ( 'INCH', #218 ) LENGTH_UNIT ( ) NAMED_UNIT ( #104 ) );
#6 = APPLICATION_PROTOCOL_DEFINITION ( 'draft international standard', 'automotive_design', 1998, #254 ) ;
#7 = EDGE_CURVE ( 'NONE', #142, #27, #1, .T. ) ;
#8 = LENGTH_MEASURE_WITH_UNIT ( LENGTH_MEASURE( 0.02539999999999999897 ), #83 );
#9 = COLOUR_RGB ( '',0.7921568627450980005, 0.8196078431372548767, 0.9333333333333333481 ) ;
#10 = CARTESIAN_POINT ( 'NONE',  ( 0.000000000000000000, 1.000000000000000000, -0.09374999999999998612 ) ) ;
#11 = DIRECTION ( 'NONE',  ( 0.000000000000000000, 0.000000000000000000, -1.000000000000000000 ) ) ;
#12 = PRESENTATION_LAYER_ASSIGNMENT (  '', '', ( #200 ) ) ;
#13 = CIRCLE ( 'NONE', #226, 0.09374999999999998612 ) ;
#14 =( NAMED_UNIT ( * ) PLANE_ANGLE_UNIT ( ) SI_UNIT ( $, .RADIAN. ) );
#15 = FILL_AREA_STYLE ('',( #16 ) ) ;
#16 = FILL_AREA_STYLE_COLOUR ( '', #176 ) ;
#17 = PRODUCT_DEFINITION ( 'UNKNOWN', '', #306, #272 ) ;
#18 = AXIS2_PLACEMENT_3D ( 'NONE', #252, #179, #126 ) ;
#19 = ORIENTED_EDGE ( 'NONE', *, *, #198, .T. ) ;
#20 = LINE ( 'NONE', #187, #146 ) ;
#21 = ORIENTED_EDGE ( 'NONE', *, *, #102, .T. ) ;
#22 = ADVANCED_FACE ( 'NONE', ( #103 ), #169, .T. ) ;
#23 =( LENGTH_UNIT ( ) NAMED_UNIT ( * ) SI_UNIT ( $, .METRE. ) );
#24 = ORIENTED_EDGE ( 'NONE', *, *, #132, .F. ) ;
#25 =( GEOMETRIC_REPRESENTATION_CONTEXT ( 3 ) GLOBAL_UNCERTAINTY_ASSIGNED_CONTEXT ( ( #239 ) ) GLOBAL_UNIT_ASSIGNED_CONTEXT ( ( #263, #97, #147 ) ) REPRESENTATION_CONTEXT ( 'NONE', 'WORKASPACE' ) );
#26 = SURFACE_SIDE_STYLE ('',( #237 ) ) ;
#27 = VERTEX_POINT ( 'NONE', #155 ) ;
#28 = FILL_AREA_STYLE_COLOUR ( '', #9 ) ;
#29 = ORIENTED_EDGE ( 'NONE', *, *, #158, .F. ) ;
#30 =( LENGTH_UNIT ( ) NAMED_UNIT ( * ) SI_UNIT ( $, .METRE. ) );
#31 = UNCERTAINTY_MEASURE_WITH_UNIT (LENGTH_MEASURE( 1.000000000000000082E-05 ), #199, 'distance_accuracy_value', 'NONE');
#32 = DIMENSIONAL_EXPONENTS ( 1.000000000000000000, 0.000000000000000000, 0.000000000000000000, 0.000000000000000000, 0.000000000000000000, 0.000000000000000000, 0.000000000000000000 ) ;
#33 = CARTESIAN_POINT ( 'NONE',  ( 0.09374999999999998612, 3.000000000000000444, 0.000000000000000000 ) ) ;
#34 =( NAMED_UNIT ( * ) SI_UNIT ( $, .STERADIAN. ) SOLID_ANGLE_UNIT ( ) );
#35 = DIRECTION ( 'NONE',  ( -0.000000000000000000, -1.000000000000000000, -0.000000000000000000 ) ) ;
#36 = EDGE_CURVE ( 'NONE', #212, #118, #84, .T. ) ;
#37 =( NAMED_UNIT ( * ) SI_UNIT ( $, .STERADIAN. ) SOLID_ANGLE_UNIT ( ) );
#38 = FILL_AREA_STYLE ('',( #291 ) ) ;
#39 = CARTESIAN_POINT ( 'NONE',  ( 0.000000000000000000, 0.000000000000000000, 0.000000000000000000 ) ) ;
#40 =( GEOMETRIC_REPRESENTATION_CONTEXT ( 3 ) GLOBAL_UNCERTAINTY_ASSIGNED_CONTEXT ( ( #224 ) ) GLOBAL_UNIT_ASSIGNED_CONTEXT ( ( #234, #139, #209 ) ) REPRESENTATION_CONTEXT ( 'NONE', 'WORKASPACE' ) );
#41 = DIRECTION ( 'NONE',  ( -1.000000000000000000, 0.000000000000000000, 0.000000000000000000 ) ) ;
#42 =( NAMED_UNIT ( * ) SI_UNIT ( $, .STERADIAN. ) SOLID_ANGLE_UNIT ( ) );
#43 = PRESENTATION_STYLE_ASSIGNMENT (( #90 ) ) ;
#44 = STYLED_ITEM ( 'NONE', ( #251 ), #46 ) ;
#45 = STYLED_ITEM ( 'NONE', ( #260 ), #276 ) ;
#46 = MANIFOLD_SOLID_BREP ( 'Revolve - Tool Body (Straight Shanked)', #89 ) ;
#47 = ADVANCED_FACE ( 'NONE', ( #58 ), #274, .F. ) ;
#48 = CARTESIAN_POINT ( 'NONE',  ( 0.000000000000000000, 0.000000000000000000, 0.000000000000000000 ) ) ;
#49 = CIRCLE ( 'NONE', #94, 0.09374999999999998612 ) ;
#50 = DIRECTION ( 'NONE',  ( 0.000000000000000000, 0.000000000000000000, -1.000000000000000000 ) ) ;
#51 = EDGE_LOOP ( 'NONE', ( #101, #167, #148, #145 ) ) ;
#52 = PRESENTATION_STYLE_ASSIGNMENT (( #120 ) ) ;
#53 = ORIENTED_EDGE ( 'NONE', *, *, #81, .T. ) ;
#54 = FILL_AREA_STYLE ('',( #261 ) ) ;
#55 =( LENGTH_UNIT ( ) NAMED_UNIT ( * ) SI_UNIT ( $, .METRE. ) );
#56 = CARTESIAN_POINT ( 'NONE',  ( 1.148106374200643555E-17, 0.000000000000000000, 0.09375000000000001388 ) ) ;
#57 = ORIENTED_EDGE ( 'NONE', *, *, #294, .T. ) ;
#58 = FACE_OUTER_BOUND ( 'NONE', #121, .T. ) ;
#59 = UNCERTAINTY_MEASURE_WITH_UNIT (LENGTH_MEASURE( 1.000000000000000082E-05 ), #67, 'distance_accuracy_value', 'NONE');
#60 = MECHANICAL_DESIGN_GEOMETRIC_PRESENTATION_REPRESENTATION (  '', ( #200 ), #99 ) ;
#61 =( GEOMETRIC_REPRESENTATION_CONTEXT ( 3 ) GLOBAL_UNCERTAINTY_ASSIGNED_CONTEXT ( ( #295 ) ) GLOBAL_UNIT_ASSIGNED_CONTEXT ( ( #5, #292, #196 ) ) REPRESENTATION_CONTEXT ( 'NONE', 'WORKASPACE' ) );
#62 = DIRECTION ( 'NONE',  ( 0.000000000000000000, 1.000000000000000000, 0.000000000000000000 ) ) ;
#63 = PLANE ( 'NONE',  #159 ) ;
#64 = DIRECTION ( 'NONE',  ( -1.000000000000000000, -3.061616997868386099E-17, 0.000000000000000000 ) ) ;
#65 = CARTESIAN_POINT ( 'NONE',  ( 0.000000000000000000, 0.000000000000000000, -0.09375000000000001388 ) ) ;
#66 = UNCERTAINTY_MEASURE_WITH_UNIT (LENGTH_MEASURE( 1.000000000000000082E-05 ), #3, 'distance_accuracy_value', 'NONE');
#67 =( CONVERSION_BASED_UNIT ( 'INCH', #205 ) LENGTH_UNIT ( ) NAMED_UNIT ( #152 ) );
#68 = APPLICATION_PROTOCOL_DEFINITION ( 'draft international standard', 'automotive_design', 1998, #220 ) ;
#69 = MECHANICAL_DESIGN_GEOMETRIC_PRESENTATION_REPRESENTATION (  '', ( #44 ), #61 ) ;
#70 = STYLED_ITEM ( 'NONE', ( #52 ), #242 ) ;
#71 = ADVANCED_FACE ( 'NONE', ( #130 ), #63, .F. ) ;
#72 = CARTESIAN_POINT ( 'NONE',  ( 7.582401355855259480E-33, 1.000000000000000000, 0.000000000000000000 ) ) ;
#73 = AXIS2_PLACEMENT_3D ( 'NONE', #278, #95, #41 ) ;
#74 = FILL_AREA_STYLE ('',( #28 ) ) ;
#75 = EDGE_CURVE ( 'NONE', #284, #118, #119, .T. ) ;
#76 = SURFACE_STYLE_FILL_AREA ( #54 ) ;
#77 = DIRECTION ( 'NONE',  ( -1.000000000000000000, 0.000000000000000000, 0.000000000000000000 ) ) ;
#78 = EDGE_LOOP ( 'NONE', ( #166, #123 ) ) ;
#79 = VERTEX_POINT ( 'NONE', #154 ) ;
#80 = AXIS2_PLACEMENT_3D ( 'NONE', #153, #127, #149 ) ;
#81 = EDGE_CURVE ( 'NONE', #259, #27, #138, .T. ) ;
#82 = CIRCLE ( 'NONE', #80, 0.09375000000000005551 ) ;
#83 =( LENGTH_UNIT ( ) NAMED_UNIT ( * ) SI_UNIT ( $, .METRE. ) );
#84 = LINE ( 'NONE', #248, #134 ) ;
#85 = DIRECTION ( 'NONE',  ( -3.061616997868386099E-17, 1.000000000000000000, 0.000000000000000000 ) ) ;
#86 = STYLED_ITEM ( 'NONE', ( #211 ), #250 ) ;
#87 = LENGTH_MEASURE_WITH_UNIT ( LENGTH_MEASURE( 0.02539999999999999897 ), #107 );
#88 = DIRECTION ( 'NONE',  ( 1.000000000000000000, 3.061616997868386099E-17, 0.000000000000000000 ) ) ;
#89 = CLOSED_SHELL ( 'NONE', ( #298, #71, #143, #47 ) ) ;
#90 = SURFACE_STYLE_USAGE ( .BOTH. , #255 ) ;
#91 = PRODUCT ( '48060', '48060', '', ( #249 ) ) ;
#92 = FACE_OUTER_BOUND ( 'NONE', #303, .T. ) ;
#93 = DIRECTION ( 'NONE',  ( 0.000000000000000000, -1.000000000000000000, -0.000000000000000000 ) ) ;
#94 = AXIS2_PLACEMENT_3D ( 'NONE', #184, #208, #183 ) ;
#95 = DIRECTION ( 'NONE',  ( -3.061616997868386099E-17, 1.000000000000000000, -0.000000000000000000 ) ) ;
#96 = ORIENTED_EDGE ( 'NONE', *, *, #75, .F. ) ;
#97 =( NAMED_UNIT ( * ) PLANE_ANGLE_UNIT ( ) SI_UNIT ( $, .RADIAN. ) );
#98 = ORIENTED_EDGE ( 'NONE', *, *, #207, .F. ) ;
#99 =( GEOMETRIC_REPRESENTATION_CONTEXT ( 3 ) GLOBAL_UNCERTAINTY_ASSIGNED_CONTEXT ( ( #31 ) ) GLOBAL_UNIT_ASSIGNED_CONTEXT ( ( #199, #174, #180 ) ) REPRESENTATION_CONTEXT ( 'NONE', 'WORKASPACE' ) );
#100 = CARTESIAN_POINT ( 'NONE',  ( -0.09375000000000012490, 3.000000000000000444, 0.000000000000000000 ) ) ;
#101 = ORIENTED_EDGE ( 'NONE', *, *, #207, .T. ) ;
#102 = EDGE_CURVE ( 'NONE', #258, #212, #13, .T. ) ;
#103 = FACE_OUTER_BOUND ( 'NONE', #236, .T. ) ;
#104 = DIMENSIONAL_EXPONENTS ( 1.000000000000000000, 0.000000000000000000, 0.000000000000000000, 0.000000000000000000, 0.000000000000000000, 0.000000000000000000, 0.000000000000000000 ) ;
#105 = CARTESIAN_POINT ( 'NONE',  ( 0.000000000000000000, 1.000000000000000000, 0.000000000000000000 ) ) ;
#106 = AXIS2_PLACEMENT_3D ( 'NONE', #72, #235, #77 ) ;
#107 =( LENGTH_UNIT ( ) NAMED_UNIT ( * ) SI_UNIT ( $, .METRE. ) );
#108 =( GEOMETRIC_REPRESENTATION_CONTEXT ( 3 ) GLOBAL_UNCERTAINTY_ASSIGNED_CONTEXT ( ( #66 ) ) GLOBAL_UNIT_ASSIGNED_CONTEXT ( ( #3, #202, #37 ) ) REPRESENTATION_CONTEXT ( 'NONE', 'WORKASPACE' ) );
#109 = DIRECTION ( 'NONE',  ( -1.000000000000000000, 0.000000000000000000, 0.000000000000000000 ) ) ;
#110 = DIRECTION ( 'NONE',  ( -0.000000000000000000, -1.000000000000000000, -0.000000000000000000 ) ) ;
#111 = PRESENTATION_LAYER_ASSIGNMENT (  '', '', ( #86 ) ) ;
#112 = CARTESIAN_POINT ( 'NONE',  ( 1.148106374200643401E-17, 0.000000000000000000, 0.09374999999999998612 ) ) ;
#113 =( LENGTH_UNIT ( ) NAMED_UNIT ( * ) SI_UNIT ( $, .METRE. ) );
#114 = COLOUR_RGB ( '',1.000000000000000000, 0.000000000000000000, 0.000000000000000000 ) ;
#115 = ORIENTED_EDGE ( 'NONE', *, *, #36, .F. ) ;
#116 = DIRECTION ( 'NONE',  ( -0.000000000000000000, -1.000000000000000000, -0.000000000000000000 ) ) ;
#117 = EDGE_LOOP ( 'NONE', ( #192, #21, #210, #96 ) ) ;
#118 = VERTEX_POINT ( 'NONE', #65 ) ;
#119 = CIRCLE ( 'NONE', #18, 0.09375000000000001388 ) ;
#120 = SURFACE_STYLE_USAGE ( .BOTH. , #144 ) ;
#121 = EDGE_LOOP ( 'NONE', ( #53, #57 ) ) ;
#122 = LENGTH_MEASURE_WITH_UNIT ( LENGTH_MEASURE( 0.02539999999999999897 ), #23 );
#123 = ORIENTED_EDGE ( 'NONE', *, *, #75, .T. ) ;
#124 = UNCERTAINTY_MEASURE_WITH_UNIT (LENGTH_MEASURE( 1.000000000000000082E-05 ), #173, 'distance_accuracy_value', 'NONE');
#125 = CARTESIAN_POINT ( 'NONE',  ( -6.123233995736772199E-17, 3.000000000000000444, 0.000000000000000000 ) ) ;
#126 = DIRECTION ( 'NONE',  ( 0.000000000000000000, 0.000000000000000000, -1.000000000000000000 ) ) ;
#127 = DIRECTION ( 'NONE',  ( -3.061616997868386099E-17, 1.000000000000000000, -0.000000000000000000 ) ) ;
#128 = SURFACE_STYLE_FILL_AREA ( #38 ) ;
#129 = SHAPE_DEFINITION_REPRESENTATION ( #277, #267 ) ;
#130 = FACE_OUTER_BOUND ( 'NONE', #308, .T. ) ;
#131 = VECTOR ( 'NONE', #204, 39.37007874015748143 ) ;
#132 = EDGE_CURVE ( 'NONE', #118, #284, #203, .T. ) ;
#133 = CARTESIAN_POINT ( 'NONE',  ( 0.000000000000000000, 0.000000000000000000, 0.000000000000000000 ) ) ;
#134 = VECTOR ( 'NONE', #245, 39.37007874015748143 ) ;
#135 = CARTESIAN_POINT ( 'NONE',  ( 0.000000000000000000, 1.000000000000000000, 0.000000000000000000 ) ) ;
#136 = PLANE ( 'NONE',  #156 ) ;
#137 = FILL_AREA_STYLE ('',( #231 ) ) ;
#138 = CIRCLE ( 'NONE', #287, 0.09375000000000005551 ) ;
#139 =( NAMED_UNIT ( * ) PLANE_ANGLE_UNIT ( ) SI_UNIT ( $, .RADIAN. ) );
#140 = ORIENTED_EDGE ( 'NONE', *, *, #158, .T. ) ;
#141 = DIRECTION ( 'NONE',  ( -3.061616997868386099E-17, 1.000000000000000000, -0.000000000000000000 ) ) ;
#142 = VERTEX_POINT ( 'NONE', #160 ) ;
#143 = ADVANCED_FACE ( 'NONE', ( #92 ), #206, .T. ) ;
#144 = SURFACE_SIDE_STYLE ('',( #164 ) ) ;
#145 = ORIENTED_EDGE ( 'NONE', *, *, #270, .F. ) ;
#146 = VECTOR ( 'NONE', #141, 39.37007874015748143 ) ;
#147 =( NAMED_UNIT ( * ) SI_UNIT ( $, .STERADIAN. ) SOLID_ANGLE_UNIT ( ) );
#148 = ORIENTED_EDGE ( 'NONE', *, *, #81, .F. ) ;
#149 = DIRECTION ( 'NONE',  ( -1.000000000000000000, 0.000000000000000000, 0.000000000000000000 ) ) ;
#150 = CARTESIAN_POINT ( 'NONE',  ( 0.000000000000000000, 0.000000000000000000, 0.000000000000000000 ) ) ;
#151 = DIRECTION ( 'NONE',  ( 3.061616997868386099E-17, -1.000000000000000000, 0.000000000000000000 ) ) ;
#152 = DIMENSIONAL_EXPONENTS ( 1.000000000000000000, 0.000000000000000000, 0.000000000000000000, 0.000000000000000000, 0.000000000000000000, 0.000000000000000000, 0.000000000000000000 ) ;
#153 = CARTESIAN_POINT ( 'NONE',  ( -6.123233995736772199E-17, 3.000000000000000444, 0.000000000000000000 ) ) ;
#154 = CARTESIAN_POINT ( 'NONE',  ( -0.09374999999999998612, 1.000000000000000000, 0.000000000000000000 ) ) ;
#155 = CARTESIAN_POINT ( 'NONE',  ( 0.09374999999999998612, 3.000000000000000444, 1.148106374200644171E-17 ) ) ;
#156 = AXIS2_PLACEMENT_3D ( 'NONE', #297, #93, #186 ) ;
#157 =( NAMED_UNIT ( * ) PLANE_ANGLE_UNIT ( ) SI_UNIT ( $, .RADIAN. ) );
#158 = EDGE_CURVE ( 'NONE', #212, #258, #253, .T. ) ;
#159 = AXIS2_PLACEMENT_3D ( 'NONE', #178, #85, #64 ) ;
#160 = CARTESIAN_POINT ( 'NONE',  ( 0.09374999999999998612, 1.000000000000000000, 1.148106374200644171E-17 ) ) ;
#161 = CYLINDRICAL_SURFACE ( 'NONE', #232, 0.09374999999999998612 ) ;
#162 = PRODUCT_RELATED_PRODUCT_CATEGORY ( 'part', '', ( #91 ) ) ;
#163 = LENGTH_MEASURE_WITH_UNIT ( LENGTH_MEASURE( 0.02539999999999999897 ), #55 );
#164 = SURFACE_STYLE_FILL_AREA ( #137 ) ;
#165 = AXIS2_PLACEMENT_3D ( 'NONE', #125, #244, #222 ) ;
#166 = ORIENTED_EDGE ( 'NONE', *, *, #132, .T. ) ;
#167 = ORIENTED_EDGE ( 'NONE', *, *, #7, .T. ) ;
#168 = SURFACE_STYLE_USAGE ( .BOTH. , #283 ) ;
#169 = CYLINDRICAL_SURFACE ( 'NONE', #304, 0.09374999999999998612 ) ;
#170 =( LENGTH_UNIT ( ) NAMED_UNIT ( * ) SI_UNIT ( $, .METRE. ) );
#171 = CYLINDRICAL_SURFACE ( 'NONE', #165, 0.09375000000000002776 ) ;
#172 = SURFACE_STYLE_USAGE ( .BOTH. , #223 ) ;
#173 =( CONVERSION_BASED_UNIT ( 'INCH', #195 ) LENGTH_UNIT ( ) NAMED_UNIT ( #221 ) );
#174 =( NAMED_UNIT ( * ) PLANE_ANGLE_UNIT ( ) SI_UNIT ( $, .RADIAN. ) );
#175 = COLOUR_RGB ( '',0.7921568627450980005, 0.8196078431372548767, 0.9333333333333333481 ) ;
#176 = COLOUR_RGB ( '',1.000000000000000000, 0.000000000000000000, 0.000000000000000000 ) ;
#177 = DIRECTION ( 'NONE',  ( 0.000000000000000000, 0.000000000000000000, 1.000000000000000000 ) ) ;
#178 = CARTESIAN_POINT ( 'NONE',  ( 4.393827488267170048E-35, 1.000000000000000000, 0.000000000000000000 ) ) ;
#179 = DIRECTION ( 'NONE',  ( -0.000000000000000000, -1.000000000000000000, -0.000000000000000000 ) ) ;
#180 =( NAMED_UNIT ( * ) SI_UNIT ( $, .STERADIAN. ) SOLID_ANGLE_UNIT ( ) );
#181 = CIRCLE ( 'NONE', #106, 0.09374999999999998612 ) ;
#182 = FACE_OUTER_BOUND ( 'NONE', #78, .T. ) ;
#183 = DIRECTION ( 'NONE',  ( -1.000000000000000000, 0.000000000000000000, 0.000000000000000000 ) ) ;
#184 = CARTESIAN_POINT ( 'NONE',  ( 7.582401355855259480E-33, 1.000000000000000000, 0.000000000000000000 ) ) ;
#185 = COLOUR_RGB ( '',1.000000000000000000, 0.000000000000000000, 0.000000000000000000 ) ;
#186 = DIRECTION ( 'NONE',  ( 0.000000000000000000, 0.000000000000000000, -1.000000000000000000 ) ) ;
#187 = CARTESIAN_POINT ( 'NONE',  ( -0.09375000000000009714, 3.000000000000000444, 0.000000000000000000 ) ) ;
#188 = AXIS2_PLACEMENT_3D ( 'NONE', #135, #110, #11 ) ;
#189 = FILL_AREA_STYLE_COLOUR ( '', #185 ) ;
#190 = ORIENTED_EDGE ( 'NONE', *, *, #262, .T. ) ;
#191 = FACE_OUTER_BOUND ( 'NONE', #286, .T. ) ;
#192 = ORIENTED_EDGE ( 'NONE', *, *, #198, .F. ) ;
#193 = CLOSED_SHELL ( 'NONE', ( #22, #276, #242, #230 ) ) ;
#194 = PRESENTATION_LAYER_ASSIGNMENT (  '', '', ( #70 ) ) ;
#195 = LENGTH_MEASURE_WITH_UNIT ( LENGTH_MEASURE( 0.02539999999999999897 ), #170 );
#196 =( NAMED_UNIT ( * ) SI_UNIT ( $, .STERADIAN. ) SOLID_ANGLE_UNIT ( ) );
#197 = DIMENSIONAL_EXPONENTS ( 1.000000000000000000, 0.000000000000000000, 0.000000000000000000, 0.000000000000000000, 0.000000000000000000, 0.000000000000000000, 0.000000000000000000 ) ;
#198 = EDGE_CURVE ( 'NONE', #258, #284, #227, .T. ) ;
#199 =( CONVERSION_BASED_UNIT ( 'INCH', #8 ) LENGTH_UNIT ( ) NAMED_UNIT ( #32 ) );
#200 = STYLED_ITEM ( 'NONE', ( #309 ), #22 ) ;
#201 = PRESENTATION_LAYER_ASSIGNMENT (  '', '', ( #246 ) ) ;
#202 =( NAMED_UNIT ( * ) PLANE_ANGLE_UNIT ( ) SI_UNIT ( $, .RADIAN. ) );
#203 = CIRCLE ( 'NONE', #269, 0.09375000000000001388 ) ;
#204 = DIRECTION ( 'NONE',  ( -0.000000000000000000, -1.000000000000000000, -0.000000000000000000 ) ) ;
#205 = LENGTH_MEASURE_WITH_UNIT ( LENGTH_MEASURE( 0.02539999999999999897 ), #113 );
#206 = CYLINDRICAL_SURFACE ( 'NONE', #73, 0.09375000000000002776 ) ;
#207 = EDGE_CURVE ( 'NONE', #79, #142, #49, .T. ) ;
#208 = DIRECTION ( 'NONE',  ( -3.061616997868386099E-17, 1.000000000000000000, -0.000000000000000000 ) ) ;
#209 =( NAMED_UNIT ( * ) SI_UNIT ( $, .STERADIAN. ) SOLID_ANGLE_UNIT ( ) );
#210 = ORIENTED_EDGE ( 'NONE', *, *, #36, .T. ) ;
#211 = PRESENTATION_STYLE_ASSIGNMENT (( #216 ) ) ;
#212 = VERTEX_POINT ( 'NONE', #10 ) ;
#213 = PLANE ( 'NONE',  #219 ) ;
#214 = MECHANICAL_DESIGN_GEOMETRIC_PRESENTATION_REPRESENTATION (  '', ( #45 ), #293 ) ;
#215 = ORIENTED_EDGE ( 'NONE', *, *, #7, .F. ) ;
#216 = SURFACE_STYLE_USAGE ( .BOTH. , #26 ) ;
#217 = SURFACE_STYLE_USAGE ( .BOTH. , #241 ) ;
#218 = LENGTH_MEASURE_WITH_UNIT ( LENGTH_MEASURE( 0.02539999999999999897 ), #30 );
#219 = AXIS2_PLACEMENT_3D ( 'NONE', #290, #62, #266 ) ;
#220 = APPLICATION_CONTEXT ( 'automotive_design' ) ;
#221 = DIMENSIONAL_EXPONENTS ( 1.000000000000000000, 0.000000000000000000, 0.000000000000000000, 0.000000000000000000, 0.000000000000000000, 0.000000000000000000, 0.000000000000000000 ) ;
#222 = DIRECTION ( 'NONE',  ( -1.000000000000000000, 0.000000000000000000, 0.000000000000000000 ) ) ;
#223 = SURFACE_SIDE_STYLE ('',( #128 ) ) ;
#224 = UNCERTAINTY_MEASURE_WITH_UNIT (LENGTH_MEASURE( 1.000000000000000082E-05 ), #234, 'distance_accuracy_value', 'NONE');
#225 = DIRECTION ( 'NONE',  ( -3.061616997868386099E-17, 1.000000000000000000, -0.000000000000000000 ) ) ;
#226 = AXIS2_PLACEMENT_3D ( 'NONE', #105, #35, #275 ) ;
#227 = LINE ( 'NONE', #112, #131 ) ;
#228 = DIRECTION ( 'NONE',  ( 0.000000000000000000, 0.000000000000000000, -1.000000000000000000 ) ) ;
#229 = DIRECTION ( 'NONE',  ( -0.000000000000000000, -1.000000000000000000, -0.000000000000000000 ) ) ;
#230 = ADVANCED_FACE ( 'NONE', ( #182 ), #136, .T. ) ;
#231 = FILL_AREA_STYLE_COLOUR ( '', #114 ) ;
#232 = AXIS2_PLACEMENT_3D ( 'NONE', #48, #116, #50 ) ;
#233 = AXIS2_PLACEMENT_3D ( 'NONE', #150, #177, #273 ) ;
#234 =( CONVERSION_BASED_UNIT ( 'INCH', #122 ) LENGTH_UNIT ( ) NAMED_UNIT ( #197 ) );
#235 = DIRECTION ( 'NONE',  ( -3.061616997868386099E-17, 1.000000000000000000, -0.000000000000000000 ) ) ;
#236 = EDGE_LOOP ( 'NONE', ( #140, #19, #24, #115 ) ) ;
#237 = SURFACE_STYLE_FILL_AREA ( #74 ) ;
#238 = DIRECTION ( 'NONE',  ( -3.061616997868386099E-17, 1.000000000000000000, -0.000000000000000000 ) ) ;
#239 = UNCERTAINTY_MEASURE_WITH_UNIT (LENGTH_MEASURE( 1.000000000000000082E-05 ), #263, 'distance_accuracy_value', 'NONE');
#240 = PRESENTATION_LAYER_ASSIGNMENT (  '', '', ( #45 ) ) ;
#241 = SURFACE_SIDE_STYLE ('',( #76 ) ) ;
#242 = ADVANCED_FACE ( 'NONE', ( #301 ), #161, .T. ) ;
#243 = ORIENTED_EDGE ( 'NONE', *, *, #270, .T. ) ;
#244 = DIRECTION ( 'NONE',  ( -3.061616997868386099E-17, 1.000000000000000000, -0.000000000000000000 ) ) ;
#245 = DIRECTION ( 'NONE',  ( -0.000000000000000000, -1.000000000000000000, -0.000000000000000000 ) ) ;
#246 = STYLED_ITEM ( 'NONE', ( #43 ), #230 ) ;
#247 = DIMENSIONAL_EXPONENTS ( 1.000000000000000000, 0.000000000000000000, 0.000000000000000000, 0.000000000000000000, 0.000000000000000000, 0.000000000000000000, 0.000000000000000000 ) ;
#248 = CARTESIAN_POINT ( 'NONE',  ( 0.000000000000000000, 0.000000000000000000, -0.09374999999999998612 ) ) ;
#249 = PRODUCT_CONTEXT ( 'NONE', #220, 'mechanical' ) ;
#250 = MANIFOLD_SOLID_BREP ( 'Revolve - Cutting Edge', #193 ) ;
#251 = PRESENTATION_STYLE_ASSIGNMENT (( #172 ) ) ;
#252 = CARTESIAN_POINT ( 'NONE',  ( 0.000000000000000000, 0.000000000000000000, 0.000000000000000000 ) ) ;
#253 = CIRCLE ( 'NONE', #188, 0.09374999999999998612 ) ;
#254 = APPLICATION_CONTEXT ( 'automotive_design' ) ;
#255 = SURFACE_SIDE_STYLE ('',( #299 ) ) ;
#256 = PRESENTATION_LAYER_ASSIGNMENT (  '', '', ( #44 ) ) ;
#257 = COLOUR_RGB ( '',1.000000000000000000, 0.000000000000000000, 0.000000000000000000 ) ;
#258 = VERTEX_POINT ( 'NONE', #279 ) ;
#259 = VERTEX_POINT ( 'NONE', #100 ) ;
#260 = PRESENTATION_STYLE_ASSIGNMENT (( #168 ) ) ;
#261 = FILL_AREA_STYLE_COLOUR ( '', #257 ) ;
#262 = EDGE_CURVE ( 'NONE', #142, #79, #181, .T. ) ;
#263 =( CONVERSION_BASED_UNIT ( 'INCH', #163 ) LENGTH_UNIT ( ) NAMED_UNIT ( #271 ) );
#264 = AXIS2_PLACEMENT_3D ( 'NONE', #33, #151, #88 ) ;
#265 = ORIENTED_EDGE ( 'NONE', *, *, #102, .F. ) ;
#266 = DIRECTION ( 'NONE',  ( 0.000000000000000000, -0.000000000000000000, 1.000000000000000000 ) ) ;
#267 = ADVANCED_BREP_SHAPE_REPRESENTATION ( '48060', ( #250, #46, #233 ), #108 ) ;
#268 = DIRECTION ( 'NONE',  ( 0.000000000000000000, 0.000000000000000000, -1.000000000000000000 ) ) ;
#269 = AXIS2_PLACEMENT_3D ( 'NONE', #39, #229, #228 ) ;
#270 = EDGE_CURVE ( 'NONE', #79, #259, #20, .T. ) ;
#271 = DIMENSIONAL_EXPONENTS ( 1.000000000000000000, 0.000000000000000000, 0.000000000000000000, 0.000000000000000000, 0.000000000000000000, 0.000000000000000000, 0.000000000000000000 ) ;
#272 = PRODUCT_DEFINITION_CONTEXT ( 'detailed design', #254, 'design' ) ;
#273 = DIRECTION ( 'NONE',  ( 1.000000000000000000, 0.000000000000000000, 0.000000000000000000 ) ) ;
#274 = PLANE ( 'NONE',  #264 ) ;
#275 = DIRECTION ( 'NONE',  ( 0.000000000000000000, 0.000000000000000000, -1.000000000000000000 ) ) ;
#276 = ADVANCED_FACE ( 'NONE', ( #191 ), #213, .T. ) ;
#277 = PRODUCT_DEFINITION_SHAPE ( 'NONE', 'NONE',  #17 ) ;
#278 = CARTESIAN_POINT ( 'NONE',  ( -6.123233995736772199E-17, 3.000000000000000444, 0.000000000000000000 ) ) ;
#279 = CARTESIAN_POINT ( 'NONE',  ( 1.148106374200643401E-17, 1.000000000000000000, 0.09374999999999998612 ) ) ;
#280 = VECTOR ( 'NONE', #238, 39.37007874015748143 ) ;
#281 = MECHANICAL_DESIGN_GEOMETRIC_PRESENTATION_REPRESENTATION (  '', ( #86 ), #40 ) ;
#282 = CARTESIAN_POINT ( 'NONE',  ( 0.09374999999999995837, 3.000000000000000444, 1.148106374200644017E-17 ) ) ;
#283 = SURFACE_SIDE_STYLE ('',( #285 ) ) ;
#284 = VERTEX_POINT ( 'NONE', #56 ) ;
#285 = SURFACE_STYLE_FILL_AREA ( #307 ) ;
#286 = EDGE_LOOP ( 'NONE', ( #29, #265 ) ) ;
#287 = AXIS2_PLACEMENT_3D ( 'NONE', #4, #225, #109 ) ;
#288 = ORIENTED_EDGE ( 'NONE', *, *, #262, .F. ) ;
#289 = DIRECTION ( 'NONE',  ( -0.000000000000000000, -1.000000000000000000, -0.000000000000000000 ) ) ;
#290 = CARTESIAN_POINT ( 'NONE',  ( 0.000000000000000000, 1.000000000000000000, 0.000000000000000000 ) ) ;
#291 = FILL_AREA_STYLE_COLOUR ( '', #175 ) ;
#292 =( NAMED_UNIT ( * ) PLANE_ANGLE_UNIT ( ) SI_UNIT ( $, .RADIAN. ) );
#293 =( GEOMETRIC_REPRESENTATION_CONTEXT ( 3 ) GLOBAL_UNCERTAINTY_ASSIGNED_CONTEXT ( ( #124 ) ) GLOBAL_UNIT_ASSIGNED_CONTEXT ( ( #173, #14, #34 ) ) REPRESENTATION_CONTEXT ( 'NONE', 'WORKASPACE' ) );
#294 = EDGE_CURVE ( 'NONE', #27, #259, #82, .T. ) ;
#295 = UNCERTAINTY_MEASURE_WITH_UNIT (LENGTH_MEASURE( 1.000000000000000082E-05 ), #5, 'distance_accuracy_value', 'NONE');
#296 =( GEOMETRIC_REPRESENTATION_CONTEXT ( 3 ) GLOBAL_UNCERTAINTY_ASSIGNED_CONTEXT ( ( #59 ) ) GLOBAL_UNIT_ASSIGNED_CONTEXT ( ( #67, #157, #42 ) ) REPRESENTATION_CONTEXT ( 'NONE', 'WORKASPACE' ) );
#297 = CARTESIAN_POINT ( 'NONE',  ( 0.000000000000000000, 0.000000000000000000, 0.000000000000000000 ) ) ;
#298 = ADVANCED_FACE ( 'NONE', ( #2 ), #171, .T. ) ;
#299 = SURFACE_STYLE_FILL_AREA ( #15 ) ;
#300 = MECHANICAL_DESIGN_GEOMETRIC_PRESENTATION_REPRESENTATION (  '', ( #70 ), #25 ) ;
#301 = FACE_OUTER_BOUND ( 'NONE', #117, .T. ) ;
#302 = ORIENTED_EDGE ( 'NONE', *, *, #294, .F. ) ;
#303 = EDGE_LOOP ( 'NONE', ( #215, #190, #243, #302 ) ) ;
#304 = AXIS2_PLACEMENT_3D ( 'NONE', #133, #289, #268 ) ;
#305 = MECHANICAL_DESIGN_GEOMETRIC_PRESENTATION_REPRESENTATION (  '', ( #246 ), #296 ) ;
#306 = PRODUCT_DEFINITION_FORMATION_WITH_SPECIFIED_SOURCE ( 'ANY', '', #91, .NOT_KNOWN. ) ;
#307 = FILL_AREA_STYLE ('',( #189 ) ) ;
#308 = EDGE_LOOP ( 'NONE', ( #98, #288 ) ) ;
#309 = PRESENTATION_STYLE_ASSIGNMENT (( #217 ) ) ;
ENDSEC;
END-ISO-10303-21;
