ISO-10303-21;
HEADER;
FILE_DESCRIPTION (( 'STEP AP214' ),
    '1' );
FILE_NAME ('56317.STEP',
    '2023-06-30T22:07:31',
    ( '' ),
    ( '' ),
    'SwSTEP 2.0',
    'SolidWorks 2023',
    '' );
FILE_SCHEMA (( 'AUTOMOTIVE_DESIGN' ));
ENDSEC;

DATA;
#1 = STYLED_ITEM ( 'NONE', ( #45 ), #153 ) ;
#2 = DIRECTION ( 'NONE',  ( -0.000000000000000000, -1.000000000000000000, -0.000000000000000000 ) ) ;
#3 = CARTESIAN_POINT ( 'NONE',  ( 3.067472995370340001E-16, 0.5000000000000001110, 0.000000000000000000 ) ) ;
#4 = PRODUCT ( '56317', '56317', '', ( #357 ) ) ;
#5 =( GEOMETRIC_REPRESENTATION_CONTEXT ( 3 ) GLOBAL_UNCERTAINTY_ASSIGNED_CONTEXT ( ( #265 ) ) GLOBAL_UNIT_ASSIGNED_CONTEXT ( ( #137, #68, #249 ) ) REPRESENTATION_CONTEXT ( 'NONE', 'WORKASPACE' ) );
#6 =( GEOMETRIC_REPRESENTATION_CONTEXT ( 3 ) GLOBAL_UNCERTAINTY_ASSIGNED_CONTEXT ( ( #83 ) ) GLOBAL_UNIT_ASSIGNED_CONTEXT ( ( #330, #47, #173 ) ) REPRESENTATION_CONTEXT ( 'NONE', 'WORKASPACE' ) );
#7 = LINE ( 'NONE', #221, #184 ) ;
#8 = DIRECTION ( 'NONE',  ( 0.000000000000000000, 0.000000000000000000, -1.000000000000000000 ) ) ;
#9 = DIRECTION ( 'NONE',  ( -1.228550797481990867E-16, 1.000000000000000000, -0.000000000000000000 ) ) ;
#10 = DIRECTION ( 'NONE',  ( 1.000000000000000000, 1.228550797481990867E-16, 0.000000000000000000 ) ) ;
#11 = AXIS2_PLACEMENT_3D ( 'NONE', #275, #2, #190 ) ;
#12 = LENGTH_MEASURE_WITH_UNIT ( LENGTH_MEASURE( 0.02539999999999999897 ), #76 );
#13 = PRODUCT_DEFINITION_CONTEXT ( 'detailed design', #19, 'design' ) ;
#14 = DIMENSIONAL_EXPONENTS ( 1.000000000000000000, 0.000000000000000000, 0.000000000000000000, 0.000000000000000000, 0.000000000000000000, 0.000000000000000000, 0.000000000000000000 ) ;
#15 = ORIENTED_EDGE ( 'NONE', *, *, #233, .F. ) ;
#16 = VERTEX_POINT ( 'NONE', #88 ) ;
#17 = STYLED_ITEM ( 'NONE', ( #348 ), #243 ) ;
#18 = ORIENTED_EDGE ( 'NONE', *, *, #284, .T. ) ;
#19 = APPLICATION_CONTEXT ( 'automotive_design' ) ;
#20 = EDGE_LOOP ( 'NONE', ( #22, #80 ) ) ;
#21 = CARTESIAN_POINT ( 'NONE',  ( 2.296212748401286801E-17, 0.5000000000000000000, 0.1874999999999999722 ) ) ;
#22 = ORIENTED_EDGE ( 'NONE', *, *, #233, .T. ) ;
#23 = AXIS2_PLACEMENT_3D ( 'NONE', #89, #346, #93 ) ;
#24 = DIRECTION ( 'NONE',  ( 1.228550797481990867E-16, -1.000000000000000000, 0.000000000000000000 ) ) ;
#25 = MECHANICAL_DESIGN_GEOMETRIC_PRESENTATION_REPRESENTATION (  '', ( #142 ), #6 ) ;
#26 = UNCERTAINTY_MEASURE_WITH_UNIT (LENGTH_MEASURE( 1.000000000000000082E-05 ), #94, 'distance_accuracy_value', 'NONE');
#27 =( CONVERSION_BASED_UNIT ( 'INCH', #130 ) LENGTH_UNIT ( ) NAMED_UNIT ( #304 ) );
#28 = CARTESIAN_POINT ( 'NONE',  ( 0.000000000000000000, 0.5000000000000000000, -0.1874999999999999722 ) ) ;
#29 = CARTESIAN_POINT ( 'NONE',  ( 2.296212748401286801E-17, 0.1875000000000000555, 0.1874999999999999722 ) ) ;
#30 = AXIS2_PLACEMENT_3D ( 'NONE', #320, #63, #238 ) ;
#31 =( GEOMETRIC_REPRESENTATION_CONTEXT ( 3 ) GLOBAL_UNCERTAINTY_ASSIGNED_CONTEXT ( ( #110 ) ) GLOBAL_UNIT_ASSIGNED_CONTEXT ( ( #71, #223, #326 ) ) REPRESENTATION_CONTEXT ( 'NONE', 'WORKASPACE' ) );
#32 = CIRCLE ( 'NONE', #49, 0.1874999999999999722 ) ;
#33 = CARTESIAN_POINT ( 'NONE',  ( 1.224646799147353700E-16, 2.000000000000000000, 0.000000000000000000 ) ) ;
#34 = CARTESIAN_POINT ( 'NONE',  ( 1.224646799147353700E-16, 2.000000000000000000, 0.000000000000000000 ) ) ;
#35 = FILL_AREA_STYLE_COLOUR ( '', #178 ) ;
#36 = LENGTH_MEASURE_WITH_UNIT ( LENGTH_MEASURE( 0.02539999999999999897 ), #66 );
#37 =( LENGTH_UNIT ( ) NAMED_UNIT ( * ) SI_UNIT ( $, .METRE. ) );
#38 = AXIS2_PLACEMENT_3D ( 'NONE', #3, #252, #182 ) ;
#39 = DIRECTION ( 'NONE',  ( -1.000000000000000000, 0.000000000000000000, 0.000000000000000000 ) ) ;
#40 = EDGE_CURVE ( 'NONE', #51, #50, #150, .T. ) ;
#41 = MECHANICAL_DESIGN_GEOMETRIC_PRESENTATION_REPRESENTATION (  '', ( #1 ), #215 ) ;
#42 = AXIS2_PLACEMENT_3D ( 'NONE', #286, #203, #336 ) ;
#43 = SURFACE_STYLE_FILL_AREA ( #325 ) ;
#44 = DIRECTION ( 'NONE',  ( 0.000000000000000000, -0.000000000000000000, 1.000000000000000000 ) ) ;
#45 = PRESENTATION_STYLE_ASSIGNMENT (( #246 ) ) ;
#46 =( NAMED_UNIT ( * ) PLANE_ANGLE_UNIT ( ) SI_UNIT ( $, .RADIAN. ) );
#47 =( NAMED_UNIT ( * ) PLANE_ANGLE_UNIT ( ) SI_UNIT ( $, .RADIAN. ) );
#48 =( GEOMETRIC_REPRESENTATION_CONTEXT ( 3 ) GLOBAL_UNCERTAINTY_ASSIGNED_CONTEXT ( ( #317 ) ) GLOBAL_UNIT_ASSIGNED_CONTEXT ( ( #271, #46, #364 ) ) REPRESENTATION_CONTEXT ( 'NONE', 'WORKASPACE' ) );
#49 = AXIS2_PLACEMENT_3D ( 'NONE', #200, #74, #141 ) ;
#50 = VERTEX_POINT ( 'NONE', #95 ) ;
#51 = VERTEX_POINT ( 'NONE', #209 ) ;
#52 = MECHANICAL_DESIGN_GEOMETRIC_PRESENTATION_REPRESENTATION (  '', ( #140 ), #201 ) ;
#53 = STYLED_ITEM ( 'NONE', ( #157 ), #121 ) ;
#54 = EDGE_LOOP ( 'NONE', ( #257, #311, #147, #230 ) ) ;
#55 = FILL_AREA_STYLE_COLOUR ( '', #310 ) ;
#56 = ORIENTED_EDGE ( 'NONE', *, *, #229, .F. ) ;
#57 = FACE_OUTER_BOUND ( 'NONE', #20, .T. ) ;
#58 = UNCERTAINTY_MEASURE_WITH_UNIT (LENGTH_MEASURE( 1.000000000000000082E-05 ), #27, 'distance_accuracy_value', 'NONE');
#59 = VERTEX_POINT ( 'NONE', #28 ) ;
#60 = CARTESIAN_POINT ( 'NONE',  ( 0.000000000000000000, 0.000000000000000000, 0.000000000000000000 ) ) ;
#61 = AXIS2_PLACEMENT_3D ( 'NONE', #156, #270, #44 ) ;
#62 = CIRCLE ( 'NONE', #42, 0.1874999999999996669 ) ;
#63 = DIRECTION ( 'NONE',  ( 0.000000000000000000, 0.000000000000000000, 1.000000000000000000 ) ) ;
#64 = FILL_AREA_STYLE ('',( #224 ) ) ;
#65 = CIRCLE ( 'NONE', #134, 0.1874999999999999722 ) ;
#66 =( LENGTH_UNIT ( ) NAMED_UNIT ( * ) SI_UNIT ( $, .METRE. ) );
#67 = APPLICATION_PROTOCOL_DEFINITION ( 'draft international standard', 'automotive_design', 1998, #321 ) ;
#68 =( NAMED_UNIT ( * ) PLANE_ANGLE_UNIT ( ) SI_UNIT ( $, .RADIAN. ) );
#69 = CYLINDRICAL_SURFACE ( 'NONE', #338, 0.1874999999999999722 ) ;
#70 = DIRECTION ( 'NONE',  ( 0.000000000000000000, 0.000000000000000000, 1.000000000000000000 ) ) ;
#71 =( CONVERSION_BASED_UNIT ( 'INCH', #225 ) LENGTH_UNIT ( ) NAMED_UNIT ( #228 ) );
#72 = CARTESIAN_POINT ( 'NONE',  ( -2.296212748401287726E-17, 0.1875000000000000278, 0.000000000000000000 ) ) ;
#73 = SURFACE_STYLE_FILL_AREA ( #143 ) ;
#74 = DIRECTION ( 'NONE',  ( -0.000000000000000000, -1.000000000000000000, -0.000000000000000000 ) ) ;
#75 =( NAMED_UNIT ( * ) PLANE_ANGLE_UNIT ( ) SI_UNIT ( $, .RADIAN. ) );
#76 =( LENGTH_UNIT ( ) NAMED_UNIT ( * ) SI_UNIT ( $, .METRE. ) );
#77 = MECHANICAL_DESIGN_GEOMETRIC_PRESENTATION_REPRESENTATION (  '', ( #208 ), #31 ) ;
#78 = VERTEX_POINT ( 'NONE', #29 ) ;
#79 = ADVANCED_FACE ( 'NONE', ( #241 ), #297, .T. ) ;
#80 = ORIENTED_EDGE ( 'NONE', *, *, #218, .T. ) ;
#81 = DIRECTION ( 'NONE',  ( 1.000000000000000000, 0.000000000000000000, 0.000000000000000000 ) ) ;
#82 = VECTOR ( 'NONE', #293, 39.37007874015748143 ) ;
#83 = UNCERTAINTY_MEASURE_WITH_UNIT (LENGTH_MEASURE( 1.000000000000000082E-05 ), #330, 'distance_accuracy_value', 'NONE');
#84 = CIRCLE ( 'NONE', #154, 0.1875000000000000278 ) ;
#85 = ORIENTED_EDGE ( 'NONE', *, *, #97, .F. ) ;
#86 = ORIENTED_EDGE ( 'NONE', *, *, #198, .T. ) ;
#87 = FILL_AREA_STYLE ('',( #55 ) ) ;
#88 = CARTESIAN_POINT ( 'NONE',  ( 0.1874999999999999722, 0.1875000000000000555, 0.000000000000000000 ) ) ;
#89 = CARTESIAN_POINT ( 'NONE',  ( 0.000000000000000000, 0.1875000000000000555, 0.000000000000000000 ) ) ;
#90 = COLOUR_RGB ( '',1.000000000000000000, 0.000000000000000000, 0.000000000000000000 ) ;
#91 = EDGE_CURVE ( 'NONE', #78, #169, #253, .T. ) ;
#92 = AXIS2_PLACEMENT_3D ( 'NONE', #109, #70, #104 ) ;
#93 = DIRECTION ( 'NONE',  ( 0.000000000000000000, 0.000000000000000000, -1.000000000000000000 ) ) ;
#94 =( CONVERSION_BASED_UNIT ( 'INCH', #131 ) LENGTH_UNIT ( ) NAMED_UNIT ( #227 ) );
#95 = CARTESIAN_POINT ( 'NONE',  ( 0.1874999999999999722, 2.000000000000000000, 2.296212748401284952E-17 ) ) ;
#96 = DIRECTION ( 'NONE',  ( -1.000000000000000000, 0.000000000000000000, 0.000000000000000000 ) ) ;
#97 = EDGE_CURVE ( 'NONE', #312, #78, #322, .T. ) ;
#98 = VECTOR ( 'NONE', #138, 39.37007874015748143 ) ;
#99 = DIRECTION ( 'NONE',  ( -1.228550797481990867E-16, 1.000000000000000000, -0.000000000000000000 ) ) ;
#100 = FILL_AREA_STYLE_COLOUR ( '', #319 ) ;
#101 = LENGTH_MEASURE_WITH_UNIT ( LENGTH_MEASURE( 0.02539999999999999897 ), #300 );
#102 =( NAMED_UNIT ( * ) SI_UNIT ( $, .STERADIAN. ) SOLID_ANGLE_UNIT ( ) );
#103 = FACE_OUTER_BOUND ( 'NONE', #54, .T. ) ;
#104 = DIRECTION ( 'NONE',  ( 1.000000000000000000, 0.000000000000000000, 0.000000000000000000 ) ) ;
#105 = PRESENTATION_LAYER_ASSIGNMENT (  '', '', ( #53 ) ) ;
#106 = DIRECTION ( 'NONE',  ( 1.000000000000000000, 0.000000000000000000, -1.224646799147353207E-16 ) ) ;
#107 = SURFACE_STYLE_FILL_AREA ( #251 ) ;
#108 = CARTESIAN_POINT ( 'NONE',  ( -0.1874999999999996947, 2.000000000000000000, 0.000000000000000000 ) ) ;
#109 = CARTESIAN_POINT ( 'NONE',  ( 0.000000000000000000, 0.000000000000000000, 0.000000000000000000 ) ) ;
#110 = UNCERTAINTY_MEASURE_WITH_UNIT (LENGTH_MEASURE( 1.000000000000000082E-05 ), #71, 'distance_accuracy_value', 'NONE');
#111 = ORIENTED_EDGE ( 'NONE', *, *, #168, .F. ) ;
#112 = PRODUCT_DEFINITION_FORMATION_WITH_SPECIFIED_SOURCE ( 'ANY', '', #4, .NOT_KNOWN. ) ;
#113 = EDGE_CURVE ( 'NONE', #16, #78, #65, .T. ) ;
#114 = ORIENTED_EDGE ( 'NONE', *, *, #161, .F. ) ;
#115 = DIRECTION ( 'NONE',  ( 0.000000000000000000, 0.000000000000000000, -1.000000000000000000 ) ) ;
#116 = ORIENTED_EDGE ( 'NONE', *, *, #171, .T. ) ;
#117 = DIRECTION ( 'NONE',  ( -0.000000000000000000, -1.000000000000000000, -0.000000000000000000 ) ) ;
#118 = UNCERTAINTY_MEASURE_WITH_UNIT (LENGTH_MEASURE( 1.000000000000000082E-05 ), #276, 'distance_accuracy_value', 'NONE');
#119 = AXIS2_PLACEMENT_3D ( 'NONE', #242, #235, #106 ) ;
#120 = DIRECTION ( 'NONE',  ( -1.000000000000000000, -1.228550797481990867E-16, 0.000000000000000000 ) ) ;
#121 = ADVANCED_FACE ( 'NONE', ( #219 ), #69, .T. ) ;
#122 =( NAMED_UNIT ( * ) PLANE_ANGLE_UNIT ( ) SI_UNIT ( $, .RADIAN. ) );
#123 = MANIFOLD_SOLID_BREP ( 'Revolve - Cutting Edge', #194 ) ;
#124 = CLOSED_SHELL ( 'NONE', ( #176, #354, #226, #331 ) ) ;
#125 = ORIENTED_EDGE ( 'NONE', *, *, #91, .F. ) ;
#126 = CIRCLE ( 'NONE', #119, 0.1875000000000000278 ) ;
#127 = AXIS2_PLACEMENT_3D ( 'NONE', #193, #117, #115 ) ;
#128 = MANIFOLD_SOLID_BREP ( 'Revolve - Tool Body (Straight Shanked)', #124 ) ;
#129 = CARTESIAN_POINT ( 'NONE',  ( 1.224646799147353700E-16, 2.000000000000000000, 0.000000000000000000 ) ) ;
#130 = LENGTH_MEASURE_WITH_UNIT ( LENGTH_MEASURE( 0.02539999999999999897 ), #211 );
#131 = LENGTH_MEASURE_WITH_UNIT ( LENGTH_MEASURE( 0.02539999999999999897 ), #373 );
#132 = DIRECTION ( 'NONE',  ( -1.228550797481990867E-16, 1.000000000000000000, -0.000000000000000000 ) ) ;
#133 = ADVANCED_BREP_SHAPE_REPRESENTATION ( '56317', ( #123, #128, #92 ), #280 ) ;
#134 = AXIS2_PLACEMENT_3D ( 'NONE', #268, #272, #8 ) ;
#135 = PRESENTATION_LAYER_ASSIGNMENT (  '', '', ( #1 ) ) ;
#136 = CARTESIAN_POINT ( 'NONE',  ( -1.148106374200643863E-17, 0.000000000000000000, 0.000000000000000000 ) ) ;
#137 =( CONVERSION_BASED_UNIT ( 'INCH', #12 ) LENGTH_UNIT ( ) NAMED_UNIT ( #165 ) );
#138 = DIRECTION ( 'NONE',  ( -0.000000000000000000, -1.000000000000000000, -0.000000000000000000 ) ) ;
#139 = CARTESIAN_POINT ( 'NONE',  ( 0.000000000000000000, 0.5000000000000000000, 0.000000000000000000 ) ) ;
#140 = STYLED_ITEM ( 'NONE', ( #349 ), #79 ) ;
#141 = DIRECTION ( 'NONE',  ( 0.000000000000000000, 0.000000000000000000, -1.000000000000000000 ) ) ;
#142 = STYLED_ITEM ( 'NONE', ( #362 ), #266 ) ;
#143 = FILL_AREA_STYLE ('',( #361 ) ) ;
#144 = EDGE_LOOP ( 'NONE', ( #365, #172, #180, #197, #370 ) ) ;
#145 = EDGE_LOOP ( 'NONE', ( #85, #256, #116, #366, #125 ) ) ;
#146 = VERTEX_POINT ( 'NONE', #220 ) ;
#147 = ORIENTED_EDGE ( 'NONE', *, *, #204, .F. ) ;
#148 = CYLINDRICAL_SURFACE ( 'NONE', #360, 0.1874999999999999722 ) ;
#149 = VERTEX_POINT ( 'NONE', #136 ) ;
#150 = LINE ( 'NONE', #206, #207 ) ;
#151 = AXIS2_PLACEMENT_3D ( 'NONE', #289, #24, #10 ) ;
#152 = FACE_OUTER_BOUND ( 'NONE', #144, .T. ) ;
#153 = ADVANCED_FACE ( 'NONE', ( #162 ), #247, .T. ) ;
#154 = AXIS2_PLACEMENT_3D ( 'NONE', #72, #250, #294 ) ;
#155 = FACE_OUTER_BOUND ( 'NONE', #174, .T. ) ;
#156 = CARTESIAN_POINT ( 'NONE',  ( 0.000000000000000000, 0.5000000000000000000, 0.000000000000000000 ) ) ;
#157 = PRESENTATION_STYLE_ASSIGNMENT (( #189 ) ) ;
#158 =( NAMED_UNIT ( * ) PLANE_ANGLE_UNIT ( ) SI_UNIT ( $, .RADIAN. ) );
#159 = MECHANICAL_DESIGN_GEOMETRIC_PRESENTATION_REPRESENTATION (  '', ( #195 ), #5 ) ;
#160 = DIRECTION ( 'NONE',  ( -1.228550797481990867E-16, 1.000000000000000000, -0.000000000000000000 ) ) ;
#161 = EDGE_CURVE ( 'NONE', #312, #59, #302, .T. ) ;
#162 = FACE_OUTER_BOUND ( 'NONE', #316, .T. ) ;
#163 = CARTESIAN_POINT ( 'NONE',  ( -0.1875000000000000278, 0.1875000000000000555, 2.296212748401287109E-17 ) ) ;
#164 = SHAPE_DEFINITION_REPRESENTATION ( #298, #133 ) ;
#165 = DIMENSIONAL_EXPONENTS ( 1.000000000000000000, 0.000000000000000000, 0.000000000000000000, 0.000000000000000000, 0.000000000000000000, 0.000000000000000000, 0.000000000000000000 ) ;
#166 = COLOUR_RGB ( '',1.000000000000000000, 0.000000000000000000, 0.000000000000000000 ) ;
#167 = SPHERICAL_SURFACE ( 'NONE', #283, 0.1875000000000000278 ) ;
#168 = EDGE_CURVE ( 'NONE', #196, #282, #7, .T. ) ;
#169 = VERTEX_POINT ( 'NONE', #163 ) ;
#170 = PRESENTATION_LAYER_ASSIGNMENT (  '', '', ( #140 ) ) ;
#171 = EDGE_CURVE ( 'NONE', #59, #146, #213, .T. ) ;
#172 = ORIENTED_EDGE ( 'NONE', *, *, #97, .T. ) ;
#173 =( NAMED_UNIT ( * ) SI_UNIT ( $, .STERADIAN. ) SOLID_ANGLE_UNIT ( ) );
#174 = EDGE_LOOP ( 'NONE', ( #337, #342, #334, #335 ) ) ;
#175 = DIRECTION ( 'NONE',  ( -1.228550797481990867E-16, 1.000000000000000000, 0.000000000000000000 ) ) ;
#176 = ADVANCED_FACE ( 'NONE', ( #217 ), #305, .T. ) ;
#177 = CARTESIAN_POINT ( 'NONE',  ( -2.296212748401287726E-17, 0.1875000000000000278, 0.000000000000000000 ) ) ;
#178 = COLOUR_RGB ( '',1.000000000000000000, 0.000000000000000000, 0.000000000000000000 ) ;
#179 =( GEOMETRIC_REPRESENTATION_CONTEXT ( 3 ) GLOBAL_UNCERTAINTY_ASSIGNED_CONTEXT ( ( #118 ) ) GLOBAL_UNIT_ASSIGNED_CONTEXT ( ( #276, #158, #102 ) ) REPRESENTATION_CONTEXT ( 'NONE', 'WORKASPACE' ) );
#180 = ORIENTED_EDGE ( 'NONE', *, *, #113, .F. ) ;
#181 = CARTESIAN_POINT ( 'NONE',  ( 2.296212748401286801E-17, 0.000000000000000000, 0.1874999999999999722 ) ) ;
#182 = DIRECTION ( 'NONE',  ( -1.000000000000000000, 0.000000000000000000, 0.000000000000000000 ) ) ;
#183 = PRODUCT_RELATED_PRODUCT_CATEGORY ( 'part', '', ( #4 ) ) ;
#184 = VECTOR ( 'NONE', #99, 39.37007874015748143 ) ;
#185 = CARTESIAN_POINT ( 'NONE',  ( 0.000000000000000000, 0.000000000000000000, 0.000000000000000000 ) ) ;
#186 = DIMENSIONAL_EXPONENTS ( 1.000000000000000000, 0.000000000000000000, 0.000000000000000000, 0.000000000000000000, 0.000000000000000000, 0.000000000000000000, 0.000000000000000000 ) ;
#187 = CARTESIAN_POINT ( 'NONE',  ( 1.224646799147353700E-16, 2.000000000000000000, 0.000000000000000000 ) ) ;
#188 = SURFACE_SIDE_STYLE ('',( #107 ) ) ;
#189 = SURFACE_STYLE_USAGE ( .BOTH. , #303 ) ;
#190 = DIRECTION ( 'NONE',  ( 0.000000000000000000, 0.000000000000000000, -1.000000000000000000 ) ) ;
#191 = APPLICATION_PROTOCOL_DEFINITION ( 'draft international standard', 'automotive_design', 1998, #19 ) ;
#192 =( NAMED_UNIT ( * ) SI_UNIT ( $, .STERADIAN. ) SOLID_ANGLE_UNIT ( ) );
#193 = CARTESIAN_POINT ( 'NONE',  ( 0.000000000000000000, 0.1875000000000000555, 0.000000000000000000 ) ) ;
#194 = CLOSED_SHELL ( 'NONE', ( #243, #266, #153, #121, #79 ) ) ;
#195 = STYLED_ITEM ( 'NONE', ( #277 ), #123 ) ;
#196 = VERTEX_POINT ( 'NONE', #327 ) ;
#197 = ORIENTED_EDGE ( 'NONE', *, *, #341, .F. ) ;
#198 = EDGE_CURVE ( 'NONE', #196, #51, #315, .T. ) ;
#199 = EDGE_LOOP ( 'NONE', ( #86, #285, #15, #111 ) ) ;
#200 = CARTESIAN_POINT ( 'NONE',  ( 0.000000000000000000, 0.1875000000000000555, 0.000000000000000000 ) ) ;
#201 =( GEOMETRIC_REPRESENTATION_CONTEXT ( 3 ) GLOBAL_UNCERTAINTY_ASSIGNED_CONTEXT ( ( #58 ) ) GLOBAL_UNIT_ASSIGNED_CONTEXT ( ( #27, #122, #214 ) ) REPRESENTATION_CONTEXT ( 'NONE', 'WORKASPACE' ) );
#202 = PRESENTATION_LAYER_ASSIGNMENT (  '', '', ( #208 ) ) ;
#203 = DIRECTION ( 'NONE',  ( -1.228550797481990867E-16, 1.000000000000000000, -0.000000000000000000 ) ) ;
#204 = EDGE_CURVE ( 'NONE', #16, #149, #84, .T. ) ;
#205 = DIRECTION ( 'NONE',  ( 0.000000000000000000, 0.000000000000000000, 1.000000000000000000 ) ) ;
#206 = CARTESIAN_POINT ( 'NONE',  ( 0.1874999999999999167, 2.000000000000000000, 2.296212748401284644E-17 ) ) ;
#207 = VECTOR ( 'NONE', #318, 39.37007874015748143 ) ;
#208 = STYLED_ITEM ( 'NONE', ( #355 ), #128 ) ;
#209 = CARTESIAN_POINT ( 'NONE',  ( 0.1874999999999999722, 0.5000000000000001110, 2.296212748401284952E-17 ) ) ;
#210 = SURFACE_STYLE_USAGE ( .BOTH. , #359 ) ;
#211 =( LENGTH_UNIT ( ) NAMED_UNIT ( * ) SI_UNIT ( $, .METRE. ) );
#212 =( NAMED_UNIT ( * ) PLANE_ANGLE_UNIT ( ) SI_UNIT ( $, .RADIAN. ) );
#213 = LINE ( 'NONE', #353, #98 ) ;
#214 =( NAMED_UNIT ( * ) SI_UNIT ( $, .STERADIAN. ) SOLID_ANGLE_UNIT ( ) );
#215 =( GEOMETRIC_REPRESENTATION_CONTEXT ( 3 ) GLOBAL_UNCERTAINTY_ASSIGNED_CONTEXT ( ( #339 ) ) GLOBAL_UNIT_ASSIGNED_CONTEXT ( ( #329, #75, #279 ) ) REPRESENTATION_CONTEXT ( 'NONE', 'WORKASPACE' ) );
#216 = PRESENTATION_LAYER_ASSIGNMENT (  '', '', ( #142 ) ) ;
#217 = FACE_OUTER_BOUND ( 'NONE', #199, .T. ) ;
#218 = EDGE_CURVE ( 'NONE', #50, #282, #344, .T. ) ;
#219 = FACE_OUTER_BOUND ( 'NONE', #145, .T. ) ;
#220 = CARTESIAN_POINT ( 'NONE',  ( 0.000000000000000000, 0.1875000000000000555, -0.1874999999999999722 ) ) ;
#221 = CARTESIAN_POINT ( 'NONE',  ( -0.1874999999999996392, 2.000000000000000000, 0.000000000000000000 ) ) ;
#222 = LENGTH_MEASURE_WITH_UNIT ( LENGTH_MEASURE( 0.02539999999999999897 ), #37 );
#223 =( NAMED_UNIT ( * ) PLANE_ANGLE_UNIT ( ) SI_UNIT ( $, .RADIAN. ) );
#224 = FILL_AREA_STYLE_COLOUR ( '', #90 ) ;
#225 = LENGTH_MEASURE_WITH_UNIT ( LENGTH_MEASURE( 0.02539999999999999897 ), #363 );
#226 = ADVANCED_FACE ( 'NONE', ( #155 ), #269, .T. ) ;
#227 = DIMENSIONAL_EXPONENTS ( 1.000000000000000000, 0.000000000000000000, 0.000000000000000000, 0.000000000000000000, 0.000000000000000000, 0.000000000000000000, 0.000000000000000000 ) ;
#228 = DIMENSIONAL_EXPONENTS ( 1.000000000000000000, 0.000000000000000000, 0.000000000000000000, 0.000000000000000000, 0.000000000000000000, 0.000000000000000000, 0.000000000000000000 ) ;
#229 = EDGE_CURVE ( 'NONE', #59, #312, #258, .T. ) ;
#230 = ORIENTED_EDGE ( 'NONE', *, *, #113, .T. ) ;
#231 = DIRECTION ( 'NONE',  ( 0.000000000000000000, 0.000000000000000000, -1.000000000000000000 ) ) ;
#232 = CARTESIAN_POINT ( 'NONE',  ( 3.067472995370340001E-16, 0.5000000000000000000, 0.000000000000000000 ) ) ;
#233 = EDGE_CURVE ( 'NONE', #282, #50, #273, .T. ) ;
#234 = AXIS2_PLACEMENT_3D ( 'NONE', #187, #9, #324 ) ;
#235 = DIRECTION ( 'NONE',  ( 1.224646799147353207E-16, -0.000000000000000000, 1.000000000000000000 ) ) ;
#236 = ORIENTED_EDGE ( 'NONE', *, *, #261, .F. ) ;
#237 = MECHANICAL_DESIGN_GEOMETRIC_PRESENTATION_REPRESENTATION (  '', ( #17 ), #48 ) ;
#238 = DIRECTION ( 'NONE',  ( 1.000000000000000000, 0.000000000000000000, 0.000000000000000000 ) ) ;
#239 = FILL_AREA_STYLE_COLOUR ( '', #328 ) ;
#240 = SURFACE_STYLE_FILL_AREA ( #64 ) ;
#241 = FACE_OUTER_BOUND ( 'NONE', #313, .T. ) ;
#242 = CARTESIAN_POINT ( 'NONE',  ( -2.296212748401287726E-17, 0.1875000000000000278, 0.000000000000000000 ) ) ;
#243 = ADVANCED_FACE ( 'NONE', ( #103 ), #167, .T. ) ;
#244 = DIRECTION ( 'NONE',  ( -0.000000000000000000, -1.000000000000000000, -0.000000000000000000 ) ) ;
#245 = DIMENSIONAL_EXPONENTS ( 1.000000000000000000, 0.000000000000000000, 0.000000000000000000, 0.000000000000000000, 0.000000000000000000, 0.000000000000000000, 0.000000000000000000 ) ;
#246 = SURFACE_STYLE_USAGE ( .BOTH. , #358 ) ;
#247 = PLANE ( 'NONE',  #61 ) ;
#248 = SURFACE_STYLE_FILL_AREA ( #299 ) ;
#249 =( NAMED_UNIT ( * ) SI_UNIT ( $, .STERADIAN. ) SOLID_ANGLE_UNIT ( ) );
#250 = DIRECTION ( 'NONE',  ( 0.000000000000000000, 0.000000000000000000, -1.000000000000000000 ) ) ;
#251 = FILL_AREA_STYLE ('',( #309 ) ) ;
#252 = DIRECTION ( 'NONE',  ( -1.228550797481990867E-16, 1.000000000000000000, -0.000000000000000000 ) ) ;
#253 = CIRCLE ( 'NONE', #23, 0.1874999999999999722 ) ;
#254 = SURFACE_SIDE_STYLE ('',( #248 ) ) ;
#255 = SURFACE_STYLE_USAGE ( .BOTH. , #371 ) ;
#256 = ORIENTED_EDGE ( 'NONE', *, *, #161, .T. ) ;
#257 = ORIENTED_EDGE ( 'NONE', *, *, #91, .T. ) ;
#258 = CIRCLE ( 'NONE', #11, 0.1874999999999999722 ) ;
#259 = AXIS2_PLACEMENT_3D ( 'NONE', #34, #160, #96 ) ;
#260 = ORIENTED_EDGE ( 'NONE', *, *, #198, .F. ) ;
#261 = EDGE_CURVE ( 'NONE', #169, #149, #126, .T. ) ;
#262 = PLANE ( 'NONE',  #345 ) ;
#263 = LENGTH_MEASURE_WITH_UNIT ( LENGTH_MEASURE( 0.02539999999999999897 ), #308 );
#264 = AXIS2_PLACEMENT_3D ( 'NONE', #139, #323, #350 ) ;
#265 = UNCERTAINTY_MEASURE_WITH_UNIT (LENGTH_MEASURE( 1.000000000000000082E-05 ), #137, 'distance_accuracy_value', 'NONE');
#266 = ADVANCED_FACE ( 'NONE', ( #152 ), #148, .T. ) ;
#267 = AXIS2_PLACEMENT_3D ( 'NONE', #33, #301, #39 ) ;
#268 = CARTESIAN_POINT ( 'NONE',  ( 0.000000000000000000, 0.1875000000000000555, 0.000000000000000000 ) ) ;
#269 = CYLINDRICAL_SURFACE ( 'NONE', #259, 0.1874999999999997780 ) ;
#270 = DIRECTION ( 'NONE',  ( 0.000000000000000000, 1.000000000000000000, 0.000000000000000000 ) ) ;
#271 =( CONVERSION_BASED_UNIT ( 'INCH', #36 ) LENGTH_UNIT ( ) NAMED_UNIT ( #333 ) );
#272 = DIRECTION ( 'NONE',  ( -0.000000000000000000, -1.000000000000000000, -0.000000000000000000 ) ) ;
#273 = CIRCLE ( 'NONE', #332, 0.1874999999999998335 ) ;
#274 = SURFACE_STYLE_USAGE ( .BOTH. , #254 ) ;
#275 = CARTESIAN_POINT ( 'NONE',  ( 0.000000000000000000, 0.5000000000000000000, 0.000000000000000000 ) ) ;
#276 =( CONVERSION_BASED_UNIT ( 'INCH', #222 ) LENGTH_UNIT ( ) NAMED_UNIT ( #186 ) );
#277 = PRESENTATION_STYLE_ASSIGNMENT (( #274 ) ) ;
#278 = PLANE ( 'NONE',  #151 ) ;
#279 =( NAMED_UNIT ( * ) SI_UNIT ( $, .STERADIAN. ) SOLID_ANGLE_UNIT ( ) );
#280 =( GEOMETRIC_REPRESENTATION_CONTEXT ( 3 ) GLOBAL_UNCERTAINTY_ASSIGNED_CONTEXT ( ( #26 ) ) GLOBAL_UNIT_ASSIGNED_CONTEXT ( ( #94, #212, #192 ) ) REPRESENTATION_CONTEXT ( 'NONE', 'WORKASPACE' ) );
#281 = ORIENTED_EDGE ( 'NONE', *, *, #204, .T. ) ;
#282 = VERTEX_POINT ( 'NONE', #108 ) ;
#283 = AXIS2_PLACEMENT_3D ( 'NONE', #177, #205, #81 ) ;
#284 = EDGE_CURVE ( 'NONE', #169, #146, #367, .T. ) ;
#285 = ORIENTED_EDGE ( 'NONE', *, *, #40, .T. ) ;
#286 = CARTESIAN_POINT ( 'NONE',  ( 3.067472995370340001E-16, 0.5000000000000001110, 0.000000000000000000 ) ) ;
#287 = ORIENTED_EDGE ( 'NONE', *, *, #341, .T. ) ;
#288 = SURFACE_STYLE_FILL_AREA ( #87 ) ;
#289 = CARTESIAN_POINT ( 'NONE',  ( 0.1874999999999999722, 2.000000000000000000, 0.000000000000000000 ) ) ;
#290 = MECHANICAL_DESIGN_GEOMETRIC_PRESENTATION_REPRESENTATION (  '', ( #53 ), #179 ) ;
#291 = SURFACE_STYLE_FILL_AREA ( #292 ) ;
#292 = FILL_AREA_STYLE ('',( #239 ) ) ;
#293 = DIRECTION ( 'NONE',  ( -0.000000000000000000, -1.000000000000000000, -0.000000000000000000 ) ) ;
#294 = DIRECTION ( 'NONE',  ( -1.000000000000000000, 0.000000000000000000, 0.000000000000000000 ) ) ;
#295 = PRESENTATION_LAYER_ASSIGNMENT (  '', '', ( #195 ) ) ;
#296 = EDGE_CURVE ( 'NONE', #51, #196, #62, .T. ) ;
#297 = SPHERICAL_SURFACE ( 'NONE', #30, 0.1875000000000000278 ) ;
#298 = PRODUCT_DEFINITION_SHAPE ( 'NONE', 'NONE',  #306 ) ;
#299 = FILL_AREA_STYLE ('',( #100 ) ) ;
#300 =( LENGTH_UNIT ( ) NAMED_UNIT ( * ) SI_UNIT ( $, .METRE. ) );
#301 = DIRECTION ( 'NONE',  ( -1.228550797481990867E-16, 1.000000000000000000, -0.000000000000000000 ) ) ;
#302 = CIRCLE ( 'NONE', #264, 0.1874999999999999722 ) ;
#303 = SURFACE_SIDE_STYLE ('',( #43 ) ) ;
#304 = DIMENSIONAL_EXPONENTS ( 1.000000000000000000, 0.000000000000000000, 0.000000000000000000, 0.000000000000000000, 0.000000000000000000, 0.000000000000000000, 0.000000000000000000 ) ;
#305 = CYLINDRICAL_SURFACE ( 'NONE', #234, 0.1874999999999997780 ) ;
#306 = PRODUCT_DEFINITION ( 'UNKNOWN', '', #112, #13 ) ;
#307 = SURFACE_STYLE_USAGE ( .BOTH. , #188 ) ;
#308 =( LENGTH_UNIT ( ) NAMED_UNIT ( * ) SI_UNIT ( $, .METRE. ) );
#309 = FILL_AREA_STYLE_COLOUR ( '', #351 ) ;
#310 = COLOUR_RGB ( '',1.000000000000000000, 0.000000000000000000, 0.000000000000000000 ) ;
#311 = ORIENTED_EDGE ( 'NONE', *, *, #261, .T. ) ;
#312 = VERTEX_POINT ( 'NONE', #21 ) ;
#313 = EDGE_LOOP ( 'NONE', ( #236, #18, #287, #281 ) ) ;
#314 = FACE_OUTER_BOUND ( 'NONE', #340, .T. ) ;
#315 = CIRCLE ( 'NONE', #38, 0.1874999999999996669 ) ;
#316 = EDGE_LOOP ( 'NONE', ( #56, #114 ) ) ;
#317 = UNCERTAINTY_MEASURE_WITH_UNIT (LENGTH_MEASURE( 1.000000000000000082E-05 ), #271, 'distance_accuracy_value', 'NONE');
#318 = DIRECTION ( 'NONE',  ( -1.228550797481990867E-16, 1.000000000000000000, -0.000000000000000000 ) ) ;
#319 = COLOUR_RGB ( '',0.7921568627450980005, 0.8196078431372548767, 0.9333333333333333481 ) ;
#320 = CARTESIAN_POINT ( 'NONE',  ( -2.296212748401287726E-17, 0.1875000000000000278, 0.000000000000000000 ) ) ;
#321 = APPLICATION_CONTEXT ( 'automotive_design' ) ;
#322 = LINE ( 'NONE', #181, #82 ) ;
#323 = DIRECTION ( 'NONE',  ( -0.000000000000000000, -1.000000000000000000, -0.000000000000000000 ) ) ;
#324 = DIRECTION ( 'NONE',  ( -1.000000000000000000, 0.000000000000000000, 0.000000000000000000 ) ) ;
#325 = FILL_AREA_STYLE ('',( #35 ) ) ;
#326 =( NAMED_UNIT ( * ) SI_UNIT ( $, .STERADIAN. ) SOLID_ANGLE_UNIT ( ) );
#327 = CARTESIAN_POINT ( 'NONE',  ( -0.1874999999999993616, 0.5000000000000001110, 0.000000000000000000 ) ) ;
#328 = COLOUR_RGB ( '',1.000000000000000000, 0.000000000000000000, 0.000000000000000000 ) ;
#329 =( CONVERSION_BASED_UNIT ( 'INCH', #101 ) LENGTH_UNIT ( ) NAMED_UNIT ( #245 ) );
#330 =( CONVERSION_BASED_UNIT ( 'INCH', #263 ) LENGTH_UNIT ( ) NAMED_UNIT ( #14 ) );
#331 = ADVANCED_FACE ( 'NONE', ( #57 ), #278, .F. ) ;
#332 = AXIS2_PLACEMENT_3D ( 'NONE', #129, #132, #356 ) ;
#333 = DIMENSIONAL_EXPONENTS ( 1.000000000000000000, 0.000000000000000000, 0.000000000000000000, 0.000000000000000000, 0.000000000000000000, 0.000000000000000000, 0.000000000000000000 ) ;
#334 = ORIENTED_EDGE ( 'NONE', *, *, #168, .T. ) ;
#335 = ORIENTED_EDGE ( 'NONE', *, *, #218, .F. ) ;
#336 = DIRECTION ( 'NONE',  ( -1.000000000000000000, 0.000000000000000000, 0.000000000000000000 ) ) ;
#337 = ORIENTED_EDGE ( 'NONE', *, *, #40, .F. ) ;
#338 = AXIS2_PLACEMENT_3D ( 'NONE', #185, #244, #352 ) ;
#339 = UNCERTAINTY_MEASURE_WITH_UNIT (LENGTH_MEASURE( 1.000000000000000082E-05 ), #329, 'distance_accuracy_value', 'NONE');
#340 = EDGE_LOOP ( 'NONE', ( #260, #368 ) ) ;
#341 = EDGE_CURVE ( 'NONE', #146, #16, #32, .T. ) ;
#342 = ORIENTED_EDGE ( 'NONE', *, *, #296, .T. ) ;
#343 = SURFACE_SIDE_STYLE ('',( #291 ) ) ;
#344 = CIRCLE ( 'NONE', #267, 0.1874999999999998335 ) ;
#345 = AXIS2_PLACEMENT_3D ( 'NONE', #232, #175, #120 ) ;
#346 = DIRECTION ( 'NONE',  ( -0.000000000000000000, -1.000000000000000000, -0.000000000000000000 ) ) ;
#347 = SURFACE_STYLE_USAGE ( .BOTH. , #343 ) ;
#348 = PRESENTATION_STYLE_ASSIGNMENT (( #210 ) ) ;
#349 = PRESENTATION_STYLE_ASSIGNMENT (( #347 ) ) ;
#350 = DIRECTION ( 'NONE',  ( 0.000000000000000000, 0.000000000000000000, -1.000000000000000000 ) ) ;
#351 = COLOUR_RGB ( '',0.7921568627450980005, 0.8196078431372548767, 0.9333333333333333481 ) ;
#352 = DIRECTION ( 'NONE',  ( 0.000000000000000000, 0.000000000000000000, -1.000000000000000000 ) ) ;
#353 = CARTESIAN_POINT ( 'NONE',  ( 0.000000000000000000, 0.000000000000000000, -0.1874999999999999722 ) ) ;
#354 = ADVANCED_FACE ( 'NONE', ( #314 ), #262, .F. ) ;
#355 = PRESENTATION_STYLE_ASSIGNMENT (( #307 ) ) ;
#356 = DIRECTION ( 'NONE',  ( -1.000000000000000000, 0.000000000000000000, 0.000000000000000000 ) ) ;
#357 = PRODUCT_CONTEXT ( 'NONE', #321, 'mechanical' ) ;
#358 = SURFACE_SIDE_STYLE ('',( #73 ) ) ;
#359 = SURFACE_SIDE_STYLE ('',( #240 ) ) ;
#360 = AXIS2_PLACEMENT_3D ( 'NONE', #60, #369, #231 ) ;
#361 = FILL_AREA_STYLE_COLOUR ( '', #166 ) ;
#362 = PRESENTATION_STYLE_ASSIGNMENT (( #255 ) ) ;
#363 =( LENGTH_UNIT ( ) NAMED_UNIT ( * ) SI_UNIT ( $, .METRE. ) );
#364 =( NAMED_UNIT ( * ) SI_UNIT ( $, .STERADIAN. ) SOLID_ANGLE_UNIT ( ) );
#365 = ORIENTED_EDGE ( 'NONE', *, *, #229, .T. ) ;
#366 = ORIENTED_EDGE ( 'NONE', *, *, #284, .F. ) ;
#367 = CIRCLE ( 'NONE', #127, 0.1874999999999999722 ) ;
#368 = ORIENTED_EDGE ( 'NONE', *, *, #296, .F. ) ;
#369 = DIRECTION ( 'NONE',  ( -0.000000000000000000, -1.000000000000000000, -0.000000000000000000 ) ) ;
#370 = ORIENTED_EDGE ( 'NONE', *, *, #171, .F. ) ;
#371 = SURFACE_SIDE_STYLE ('',( #288 ) ) ;
#372 = PRESENTATION_LAYER_ASSIGNMENT (  '', '', ( #17 ) ) ;
#373 =( LENGTH_UNIT ( ) NAMED_UNIT ( * ) SI_UNIT ( $, .METRE. ) );
ENDSEC;
END-ISO-10303-21;
