ISO-10303-21;
HEADER;
FILE_DESCRIPTION (( 'STEP AP214' ),
    '1' );
FILE_NAME ('82456.STEP',
    '2023-06-30T22:39:39',
    ( '' ),
    ( '' ),
    'SwSTEP 2.0',
    'SolidWorks 2023',
    '' );
FILE_SCHEMA (( 'AUTOMOTIVE_DESIGN' ));
ENDSEC;

DATA;
#1 = EDGE_CURVE ( 'NONE', #44, #324, #99, .T. ) ;
#2 = DIRECTION ( 'NONE',  ( -1.000000000000000000, 0.000000000000000000, 0.000000000000000000 ) ) ;
#3 = ADVANCED_BREP_SHAPE_REPRESENTATION ( '82456', ( #239, #120, #199 ), #77 ) ;
#4 = AXIS2_PLACEMENT_3D ( 'NONE', #142, #81, #51 ) ;
#5 = DIRECTION ( 'NONE',  ( -0.000000000000000000, -1.000000000000000000, -0.000000000000000000 ) ) ;
#6 =( NAMED_UNIT ( * ) PLANE_ANGLE_UNIT ( ) SI_UNIT ( $, .RADIAN. ) );
#7 = APPLICATION_CONTEXT ( 'automotive_design' ) ;
#8 = ORIENTED_EDGE ( 'NONE', *, *, #105, .T. ) ;
#9 = DIRECTION ( 'NONE',  ( -1.229179614827236117E-16, 1.000000000000000000, 0.000000000000000000 ) ) ;
#10 =( NAMED_UNIT ( * ) SI_UNIT ( $, .STERADIAN. ) SOLID_ANGLE_UNIT ( ) );
#11 = CARTESIAN_POINT ( 'NONE',  ( 0.000000000000000000, 1.375000000000000000, 0.000000000000000000 ) ) ;
#12 = ORIENTED_EDGE ( 'NONE', *, *, #202, .T. ) ;
#13 = VERTEX_POINT ( 'NONE', #23 ) ;
#14 = DIMENSIONAL_EXPONENTS ( 1.000000000000000000, 0.000000000000000000, 0.000000000000000000, 0.000000000000000000, 0.000000000000000000, 0.000000000000000000, 0.000000000000000000 ) ;
#15 = ORIENTED_EDGE ( 'NONE', *, *, #27, .T. ) ;
#16 = PRODUCT_DEFINITION ( 'UNKNOWN', '', #158, #43 ) ;
#17 = AXIS2_PLACEMENT_3D ( 'NONE', #279, #364, #115 ) ;
#18 = STYLED_ITEM ( 'NONE', ( #356 ), #239 ) ;
#19 = CARTESIAN_POINT ( 'NONE',  ( 0.000000000000000000, 1.375000000000000000, -0.09374999999999983347 ) ) ;
#20 = SURFACE_STYLE_USAGE ( .BOTH. , #261 ) ;
#21 = ORIENTED_EDGE ( 'NONE', *, *, #298, .T. ) ;
#22 = DIRECTION ( 'NONE',  ( -1.229179614827236117E-16, 1.000000000000000000, -0.000000000000000000 ) ) ;
#23 = CARTESIAN_POINT ( 'NONE',  ( 1.148106374200643401E-17, 0.09375000000000001388, 0.09374999999999998612 ) ) ;
#24 =( LENGTH_UNIT ( ) NAMED_UNIT ( * ) SI_UNIT ( $, .METRE. ) );
#25 = UNCERTAINTY_MEASURE_WITH_UNIT (LENGTH_MEASURE( 1.000000000000000082E-05 ), #101, 'distance_accuracy_value', 'NONE');
#26 = CIRCLE ( 'NONE', #347, 0.09374999999999998612 ) ;
#27 = EDGE_CURVE ( 'NONE', #44, #13, #320, .T. ) ;
#28 = LENGTH_MEASURE_WITH_UNIT ( LENGTH_MEASURE( 0.02539999999999999897 ), #93 );
#29 = APPLICATION_PROTOCOL_DEFINITION ( 'draft international standard', 'automotive_design', 1998, #358 ) ;
#30 = COLOUR_RGB ( '',1.000000000000000000, 0.000000000000000000, 0.000000000000000000 ) ;
#31 = AXIS2_PLACEMENT_3D ( 'NONE', #308, #5, #129 ) ;
#32 =( NAMED_UNIT ( * ) SI_UNIT ( $, .STERADIAN. ) SOLID_ANGLE_UNIT ( ) );
#33 = ORIENTED_EDGE ( 'NONE', *, *, #27, .F. ) ;
#34 = DIRECTION ( 'NONE',  ( -1.000000000000000000, -1.229179614827236117E-16, 0.000000000000000000 ) ) ;
#35 = CARTESIAN_POINT ( 'NONE',  ( 1.385093474520581624E-16, 1.375000000000000000, 0.000000000000000000 ) ) ;
#36 = CIRCLE ( 'NONE', #262, 0.09374999999999983347 ) ;
#37 = DIRECTION ( 'NONE',  ( 0.000000000000000000, 0.000000000000000000, -1.000000000000000000 ) ) ;
#38 =( CONVERSION_BASED_UNIT ( 'INCH', #318 ) LENGTH_UNIT ( ) NAMED_UNIT ( #330 ) );
#39 = VERTEX_POINT ( 'NONE', #19 ) ;
#40 = MECHANICAL_DESIGN_GEOMETRIC_PRESENTATION_REPRESENTATION (  '', ( #212 ), #110 ) ;
#41 = MECHANICAL_DESIGN_GEOMETRIC_PRESENTATION_REPRESENTATION (  '', ( #213 ), #126 ) ;
#42 = ORIENTED_EDGE ( 'NONE', *, *, #263, .T. ) ;
#43 = PRODUCT_DEFINITION_CONTEXT ( 'detailed design', #7, 'design' ) ;
#44 = VERTEX_POINT ( 'NONE', #82 ) ;
#45 = EDGE_CURVE ( 'NONE', #67, #324, #314, .T. ) ;
#46 =( NAMED_UNIT ( * ) SI_UNIT ( $, .STERADIAN. ) SOLID_ANGLE_UNIT ( ) );
#47 = DIRECTION ( 'NONE',  ( -1.000000000000000000, 0.000000000000000000, 0.000000000000000000 ) ) ;
#48 = LENGTH_MEASURE_WITH_UNIT ( LENGTH_MEASURE( 0.02539999999999999897 ), #79 );
#49 = MECHANICAL_DESIGN_GEOMETRIC_PRESENTATION_REPRESENTATION (  '', ( #348 ), #135 ) ;
#50 = EDGE_CURVE ( 'NONE', #13, #67, #26, .T. ) ;
#51 = DIRECTION ( 'NONE',  ( -1.000000000000000000, 0.000000000000000000, 0.000000000000000000 ) ) ;
#52 = EDGE_LOOP ( 'NONE', ( #224, #107 ) ) ;
#53 =( NAMED_UNIT ( * ) PLANE_ANGLE_UNIT ( ) SI_UNIT ( $, .RADIAN. ) );
#54 = DIRECTION ( 'NONE',  ( 0.000000000000000000, 0.000000000000000000, -1.000000000000000000 ) ) ;
#55 =( CONVERSION_BASED_UNIT ( 'INCH', #283 ) LENGTH_UNIT ( ) NAMED_UNIT ( #296 ) );
#56 = UNCERTAINTY_MEASURE_WITH_UNIT (LENGTH_MEASURE( 1.000000000000000082E-05 ), #78, 'distance_accuracy_value', 'NONE');
#57 = MECHANICAL_DESIGN_GEOMETRIC_PRESENTATION_REPRESENTATION (  '', ( #18 ), #83 ) ;
#58 = AXIS2_PLACEMENT_3D ( 'NONE', #363, #22, #254 ) ;
#59 = FILL_AREA_STYLE ('',( #203 ) ) ;
#60 = DIRECTION ( 'NONE',  ( 1.000000000000000000, 0.000000000000000000, 0.000000000000000000 ) ) ;
#61 = CARTESIAN_POINT ( 'NONE',  ( -0.09374999999999998612, 0.09375000000000001388, 1.148106374200643247E-17 ) ) ;
#62 = EDGE_LOOP ( 'NONE', ( #156, #8, #292, #200 ) ) ;
#63 = LENGTH_MEASURE_WITH_UNIT ( LENGTH_MEASURE( 0.02539999999999999897 ), #369 );
#64 = CARTESIAN_POINT ( 'NONE',  ( 0.000000000000000000, 0.000000000000000000, 0.000000000000000000 ) ) ;
#65 = ADVANCED_FACE ( 'NONE', ( #150 ), #271, .T. ) ;
#66 = VECTOR ( 'NONE', #257, 39.37007874015748143 ) ;
#67 = VERTEX_POINT ( 'NONE', #61 ) ;
#68 = FACE_OUTER_BOUND ( 'NONE', #52, .T. ) ;
#69 = AXIS2_PLACEMENT_3D ( 'NONE', #166, #275, #227 ) ;
#70 = AXIS2_PLACEMENT_3D ( 'NONE', #286, #206, #178 ) ;
#71 = EDGE_LOOP ( 'NONE', ( #294, #326, #33, #92, #325 ) ) ;
#72 = PRESENTATION_STYLE_ASSIGNMENT (( #322 ) ) ;
#73 = CARTESIAN_POINT ( 'NONE',  ( 0.000000000000000000, 0.09375000000000001388, 0.000000000000000000 ) ) ;
#74 = EDGE_CURVE ( 'NONE', #247, #210, #201, .T. ) ;
#75 = PRESENTATION_LAYER_ASSIGNMENT (  '', '', ( #212 ) ) ;
#76 = AXIS2_PLACEMENT_3D ( 'NONE', #154, #100, #2 ) ;
#77 =( GEOMETRIC_REPRESENTATION_CONTEXT ( 3 ) GLOBAL_UNCERTAINTY_ASSIGNED_CONTEXT ( ( #309 ) ) GLOBAL_UNIT_ASSIGNED_CONTEXT ( ( #109, #269, #168 ) ) REPRESENTATION_CONTEXT ( 'NONE', 'WORKASPACE' ) );
#78 =( CONVERSION_BASED_UNIT ( 'INCH', #48 ) LENGTH_UNIT ( ) NAMED_UNIT ( #102 ) );
#79 =( LENGTH_UNIT ( ) NAMED_UNIT ( * ) SI_UNIT ( $, .METRE. ) );
#80 = DIRECTION ( 'NONE',  ( -1.229179614827236117E-16, 1.000000000000000000, -0.000000000000000000 ) ) ;
#81 = DIRECTION ( 'NONE',  ( -1.229179614827236117E-16, 1.000000000000000000, -0.000000000000000000 ) ) ;
#82 = CARTESIAN_POINT ( 'NONE',  ( 0.09374999999999998612, 0.09375000000000001388, 0.000000000000000000 ) ) ;
#83 =( GEOMETRIC_REPRESENTATION_CONTEXT ( 3 ) GLOBAL_UNCERTAINTY_ASSIGNED_CONTEXT ( ( #25 ) ) GLOBAL_UNIT_ASSIGNED_CONTEXT ( ( #101, #91, #167 ) ) REPRESENTATION_CONTEXT ( 'NONE', 'WORKASPACE' ) );
#84 = DIRECTION ( 'NONE',  ( 1.000000000000000000, 1.229179614827236117E-16, 0.000000000000000000 ) ) ;
#85 = CARTESIAN_POINT ( 'NONE',  ( 0.000000000000000000, 0.09375000000000001388, 0.000000000000000000 ) ) ;
#86 = APPLICATION_PROTOCOL_DEFINITION ( 'draft international standard', 'automotive_design', 1998, #7 ) ;
#87 = FILL_AREA_STYLE_COLOUR ( '', #315 ) ;
#88 = ADVANCED_FACE ( 'NONE', ( #221 ), #138, .T. ) ;
#89 = UNCERTAINTY_MEASURE_WITH_UNIT (LENGTH_MEASURE( 1.000000000000000082E-05 ), #182, 'distance_accuracy_value', 'NONE');
#90 = AXIS2_PLACEMENT_3D ( 'NONE', #35, #9, #34 ) ;
#91 =( NAMED_UNIT ( * ) PLANE_ANGLE_UNIT ( ) SI_UNIT ( $, .RADIAN. ) );
#92 = ORIENTED_EDGE ( 'NONE', *, *, #128, .F. ) ;
#93 =( LENGTH_UNIT ( ) NAMED_UNIT ( * ) SI_UNIT ( $, .METRE. ) );
#94 = LINE ( 'NONE', #211, #186 ) ;
#95 = FILL_AREA_STYLE ('',( #87 ) ) ;
#96 = CIRCLE ( 'NONE', #267, 0.09374999999999969469 ) ;
#97 = CARTESIAN_POINT ( 'NONE',  ( -0.09374999999999997224, 3.000000000000000444, 0.000000000000000000 ) ) ;
#98 = DIMENSIONAL_EXPONENTS ( 1.000000000000000000, 0.000000000000000000, 0.000000000000000000, 0.000000000000000000, 0.000000000000000000, 0.000000000000000000, 0.000000000000000000 ) ;
#99 = CIRCLE ( 'NONE', #162, 0.09374999999999998612 ) ;
#100 = DIRECTION ( 'NONE',  ( -1.229179614827236117E-16, 1.000000000000000000, -0.000000000000000000 ) ) ;
#101 =( CONVERSION_BASED_UNIT ( 'INCH', #266 ) LENGTH_UNIT ( ) NAMED_UNIT ( #98 ) );
#102 = DIMENSIONAL_EXPONENTS ( 1.000000000000000000, 0.000000000000000000, 0.000000000000000000, 0.000000000000000000, 0.000000000000000000, 0.000000000000000000, 0.000000000000000000 ) ;
#103 = CARTESIAN_POINT ( 'NONE',  ( -1.148106374200643401E-17, 0.09374999999999998612, 0.000000000000000000 ) ) ;
#104 = DIRECTION ( 'NONE',  ( 0.000000000000000000, 1.000000000000000000, 0.000000000000000000 ) ) ;
#105 = EDGE_CURVE ( 'NONE', #67, #337, #185, .T. ) ;
#106 = ORIENTED_EDGE ( 'NONE', *, *, #122, .T. ) ;
#107 = ORIENTED_EDGE ( 'NONE', *, *, #306, .F. ) ;
#108 = ORIENTED_EDGE ( 'NONE', *, *, #45, .T. ) ;
#109 =( CONVERSION_BASED_UNIT ( 'INCH', #367 ) LENGTH_UNIT ( ) NAMED_UNIT ( #131 ) );
#110 =( GEOMETRIC_REPRESENTATION_CONTEXT ( 3 ) GLOBAL_UNCERTAINTY_ASSIGNED_CONTEXT ( ( #56 ) ) GLOBAL_UNIT_ASSIGNED_CONTEXT ( ( #78, #53, #335 ) ) REPRESENTATION_CONTEXT ( 'NONE', 'WORKASPACE' ) );
#111 = PRESENTATION_STYLE_ASSIGNMENT (( #360 ) ) ;
#112 = CARTESIAN_POINT ( 'NONE',  ( -0.09374999999999956979, 1.375000000000000000, 0.000000000000000000 ) ) ;
#113 = ADVANCED_FACE ( 'NONE', ( #341 ), #205, .T. ) ;
#114 = CARTESIAN_POINT ( 'NONE',  ( 0.09374999999999983347, 3.000000000000000444, 0.000000000000000000 ) ) ;
#115 = DIRECTION ( 'NONE',  ( 0.000000000000000000, 0.000000000000000000, -1.000000000000000000 ) ) ;
#116 = MECHANICAL_DESIGN_GEOMETRIC_PRESENTATION_REPRESENTATION (  '', ( #339 ), #233 ) ;
#117 = AXIS2_PLACEMENT_3D ( 'NONE', #329, #80, #305 ) ;
#118 = ORIENTED_EDGE ( 'NONE', *, *, #122, .F. ) ;
#119 = DIRECTION ( 'NONE',  ( 0.000000000000000000, 0.000000000000000000, -1.000000000000000000 ) ) ;
#120 = MANIFOLD_SOLID_BREP ( 'Revolve - Tool Body (Straight Shanked)', #176 ) ;
#121 = AXIS2_PLACEMENT_3D ( 'NONE', #73, #189, #119 ) ;
#122 = EDGE_CURVE ( 'NONE', #352, #219, #94, .T. ) ;
#123 = CARTESIAN_POINT ( 'NONE',  ( 0.000000000000000000, 0.000000000000000000, -0.09374999999999991673 ) ) ;
#124 = SURFACE_STYLE_FILL_AREA ( #59 ) ;
#125 = CYLINDRICAL_SURFACE ( 'NONE', #70, 0.09374999999999991673 ) ;
#126 =( GEOMETRIC_REPRESENTATION_CONTEXT ( 3 ) GLOBAL_UNCERTAINTY_ASSIGNED_CONTEXT ( ( #89 ) ) GLOBAL_UNIT_ASSIGNED_CONTEXT ( ( #182, #287, #184 ) ) REPRESENTATION_CONTEXT ( 'NONE', 'WORKASPACE' ) );
#127 =( NAMED_UNIT ( * ) SI_UNIT ( $, .STERADIAN. ) SOLID_ANGLE_UNIT ( ) );
#128 = EDGE_CURVE ( 'NONE', #337, #44, #302, .T. ) ;
#129 = DIRECTION ( 'NONE',  ( 0.000000000000000000, 0.000000000000000000, -1.000000000000000000 ) ) ;
#130 = CARTESIAN_POINT ( 'NONE',  ( -1.148106374200643401E-17, 0.09374999999999998612, 0.000000000000000000 ) ) ;
#131 = DIMENSIONAL_EXPONENTS ( 1.000000000000000000, 0.000000000000000000, 0.000000000000000000, 0.000000000000000000, 0.000000000000000000, 0.000000000000000000, 0.000000000000000000 ) ;
#132 = DIRECTION ( 'NONE',  ( -1.000000000000000000, 0.000000000000000000, 0.000000000000000000 ) ) ;
#133 = MECHANICAL_DESIGN_GEOMETRIC_PRESENTATION_REPRESENTATION (  '', ( #359 ), #149 ) ;
#134 = ORIENTED_EDGE ( 'NONE', *, *, #293, .F. ) ;
#135 =( GEOMETRIC_REPRESENTATION_CONTEXT ( 3 ) GLOBAL_UNCERTAINTY_ASSIGNED_CONTEXT ( ( #174 ) ) GLOBAL_UNIT_ASSIGNED_CONTEXT ( ( #338, #331, #46 ) ) REPRESENTATION_CONTEXT ( 'NONE', 'WORKASPACE' ) );
#136 = FILL_AREA_STYLE ('',( #295 ) ) ;
#137 = CARTESIAN_POINT ( 'NONE',  ( 0.000000000000000000, 1.375000000000000000, 0.000000000000000000 ) ) ;
#138 = CYLINDRICAL_SURFACE ( 'NONE', #17, 0.09374999999999991673 ) ;
#139 = DIRECTION ( 'NONE',  ( -1.229179614827236117E-16, 1.000000000000000000, -0.000000000000000000 ) ) ;
#140 = PRESENTATION_LAYER_ASSIGNMENT (  '', '', ( #348 ) ) ;
#141 = PRODUCT ( '82456', '82456', '', ( #204 ) ) ;
#142 = CARTESIAN_POINT ( 'NONE',  ( -6.123233995736772199E-17, 3.000000000000000444, 0.000000000000000000 ) ) ;
#143 = CIRCLE ( 'NONE', #151, 0.09374999999999983347 ) ;
#144 = PRESENTATION_STYLE_ASSIGNMENT (( #255 ) ) ;
#145 = CARTESIAN_POINT ( 'NONE',  ( -6.123233995736772199E-17, 3.000000000000000444, 0.000000000000000000 ) ) ;
#146 = DIRECTION ( 'NONE',  ( -0.000000000000000000, -1.000000000000000000, -0.000000000000000000 ) ) ;
#147 = EDGE_CURVE ( 'NONE', #39, #274, #143, .T. ) ;
#148 =( LENGTH_UNIT ( ) NAMED_UNIT ( * ) SI_UNIT ( $, .METRE. ) );
#149 =( GEOMETRIC_REPRESENTATION_CONTEXT ( 3 ) GLOBAL_UNCERTAINTY_ASSIGNED_CONTEXT ( ( #340 ) ) GLOBAL_UNIT_ASSIGNED_CONTEXT ( ( #38, #6, #127 ) ) REPRESENTATION_CONTEXT ( 'NONE', 'WORKASPACE' ) );
#150 = FACE_OUTER_BOUND ( 'NONE', #159, .T. ) ;
#151 = AXIS2_PLACEMENT_3D ( 'NONE', #242, #316, #37 ) ;
#152 = PRODUCT_DEFINITION_SHAPE ( 'NONE', 'NONE',  #16 ) ;
#153 = FACE_OUTER_BOUND ( 'NONE', #193, .T. ) ;
#154 = CARTESIAN_POINT ( 'NONE',  ( -6.123233995736772199E-17, 3.000000000000000444, 0.000000000000000000 ) ) ;
#155 = SURFACE_STYLE_FILL_AREA ( #317 ) ;
#156 = ORIENTED_EDGE ( 'NONE', *, *, #45, .F. ) ;
#157 = CIRCLE ( 'NONE', #117, 0.09374999999999969469 ) ;
#158 = PRODUCT_DEFINITION_FORMATION_WITH_SPECIFIED_SOURCE ( 'ANY', '', #141, .NOT_KNOWN. ) ;
#159 = EDGE_LOOP ( 'NONE', ( #188, #108, #172, #15 ) ) ;
#160 = ORIENTED_EDGE ( 'NONE', *, *, #306, .T. ) ;
#161 = DIRECTION ( 'NONE',  ( -1.229179614827236117E-16, 1.000000000000000000, -0.000000000000000000 ) ) ;
#162 = AXIS2_PLACEMENT_3D ( 'NONE', #130, #319, #47 ) ;
#163 = ORIENTED_EDGE ( 'NONE', *, *, #215, .T. ) ;
#164 = CARTESIAN_POINT ( 'NONE',  ( -0.09374999999999987510, 3.000000000000000444, 0.000000000000000000 ) ) ;
#165 = ORIENTED_EDGE ( 'NONE', *, *, #50, .F. ) ;
#166 = CARTESIAN_POINT ( 'NONE',  ( -1.148106374200643401E-17, 0.09374999999999998612, 0.000000000000000000 ) ) ;
#167 =( NAMED_UNIT ( * ) SI_UNIT ( $, .STERADIAN. ) SOLID_ANGLE_UNIT ( ) );
#168 =( NAMED_UNIT ( * ) SI_UNIT ( $, .STERADIAN. ) SOLID_ANGLE_UNIT ( ) );
#169 = SURFACE_STYLE_USAGE ( .BOTH. , #244 ) ;
#170 = DIRECTION ( 'NONE',  ( -0.000000000000000000, -1.000000000000000000, -0.000000000000000000 ) ) ;
#171 = AXIS2_PLACEMENT_3D ( 'NONE', #145, #259, #285 ) ;
#172 = ORIENTED_EDGE ( 'NONE', *, *, #1, .F. ) ;
#173 = ADVANCED_FACE ( 'NONE', ( #68 ), #290, .F. ) ;
#174 = UNCERTAINTY_MEASURE_WITH_UNIT (LENGTH_MEASURE( 1.000000000000000082E-05 ), #338, 'distance_accuracy_value', 'NONE');
#175 = DIRECTION ( 'NONE',  ( 1.224646799147353207E-16, -0.000000000000000000, 1.000000000000000000 ) ) ;
#176 = CLOSED_SHELL ( 'NONE', ( #113, #173, #342, #349 ) ) ;
#177 = CIRCLE ( 'NONE', #4, 0.09374999999999990286 ) ;
#178 = DIRECTION ( 'NONE',  ( 0.000000000000000000, 0.000000000000000000, -1.000000000000000000 ) ) ;
#179 = SURFACE_SIDE_STYLE ('',( #124 ) ) ;
#180 = CARTESIAN_POINT ( 'NONE',  ( 1.148106374200642630E-17, 0.000000000000000000, 0.09374999999999991673 ) ) ;
#181 = SURFACE_STYLE_FILL_AREA ( #310 ) ;
#182 =( CONVERSION_BASED_UNIT ( 'INCH', #63 ) LENGTH_UNIT ( ) NAMED_UNIT ( #355 ) );
#183 = VECTOR ( 'NONE', #139, 39.37007874015748143 ) ;
#184 =( NAMED_UNIT ( * ) SI_UNIT ( $, .STERADIAN. ) SOLID_ANGLE_UNIT ( ) );
#185 = CIRCLE ( 'NONE', #121, 0.09374999999999998612 ) ;
#186 = VECTOR ( 'NONE', #264, 39.37007874015748143 ) ;
#187 =( NAMED_UNIT ( * ) PLANE_ANGLE_UNIT ( ) SI_UNIT ( $, .RADIAN. ) );
#188 = ORIENTED_EDGE ( 'NONE', *, *, #50, .T. ) ;
#189 = DIRECTION ( 'NONE',  ( -0.000000000000000000, -1.000000000000000000, -0.000000000000000000 ) ) ;
#190 = COLOUR_RGB ( '',0.7921568627450980005, 0.8196078431372548767, 0.9333333333333333481 ) ;
#191 = ORIENTED_EDGE ( 'NONE', *, *, #105, .F. ) ;
#192 = SURFACE_STYLE_FILL_AREA ( #136 ) ;
#193 = EDGE_LOOP ( 'NONE', ( #226, #134 ) ) ;
#194 = SURFACE_SIDE_STYLE ('',( #304 ) ) ;
#195 = CARTESIAN_POINT ( 'NONE',  ( 0.000000000000000000, 0.09375000000000001388, -0.09374999999999998612 ) ) ;
#196 = SURFACE_STYLE_FILL_AREA ( #327 ) ;
#197 = EDGE_LOOP ( 'NONE', ( #21, #163 ) ) ;
#198 = COLOUR_RGB ( '',1.000000000000000000, 0.000000000000000000, 0.000000000000000000 ) ;
#199 = AXIS2_PLACEMENT_3D ( 'NONE', #64, #235, #60 ) ;
#200 = ORIENTED_EDGE ( 'NONE', *, *, #1, .T. ) ;
#201 = LINE ( 'NONE', #164, #183 ) ;
#202 = EDGE_CURVE ( 'NONE', #247, #352, #96, .T. ) ;
#203 = FILL_AREA_STYLE_COLOUR ( '', #277 ) ;
#204 = PRODUCT_CONTEXT ( 'NONE', #358, 'mechanical' ) ;
#205 = CYLINDRICAL_SURFACE ( 'NONE', #171, 0.09374999999999980571 ) ;
#206 = DIRECTION ( 'NONE',  ( -0.000000000000000000, -1.000000000000000000, -0.000000000000000000 ) ) ;
#207 = DIRECTION ( 'NONE',  ( 0.000000000000000000, 0.000000000000000000, -1.000000000000000000 ) ) ;
#208 = ORIENTED_EDGE ( 'NONE', *, *, #74, .F. ) ;
#209 =( CONVERSION_BASED_UNIT ( 'INCH', #28 ) LENGTH_UNIT ( ) NAMED_UNIT ( #14 ) );
#210 = VERTEX_POINT ( 'NONE', #97 ) ;
#211 = CARTESIAN_POINT ( 'NONE',  ( 0.09374999999999973632, 3.000000000000000444, 1.148106374200641089E-17 ) ) ;
#212 = STYLED_ITEM ( 'NONE', ( #111 ), #88 ) ;
#213 = STYLED_ITEM ( 'NONE', ( #343 ), #282 ) ;
#214 = CARTESIAN_POINT ( 'NONE',  ( 0.09374999999999981959, 3.000000000000000444, 1.148106374200641706E-17 ) ) ;
#215 = EDGE_CURVE ( 'NONE', #219, #210, #223, .T. ) ;
#216 =( GEOMETRIC_REPRESENTATION_CONTEXT ( 3 ) GLOBAL_UNCERTAINTY_ASSIGNED_CONTEXT ( ( #365 ) ) GLOBAL_UNIT_ASSIGNED_CONTEXT ( ( #209, #187, #10 ) ) REPRESENTATION_CONTEXT ( 'NONE', 'WORKASPACE' ) );
#217 = FACE_OUTER_BOUND ( 'NONE', #62, .T. ) ;
#218 = DIRECTION ( 'NONE',  ( 0.000000000000000000, 0.000000000000000000, 1.000000000000000000 ) ) ;
#219 = VERTEX_POINT ( 'NONE', #214 ) ;
#220 = ORIENTED_EDGE ( 'NONE', *, *, #298, .F. ) ;
#221 = FACE_OUTER_BOUND ( 'NONE', #288, .T. ) ;
#222 = CLOSED_SHELL ( 'NONE', ( #65, #253, #282, #88, #237 ) ) ;
#223 = CIRCLE ( 'NONE', #76, 0.09374999999999990286 ) ;
#224 = ORIENTED_EDGE ( 'NONE', *, *, #202, .F. ) ;
#225 = FILL_AREA_STYLE ('',( #300 ) ) ;
#226 = ORIENTED_EDGE ( 'NONE', *, *, #147, .F. ) ;
#227 = DIRECTION ( 'NONE',  ( 1.000000000000000000, 0.000000000000000000, 0.000000000000000000 ) ) ;
#228 = LENGTH_MEASURE_WITH_UNIT ( LENGTH_MEASURE( 0.02539999999999999897 ), #362 );
#229 = DIRECTION ( 'NONE',  ( 1.229179614827236117E-16, -1.000000000000000000, 0.000000000000000000 ) ) ;
#230 = VECTOR ( 'NONE', #146, 39.37007874015748143 ) ;
#231 = SURFACE_SIDE_STYLE ('',( #196 ) ) ;
#232 = CARTESIAN_POINT ( 'NONE',  ( 0.000000000000000000, 0.09375000000000001388, 0.000000000000000000 ) ) ;
#233 =( GEOMETRIC_REPRESENTATION_CONTEXT ( 3 ) GLOBAL_UNCERTAINTY_ASSIGNED_CONTEXT ( ( #284 ) ) GLOBAL_UNIT_ASSIGNED_CONTEXT ( ( #55, #373, #32 ) ) REPRESENTATION_CONTEXT ( 'NONE', 'WORKASPACE' ) );
#234 = SURFACE_STYLE_FILL_AREA ( #95 ) ;
#235 = DIRECTION ( 'NONE',  ( 0.000000000000000000, 0.000000000000000000, 1.000000000000000000 ) ) ;
#236 = SURFACE_SIDE_STYLE ('',( #234 ) ) ;
#237 = ADVANCED_FACE ( 'NONE', ( #217 ), #353, .T. ) ;
#238 = LINE ( 'NONE', #180, #230 ) ;
#239 = MANIFOLD_SOLID_BREP ( 'Revolve - Cutting Edge', #222 ) ;
#240 = FILL_AREA_STYLE_COLOUR ( '', #198 ) ;
#241 = PRESENTATION_LAYER_ASSIGNMENT (  '', '', ( #213 ) ) ;
#242 = CARTESIAN_POINT ( 'NONE',  ( 0.000000000000000000, 1.375000000000000000, 0.000000000000000000 ) ) ;
#243 =( LENGTH_UNIT ( ) NAMED_UNIT ( * ) SI_UNIT ( $, .METRE. ) );
#244 = SURFACE_SIDE_STYLE ('',( #192 ) ) ;
#245 = PRODUCT_RELATED_PRODUCT_CATEGORY ( 'part', '', ( #141 ) ) ;
#246 =( LENGTH_UNIT ( ) NAMED_UNIT ( * ) SI_UNIT ( $, .METRE. ) );
#247 = VERTEX_POINT ( 'NONE', #112 ) ;
#248 = FILL_AREA_STYLE_COLOUR ( '', #366 ) ;
#249 = DIRECTION ( 'NONE',  ( 0.000000000000000000, 0.000000000000000000, -1.000000000000000000 ) ) ;
#250 = AXIS2_PLACEMENT_3D ( 'NONE', #85, #170, #54 ) ;
#251 = PRESENTATION_LAYER_ASSIGNMENT (  '', '', ( #368 ) ) ;
#252 = DIMENSIONAL_EXPONENTS ( 1.000000000000000000, 0.000000000000000000, 0.000000000000000000, 0.000000000000000000, 0.000000000000000000, 0.000000000000000000, 0.000000000000000000 ) ;
#253 = ADVANCED_FACE ( 'NONE', ( #336 ), #125, .T. ) ;
#254 = DIRECTION ( 'NONE',  ( -1.000000000000000000, 0.000000000000000000, 0.000000000000000000 ) ) ;
#255 = SURFACE_STYLE_USAGE ( .BOTH. , #179 ) ;
#256 = PRESENTATION_LAYER_ASSIGNMENT (  '', '', ( #18 ) ) ;
#257 = DIRECTION ( 'NONE',  ( -0.000000000000000000, -1.000000000000000000, -0.000000000000000000 ) ) ;
#258 = EDGE_CURVE ( 'NONE', #274, #13, #238, .T. ) ;
#259 = DIRECTION ( 'NONE',  ( -1.229179614827236117E-16, 1.000000000000000000, -0.000000000000000000 ) ) ;
#260 = SURFACE_SIDE_STYLE ('',( #181 ) ) ;
#261 = SURFACE_SIDE_STYLE ('',( #155 ) ) ;
#262 = AXIS2_PLACEMENT_3D ( 'NONE', #137, #350, #249 ) ;
#263 = EDGE_CURVE ( 'NONE', #39, #337, #370, .T. ) ;
#264 = DIRECTION ( 'NONE',  ( -1.229179614827236117E-16, 1.000000000000000000, -0.000000000000000000 ) ) ;
#265 = EDGE_LOOP ( 'NONE', ( #118, #160, #334, #291 ) ) ;
#266 = LENGTH_MEASURE_WITH_UNIT ( LENGTH_MEASURE( 0.02539999999999999897 ), #148 );
#267 = AXIS2_PLACEMENT_3D ( 'NONE', #351, #161, #132 ) ;
#268 = ORIENTED_EDGE ( 'NONE', *, *, #258, .F. ) ;
#269 =( NAMED_UNIT ( * ) PLANE_ANGLE_UNIT ( ) SI_UNIT ( $, .RADIAN. ) );
#270 = PRESENTATION_STYLE_ASSIGNMENT (( #20 ) ) ;
#271 = SPHERICAL_SURFACE ( 'NONE', #69, 0.09374999999999998612 ) ;
#272 = FACE_OUTER_BOUND ( 'NONE', #197, .T. ) ;
#273 = DIRECTION ( 'NONE',  ( 0.000000000000000000, -0.000000000000000000, 1.000000000000000000 ) ) ;
#274 = VERTEX_POINT ( 'NONE', #311 ) ;
#275 = DIRECTION ( 'NONE',  ( 0.000000000000000000, 0.000000000000000000, 1.000000000000000000 ) ) ;
#276 = CARTESIAN_POINT ( 'NONE',  ( -5.740531871003217003E-18, 0.000000000000000000, 0.000000000000000000 ) ) ;
#277 = COLOUR_RGB ( '',0.7921568627450980005, 0.8196078431372548767, 0.9333333333333333481 ) ;
#278 = CYLINDRICAL_SURFACE ( 'NONE', #58, 0.09374999999999980571 ) ;
#279 = CARTESIAN_POINT ( 'NONE',  ( 0.000000000000000000, 0.000000000000000000, 0.000000000000000000 ) ) ;
#280 = CARTESIAN_POINT ( 'NONE',  ( 0.09374999999999981959, 1.375000000000000000, 1.148106374200641706E-17 ) ) ;
#281 = CARTESIAN_POINT ( 'NONE',  ( -1.148106374200643401E-17, 0.09374999999999998612, 0.000000000000000000 ) ) ;
#282 = ADVANCED_FACE ( 'NONE', ( #153 ), #372, .T. ) ;
#283 = LENGTH_MEASURE_WITH_UNIT ( LENGTH_MEASURE( 0.02539999999999999897 ), #246 );
#284 = UNCERTAINTY_MEASURE_WITH_UNIT (LENGTH_MEASURE( 1.000000000000000082E-05 ), #55, 'distance_accuracy_value', 'NONE');
#285 = DIRECTION ( 'NONE',  ( -1.000000000000000000, 0.000000000000000000, 0.000000000000000000 ) ) ;
#286 = CARTESIAN_POINT ( 'NONE',  ( 0.000000000000000000, 0.000000000000000000, 0.000000000000000000 ) ) ;
#287 =( NAMED_UNIT ( * ) PLANE_ANGLE_UNIT ( ) SI_UNIT ( $, .RADIAN. ) );
#288 = EDGE_LOOP ( 'NONE', ( #268, #354, #42, #191, #165 ) ) ;
#289 = AXIS2_PLACEMENT_3D ( 'NONE', #103, #218, #323 ) ;
#290 = PLANE ( 'NONE',  #90 ) ;
#291 = ORIENTED_EDGE ( 'NONE', *, *, #215, .F. ) ;
#292 = ORIENTED_EDGE ( 'NONE', *, *, #128, .T. ) ;
#293 = EDGE_CURVE ( 'NONE', #274, #39, #36, .T. ) ;
#294 = ORIENTED_EDGE ( 'NONE', *, *, #147, .T. ) ;
#295 = FILL_AREA_STYLE_COLOUR ( '', #190 ) ;
#296 = DIMENSIONAL_EXPONENTS ( 1.000000000000000000, 0.000000000000000000, 0.000000000000000000, 0.000000000000000000, 0.000000000000000000, 0.000000000000000000, 0.000000000000000000 ) ;
#297 = SURFACE_STYLE_USAGE ( .BOTH. , #194 ) ;
#298 = EDGE_CURVE ( 'NONE', #210, #219, #177, .T. ) ;
#299 = PLANE ( 'NONE',  #303 ) ;
#300 = FILL_AREA_STYLE_COLOUR ( '', #321 ) ;
#301 = PRESENTATION_LAYER_ASSIGNMENT (  '', '', ( #359 ) ) ;
#302 = CIRCLE ( 'NONE', #31, 0.09374999999999998612 ) ;
#303 = AXIS2_PLACEMENT_3D ( 'NONE', #114, #229, #84 ) ;
#304 = SURFACE_STYLE_FILL_AREA ( #225 ) ;
#305 = DIRECTION ( 'NONE',  ( -1.000000000000000000, 0.000000000000000000, 0.000000000000000000 ) ) ;
#306 = EDGE_CURVE ( 'NONE', #352, #247, #157, .T. ) ;
#307 = MECHANICAL_DESIGN_GEOMETRIC_PRESENTATION_REPRESENTATION (  '', ( #368 ), #216 ) ;
#308 = CARTESIAN_POINT ( 'NONE',  ( 0.000000000000000000, 0.09375000000000001388, 0.000000000000000000 ) ) ;
#309 = UNCERTAINTY_MEASURE_WITH_UNIT (LENGTH_MEASURE( 1.000000000000000082E-05 ), #109, 'distance_accuracy_value', 'NONE');
#310 = FILL_AREA_STYLE ('',( #312 ) ) ;
#311 = CARTESIAN_POINT ( 'NONE',  ( 1.148106374200642168E-17, 1.375000000000000000, 0.09374999999999983347 ) ) ;
#312 = FILL_AREA_STYLE_COLOUR ( '', #30 ) ;
#313 = AXIS2_PLACEMENT_3D ( 'NONE', #281, #175, #357 ) ;
#314 = CIRCLE ( 'NONE', #313, 0.09374999999999998612 ) ;
#315 = COLOUR_RGB ( '',1.000000000000000000, 0.000000000000000000, 0.000000000000000000 ) ;
#316 = DIRECTION ( 'NONE',  ( -0.000000000000000000, -1.000000000000000000, -0.000000000000000000 ) ) ;
#317 = FILL_AREA_STYLE ('',( #240 ) ) ;
#318 = LENGTH_MEASURE_WITH_UNIT ( LENGTH_MEASURE( 0.02539999999999999897 ), #243 );
#319 = DIRECTION ( 'NONE',  ( 0.000000000000000000, 0.000000000000000000, -1.000000000000000000 ) ) ;
#320 = CIRCLE ( 'NONE', #250, 0.09374999999999998612 ) ;
#321 = COLOUR_RGB ( '',1.000000000000000000, 0.000000000000000000, 0.000000000000000000 ) ;
#322 = SURFACE_STYLE_USAGE ( .BOTH. , #260 ) ;
#323 = DIRECTION ( 'NONE',  ( 1.000000000000000000, 0.000000000000000000, 0.000000000000000000 ) ) ;
#324 = VERTEX_POINT ( 'NONE', #276 ) ;
#325 = ORIENTED_EDGE ( 'NONE', *, *, #263, .F. ) ;
#326 = ORIENTED_EDGE ( 'NONE', *, *, #258, .T. ) ;
#327 = FILL_AREA_STYLE ('',( #248 ) ) ;
#328 = AXIS2_PLACEMENT_3D ( 'NONE', #11, #104, #273 ) ;
#329 = CARTESIAN_POINT ( 'NONE',  ( 1.385093474520581624E-16, 1.375000000000000000, 0.000000000000000000 ) ) ;
#330 = DIMENSIONAL_EXPONENTS ( 1.000000000000000000, 0.000000000000000000, 0.000000000000000000, 0.000000000000000000, 0.000000000000000000, 0.000000000000000000, 0.000000000000000000 ) ;
#331 =( NAMED_UNIT ( * ) PLANE_ANGLE_UNIT ( ) SI_UNIT ( $, .RADIAN. ) );
#332 = PRESENTATION_STYLE_ASSIGNMENT (( #297 ) ) ;
#333 = FACE_OUTER_BOUND ( 'NONE', #265, .T. ) ;
#334 = ORIENTED_EDGE ( 'NONE', *, *, #74, .T. ) ;
#335 =( NAMED_UNIT ( * ) SI_UNIT ( $, .STERADIAN. ) SOLID_ANGLE_UNIT ( ) );
#336 = FACE_OUTER_BOUND ( 'NONE', #71, .T. ) ;
#337 = VERTEX_POINT ( 'NONE', #195 ) ;
#338 =( CONVERSION_BASED_UNIT ( 'INCH', #228 ) LENGTH_UNIT ( ) NAMED_UNIT ( #252 ) );
#339 = STYLED_ITEM ( 'NONE', ( #332 ), #253 ) ;
#340 = UNCERTAINTY_MEASURE_WITH_UNIT (LENGTH_MEASURE( 1.000000000000000082E-05 ), #38, 'distance_accuracy_value', 'NONE');
#341 = FACE_OUTER_BOUND ( 'NONE', #361, .T. ) ;
#342 = ADVANCED_FACE ( 'NONE', ( #333 ), #278, .T. ) ;
#343 = PRESENTATION_STYLE_ASSIGNMENT (( #346 ) ) ;
#344 = SHAPE_DEFINITION_REPRESENTATION ( #152, #3 ) ;
#345 = DIRECTION ( 'NONE',  ( -0.000000000000000000, -1.000000000000000000, -0.000000000000000000 ) ) ;
#346 = SURFACE_STYLE_USAGE ( .BOTH. , #236 ) ;
#347 = AXIS2_PLACEMENT_3D ( 'NONE', #232, #345, #207 ) ;
#348 = STYLED_ITEM ( 'NONE', ( #270 ), #237 ) ;
#349 = ADVANCED_FACE ( 'NONE', ( #272 ), #299, .F. ) ;
#350 = DIRECTION ( 'NONE',  ( -0.000000000000000000, -1.000000000000000000, -0.000000000000000000 ) ) ;
#351 = CARTESIAN_POINT ( 'NONE',  ( 1.385093474520581624E-16, 1.375000000000000000, 0.000000000000000000 ) ) ;
#352 = VERTEX_POINT ( 'NONE', #280 ) ;
#353 = SPHERICAL_SURFACE ( 'NONE', #289, 0.09374999999999998612 ) ;
#354 = ORIENTED_EDGE ( 'NONE', *, *, #293, .T. ) ;
#355 = DIMENSIONAL_EXPONENTS ( 1.000000000000000000, 0.000000000000000000, 0.000000000000000000, 0.000000000000000000, 0.000000000000000000, 0.000000000000000000, 0.000000000000000000 ) ;
#356 = PRESENTATION_STYLE_ASSIGNMENT (( #169 ) ) ;
#357 = DIRECTION ( 'NONE',  ( 1.000000000000000000, 0.000000000000000000, -1.224646799147353207E-16 ) ) ;
#358 = APPLICATION_CONTEXT ( 'automotive_design' ) ;
#359 = STYLED_ITEM ( 'NONE', ( #72 ), #65 ) ;
#360 = SURFACE_STYLE_USAGE ( .BOTH. , #231 ) ;
#361 = EDGE_LOOP ( 'NONE', ( #12, #106, #220, #208 ) ) ;
#362 =( LENGTH_UNIT ( ) NAMED_UNIT ( * ) SI_UNIT ( $, .METRE. ) );
#363 = CARTESIAN_POINT ( 'NONE',  ( -6.123233995736772199E-17, 3.000000000000000444, 0.000000000000000000 ) ) ;
#364 = DIRECTION ( 'NONE',  ( -0.000000000000000000, -1.000000000000000000, -0.000000000000000000 ) ) ;
#365 = UNCERTAINTY_MEASURE_WITH_UNIT (LENGTH_MEASURE( 1.000000000000000082E-05 ), #209, 'distance_accuracy_value', 'NONE');
#366 = COLOUR_RGB ( '',1.000000000000000000, 0.000000000000000000, 0.000000000000000000 ) ;
#367 = LENGTH_MEASURE_WITH_UNIT ( LENGTH_MEASURE( 0.02539999999999999897 ), #24 );
#368 = STYLED_ITEM ( 'NONE', ( #144 ), #120 ) ;
#369 =( LENGTH_UNIT ( ) NAMED_UNIT ( * ) SI_UNIT ( $, .METRE. ) );
#370 = LINE ( 'NONE', #123, #66 ) ;
#371 = PRESENTATION_LAYER_ASSIGNMENT (  '', '', ( #339 ) ) ;
#372 = PLANE ( 'NONE',  #328 ) ;
#373 =( NAMED_UNIT ( * ) PLANE_ANGLE_UNIT ( ) SI_UNIT ( $, .RADIAN. ) );
ENDSEC;
END-ISO-10303-21;
