ISO-10303-21;
HEADER;
FILE_DESCRIPTION (( 'STEP AP214' ),
    '1' );
FILE_NAME ('03465.STEP',
    '2023-06-22T15:20:17',
    ( '' ),
    ( '' ),
    'SwSTEP 2.0',
    'SolidWorks 2023',
    '' );
FILE_SCHEMA (( 'AUTOMOTIVE_DESIGN' ));
ENDSEC;

DATA;
#1 = SURFACE_STYLE_USAGE ( .BOTH. , #143 ) ;
#2 = MECHANICAL_DESIGN_GEOMETRIC_PRESENTATION_REPRESENTATION (  '', ( #60 ), #181 ) ;
#3 = AXIS2_PLACEMENT_3D ( 'NONE', #228, #202, #299 ) ;
#4 = DIMENSIONAL_EXPONENTS ( 1.000000000000000000, 0.000000000000000000, 0.000000000000000000, 0.000000000000000000, 0.000000000000000000, 0.000000000000000000, 0.000000000000000000 ) ;
#5 = DIRECTION ( 'NONE',  ( 0.000000000000000000, 0.000000000000000000, -1.000000000000000000 ) ) ;
#6 = SURFACE_SIDE_STYLE ('',( #148 ) ) ;
#7 = DIRECTION ( 'NONE',  ( 0.000000000000000000, 0.000000000000000000, -1.000000000000000000 ) ) ;
#8 = MECHANICAL_DESIGN_GEOMETRIC_PRESENTATION_REPRESENTATION (  '', ( #108 ), #53 ) ;
#9 = ADVANCED_FACE ( 'NONE', ( #197 ), #99, .T. ) ;
#10 = CARTESIAN_POINT ( 'NONE',  ( -0.2500000000000001110, 3.000000000000000444, 0.000000000000000000 ) ) ;
#11 = ORIENTED_EDGE ( 'NONE', *, *, #284, .T. ) ;
#12 = MECHANICAL_DESIGN_GEOMETRIC_PRESENTATION_REPRESENTATION (  '', ( #32 ), #79 ) ;
#13 = CARTESIAN_POINT ( 'NONE',  ( -0.2500000000000000000, 1.250000000000000000, 0.000000000000000000 ) ) ;
#14 = ORIENTED_EDGE ( 'NONE', *, *, #116, .T. ) ;
#15 = CARTESIAN_POINT ( 'NONE',  ( 0.000000000000000000, 1.250000000000000000, 0.000000000000000000 ) ) ;
#16 = EDGE_LOOP ( 'NONE', ( #245, #14, #223, #273 ) ) ;
#17 = PLANE ( 'NONE',  #73 ) ;
#18 = LENGTH_MEASURE_WITH_UNIT ( LENGTH_MEASURE( 0.02539999999999999897 ), #301 );
#19 = AXIS2_PLACEMENT_3D ( 'NONE', #119, #31, #5 ) ;
#20 =( LENGTH_UNIT ( ) NAMED_UNIT ( * ) SI_UNIT ( $, .METRE. ) );
#21 =( GEOMETRIC_REPRESENTATION_CONTEXT ( 3 ) GLOBAL_UNCERTAINTY_ASSIGNED_CONTEXT ( ( #229 ) ) GLOBAL_UNIT_ASSIGNED_CONTEXT ( ( #206, #162, #254 ) ) REPRESENTATION_CONTEXT ( 'NONE', 'WORKASPACE' ) );
#22 = AXIS2_PLACEMENT_3D ( 'NONE', #141, #263, #7 ) ;
#23 = DIRECTION ( 'NONE',  ( -0.000000000000000000, -1.000000000000000000, -0.000000000000000000 ) ) ;
#24 = DIRECTION ( 'NONE',  ( -3.498990854706726443E-17, 1.000000000000000000, -0.000000000000000000 ) ) ;
#25 = LINE ( 'NONE', #288, #150 ) ;
#26 = MECHANICAL_DESIGN_GEOMETRIC_PRESENTATION_REPRESENTATION (  '', ( #155 ), #21 ) ;
#27 =( LENGTH_UNIT ( ) NAMED_UNIT ( * ) SI_UNIT ( $, .METRE. ) );
#28 = PRODUCT_DEFINITION ( 'UNKNOWN', '', #220, #43 ) ;
#29 = FACE_OUTER_BOUND ( 'NONE', #37, .T. ) ;
#30 = ADVANCED_BREP_SHAPE_REPRESENTATION ( '03465', ( #93, #97, #308 ), #127 ) ;
#31 = DIRECTION ( 'NONE',  ( -0.000000000000000000, -1.000000000000000000, -0.000000000000000000 ) ) ;
#32 = STYLED_ITEM ( 'NONE', ( #211 ), #97 ) ;
#33 = DIRECTION ( 'NONE',  ( -3.498990854706726443E-17, 1.000000000000000000, -0.000000000000000000 ) ) ;
#34 = DIRECTION ( 'NONE',  ( 0.000000000000000000, 0.000000000000000000, -1.000000000000000000 ) ) ;
#35 = EDGE_LOOP ( 'NONE', ( #272, #58, #106, #40 ) ) ;
#36 = CARTESIAN_POINT ( 'NONE',  ( 3.061616997868383018E-17, 1.250000000000000000, 0.2500000000000000000 ) ) ;
#37 = EDGE_LOOP ( 'NONE', ( #133, #250 ) ) ;
#38 = CIRCLE ( 'NONE', #210, 0.2500000000000000000 ) ;
#39 = DIRECTION ( 'NONE',  ( -3.498990854706726443E-17, 1.000000000000000000, -0.000000000000000000 ) ) ;
#40 = ORIENTED_EDGE ( 'NONE', *, *, #52, .F. ) ;
#41 = PRODUCT_DEFINITION_SHAPE ( 'NONE', 'NONE',  #28 ) ;
#42 = ORIENTED_EDGE ( 'NONE', *, *, #274, .T. ) ;
#43 = PRODUCT_DEFINITION_CONTEXT ( 'detailed design', #139, 'design' ) ;
#44 = STYLED_ITEM ( 'NONE', ( #279 ), #225 ) ;
#45 = SURFACE_SIDE_STYLE ('',( #237 ) ) ;
#46 = AXIS2_PLACEMENT_3D ( 'NONE', #176, #290, #268 ) ;
#47 = CIRCLE ( 'NONE', #3, 0.2500000000000000000 ) ;
#48 =( CONVERSION_BASED_UNIT ( 'INCH', #118 ) LENGTH_UNIT ( ) NAMED_UNIT ( #214 ) );
#49 = FILL_AREA_STYLE ('',( #286 ) ) ;
#50 = DIMENSIONAL_EXPONENTS ( 1.000000000000000000, 0.000000000000000000, 0.000000000000000000, 0.000000000000000000, 0.000000000000000000, 0.000000000000000000, 0.000000000000000000 ) ;
#51 = PRESENTATION_STYLE_ASSIGNMENT (( #54 ) ) ;
#52 = EDGE_CURVE ( 'NONE', #298, #199, #115, .T. ) ;
#53 =( GEOMETRIC_REPRESENTATION_CONTEXT ( 3 ) GLOBAL_UNCERTAINTY_ASSIGNED_CONTEXT ( ( #233 ) ) GLOBAL_UNIT_ASSIGNED_CONTEXT ( ( #48, #186, #234 ) ) REPRESENTATION_CONTEXT ( 'NONE', 'WORKASPACE' ) );
#54 = SURFACE_STYLE_USAGE ( .BOTH. , #196 ) ;
#55 = ADVANCED_FACE ( 'NONE', ( #189 ), #256, .F. ) ;
#56 = CIRCLE ( 'NONE', #294, 0.2500000000000000000 ) ;
#57 = CARTESIAN_POINT ( 'NONE',  ( 0.000000000000000000, 0.000000000000000000, -0.2500000000000000000 ) ) ;
#58 = ORIENTED_EDGE ( 'NONE', *, *, #107, .T. ) ;
#59 = CARTESIAN_POINT ( 'NONE',  ( 0.000000000000000000, 0.000000000000000000, 0.000000000000000000 ) ) ;
#60 = STYLED_ITEM ( 'NONE', ( #241 ), #192 ) ;
#61 = ORIENTED_EDGE ( 'NONE', *, *, #267, .T. ) ;
#62 = DIRECTION ( 'NONE',  ( -3.498990854706726443E-17, 1.000000000000000000, -0.000000000000000000 ) ) ;
#63 = EDGE_CURVE ( 'NONE', #102, #109, #306, .T. ) ;
#64 = ORIENTED_EDGE ( 'NONE', *, *, #267, .F. ) ;
#65 = VERTEX_POINT ( 'NONE', #167 ) ;
#66 = FACE_OUTER_BOUND ( 'NONE', #232, .T. ) ;
#67 = PRESENTATION_LAYER_ASSIGNMENT (  '', '', ( #44 ) ) ;
#68 = DIRECTION ( 'NONE',  ( 0.000000000000000000, 0.000000000000000000, -1.000000000000000000 ) ) ;
#69 = SURFACE_STYLE_USAGE ( .BOTH. , #45 ) ;
#70 = ADVANCED_FACE ( 'NONE', ( #66 ), #213, .T. ) ;
#71 =( LENGTH_UNIT ( ) NAMED_UNIT ( * ) SI_UNIT ( $, .METRE. ) );
#72 = DIMENSIONAL_EXPONENTS ( 1.000000000000000000, 0.000000000000000000, 0.000000000000000000, 0.000000000000000000, 0.000000000000000000, 0.000000000000000000, 0.000000000000000000 ) ;
#73 = AXIS2_PLACEMENT_3D ( 'NONE', #200, #249, #198 ) ;
#74 = DIRECTION ( 'NONE',  ( 0.000000000000000000, 0.000000000000000000, -1.000000000000000000 ) ) ;
#75 = CARTESIAN_POINT ( 'NONE',  ( 0.2500000000000000000, 1.250000000000000000, 3.061616997868383634E-17 ) ) ;
#76 = LINE ( 'NONE', #175, #90 ) ;
#77 = CIRCLE ( 'NONE', #300, 0.2500000000000000555 ) ;
#78 =( NAMED_UNIT ( * ) PLANE_ANGLE_UNIT ( ) SI_UNIT ( $, .RADIAN. ) );
#79 =( GEOMETRIC_REPRESENTATION_CONTEXT ( 3 ) GLOBAL_UNCERTAINTY_ASSIGNED_CONTEXT ( ( #111 ) ) GLOBAL_UNIT_ASSIGNED_CONTEXT ( ( #94, #282, #96 ) ) REPRESENTATION_CONTEXT ( 'NONE', 'WORKASPACE' ) );
#80 = ORIENTED_EDGE ( 'NONE', *, *, #107, .F. ) ;
#81 = SURFACE_SIDE_STYLE ('',( #183 ) ) ;
#82 = FILL_AREA_STYLE_COLOUR ( '', #240 ) ;
#83 = EDGE_LOOP ( 'NONE', ( #11, #42 ) ) ;
#84 = UNCERTAINTY_MEASURE_WITH_UNIT (LENGTH_MEASURE( 1.000000000000000082E-05 ), #215, 'distance_accuracy_value', 'NONE');
#85 = FACE_OUTER_BOUND ( 'NONE', #35, .T. ) ;
#86 = AXIS2_PLACEMENT_3D ( 'NONE', #257, #24, #169 ) ;
#87 = DIRECTION ( 'NONE',  ( 0.000000000000000000, 1.000000000000000000, 0.000000000000000000 ) ) ;
#88 = APPLICATION_CONTEXT ( 'automotive_design' ) ;
#89 = VECTOR ( 'NONE', #309, 39.37007874015748143 ) ;
#90 = VECTOR ( 'NONE', #172, 39.37007874015748143 ) ;
#91 = FILL_AREA_STYLE_COLOUR ( '', #248 ) ;
#92 = DIRECTION ( 'NONE',  ( -3.498990854706726443E-17, 1.000000000000000000, 0.000000000000000000 ) ) ;
#93 = MANIFOLD_SOLID_BREP ( 'Revolve - Cutting Edge', #255 ) ;
#94 =( CONVERSION_BASED_UNIT ( 'INCH', #110 ) LENGTH_UNIT ( ) NAMED_UNIT ( #4 ) );
#95 =( CONVERSION_BASED_UNIT ( 'INCH', #264 ) LENGTH_UNIT ( ) NAMED_UNIT ( #72 ) );
#96 =( NAMED_UNIT ( * ) SI_UNIT ( $, .STERADIAN. ) SOLID_ANGLE_UNIT ( ) );
#97 = MANIFOLD_SOLID_BREP ( 'Revolve - Tool Body (Straight Shanked)', #126 ) ;
#98 = DIRECTION ( 'NONE',  ( -1.000000000000000000, 0.000000000000000000, 0.000000000000000000 ) ) ;
#99 = CYLINDRICAL_SURFACE ( 'NONE', #265, 0.2500000000000000000 ) ;
#100 = LINE ( 'NONE', #57, #242 ) ;
#101 = AXIS2_PLACEMENT_3D ( 'NONE', #124, #62, #221 ) ;
#102 = VERTEX_POINT ( 'NONE', #239 ) ;
#103 = EDGE_CURVE ( 'NONE', #252, #296, #157, .T. ) ;
#104 =( NAMED_UNIT ( * ) PLANE_ANGLE_UNIT ( ) SI_UNIT ( $, .RADIAN. ) );
#105 = ORIENTED_EDGE ( 'NONE', *, *, #158, .T. ) ;
#106 = ORIENTED_EDGE ( 'NONE', *, *, #284, .F. ) ;
#107 = EDGE_CURVE ( 'NONE', #152, #65, #76, .T. ) ;
#108 = STYLED_ITEM ( 'NONE', ( #138 ), #93 ) ;
#109 = VERTEX_POINT ( 'NONE', #144 ) ;
#110 = LENGTH_MEASURE_WITH_UNIT ( LENGTH_MEASURE( 0.02539999999999999897 ), #71 );
#111 = UNCERTAINTY_MEASURE_WITH_UNIT (LENGTH_MEASURE( 1.000000000000000082E-05 ), #94, 'distance_accuracy_value', 'NONE');
#112 = FILL_AREA_STYLE ('',( #91 ) ) ;
#113 =( LENGTH_UNIT ( ) NAMED_UNIT ( * ) SI_UNIT ( $, .METRE. ) );
#114 = AXIS2_PLACEMENT_3D ( 'NONE', #285, #23, #68 ) ;
#115 = LINE ( 'NONE', #262, #89 ) ;
#116 = EDGE_CURVE ( 'NONE', #252, #109, #25, .T. ) ;
#117 = CYLINDRICAL_SURFACE ( 'NONE', #295, 0.2500000000000000555 ) ;
#118 = LENGTH_MEASURE_WITH_UNIT ( LENGTH_MEASURE( 0.02539999999999999897 ), #113 );
#119 = CARTESIAN_POINT ( 'NONE',  ( 0.000000000000000000, 0.000000000000000000, 0.000000000000000000 ) ) ;
#120 = PLANE ( 'NONE',  #204 ) ;
#121 = DIRECTION ( 'NONE',  ( -0.000000000000000000, -1.000000000000000000, -0.000000000000000000 ) ) ;
#122 = AXIS2_PLACEMENT_3D ( 'NONE', #59, #182, #179 ) ;
#123 = FILL_AREA_STYLE_COLOUR ( '', #261 ) ;
#124 = CARTESIAN_POINT ( 'NONE',  ( -6.123233995736772199E-17, 3.000000000000000444, 0.000000000000000000 ) ) ;
#125 = ORIENTED_EDGE ( 'NONE', *, *, #103, .T. ) ;
#126 = CLOSED_SHELL ( 'NONE', ( #305, #55, #70, #227 ) ) ;
#127 =( GEOMETRIC_REPRESENTATION_CONTEXT ( 3 ) GLOBAL_UNCERTAINTY_ASSIGNED_CONTEXT ( ( #134 ) ) GLOBAL_UNIT_ASSIGNED_CONTEXT ( ( #135, #238, #184 ) ) REPRESENTATION_CONTEXT ( 'NONE', 'WORKASPACE' ) );
#128 = FILL_AREA_STYLE_COLOUR ( '', #292 ) ;
#129 =( NAMED_UNIT ( * ) SI_UNIT ( $, .STERADIAN. ) SOLID_ANGLE_UNIT ( ) );
#130 = EDGE_LOOP ( 'NONE', ( #159, #64 ) ) ;
#131 = PRODUCT ( '03465', '03465', '', ( #140 ) ) ;
#132 = FACE_OUTER_BOUND ( 'NONE', #83, .T. ) ;
#133 = ORIENTED_EDGE ( 'NONE', *, *, #259, .F. ) ;
#134 = UNCERTAINTY_MEASURE_WITH_UNIT (LENGTH_MEASURE( 1.000000000000000082E-05 ), #135, 'distance_accuracy_value', 'NONE');
#135 =( CONVERSION_BASED_UNIT ( 'INCH', #137 ) LENGTH_UNIT ( ) NAMED_UNIT ( #209 ) );
#136 = ORIENTED_EDGE ( 'NONE', *, *, #52, .T. ) ;
#137 = LENGTH_MEASURE_WITH_UNIT ( LENGTH_MEASURE( 0.02539999999999999897 ), #20 );
#138 = PRESENTATION_STYLE_ASSIGNMENT (( #69 ) ) ;
#139 = APPLICATION_CONTEXT ( 'automotive_design' ) ;
#140 = PRODUCT_CONTEXT ( 'NONE', #88, 'mechanical' ) ;
#141 = CARTESIAN_POINT ( 'NONE',  ( 0.000000000000000000, 1.250000000000000000, 0.000000000000000000 ) ) ;
#142 = PRESENTATION_LAYER_ASSIGNMENT (  '', '', ( #60 ) ) ;
#143 = SURFACE_SIDE_STYLE ('',( #171 ) ) ;
#144 = CARTESIAN_POINT ( 'NONE',  ( 3.061616997868383018E-17, 0.000000000000000000, 0.2500000000000000000 ) ) ;
#145 = AXIS2_PLACEMENT_3D ( 'NONE', #208, #92, #235 ) ;
#146 = DIMENSIONAL_EXPONENTS ( 1.000000000000000000, 0.000000000000000000, 0.000000000000000000, 0.000000000000000000, 0.000000000000000000, 0.000000000000000000, 0.000000000000000000 ) ;
#147 = CYLINDRICAL_SURFACE ( 'NONE', #46, 0.2500000000000000000 ) ;
#148 = SURFACE_STYLE_FILL_AREA ( #219 ) ;
#149 = SURFACE_STYLE_USAGE ( .BOTH. , #6 ) ;
#150 = VECTOR ( 'NONE', #121, 39.37007874015748143 ) ;
#151 = DIRECTION ( 'NONE',  ( -0.000000000000000000, -1.000000000000000000, -0.000000000000000000 ) ) ;
#152 = VERTEX_POINT ( 'NONE', #75 ) ;
#153 = CARTESIAN_POINT ( 'NONE',  ( -6.123233995736772199E-17, 3.000000000000000444, 0.000000000000000000 ) ) ;
#154 = ORIENTED_EDGE ( 'NONE', *, *, #258, .T. ) ;
#155 = STYLED_ITEM ( 'NONE', ( #203 ), #9 ) ;
#156 =( NAMED_UNIT ( * ) SI_UNIT ( $, .STERADIAN. ) SOLID_ANGLE_UNIT ( ) );
#157 = CIRCLE ( 'NONE', #22, 0.2500000000000000000 ) ;
#158 = EDGE_CURVE ( 'NONE', #109, #102, #266, .T. ) ;
#159 = ORIENTED_EDGE ( 'NONE', *, *, #304, .F. ) ;
#160 = FILL_AREA_STYLE ('',( #82 ) ) ;
#161 = ORIENTED_EDGE ( 'NONE', *, *, #116, .F. ) ;
#162 =( NAMED_UNIT ( * ) PLANE_ANGLE_UNIT ( ) SI_UNIT ( $, .RADIAN. ) );
#163 = UNCERTAINTY_MEASURE_WITH_UNIT (LENGTH_MEASURE( 1.000000000000000082E-05 ), #95, 'distance_accuracy_value', 'NONE');
#164 = APPLICATION_PROTOCOL_DEFINITION ( 'draft international standard', 'automotive_design', 1998, #88 ) ;
#165 = CIRCLE ( 'NONE', #101, 0.2500000000000000555 ) ;
#166 = ADVANCED_FACE ( 'NONE', ( #173 ), #147, .T. ) ;
#167 = CARTESIAN_POINT ( 'NONE',  ( 0.2500000000000000000, 3.000000000000000444, 3.061616997868383634E-17 ) ) ;
#168 = CARTESIAN_POINT ( 'NONE',  ( 0.000000000000000000, 0.000000000000000000, 0.000000000000000000 ) ) ;
#169 = DIRECTION ( 'NONE',  ( -1.000000000000000000, 0.000000000000000000, 0.000000000000000000 ) ) ;
#170 = COLOUR_RGB ( '',1.000000000000000000, 0.000000000000000000, 0.000000000000000000 ) ;
#171 = SURFACE_STYLE_FILL_AREA ( #49 ) ;
#172 = DIRECTION ( 'NONE',  ( -3.498990854706726443E-17, 1.000000000000000000, -0.000000000000000000 ) ) ;
#173 = FACE_OUTER_BOUND ( 'NONE', #16, .T. ) ;
#174 = PRESENTATION_LAYER_ASSIGNMENT (  '', '', ( #155 ) ) ;
#175 = CARTESIAN_POINT ( 'NONE',  ( 0.2499999999999999722, 3.000000000000000444, 3.061616997868383634E-17 ) ) ;
#176 = CARTESIAN_POINT ( 'NONE',  ( 0.000000000000000000, 0.000000000000000000, 0.000000000000000000 ) ) ;
#177 = SURFACE_STYLE_USAGE ( .BOTH. , #81 ) ;
#178 = EDGE_LOOP ( 'NONE', ( #161, #125, #154, #226 ) ) ;
#179 = DIRECTION ( 'NONE',  ( 0.000000000000000000, 0.000000000000000000, -1.000000000000000000 ) ) ;
#180 = SURFACE_STYLE_USAGE ( .BOTH. , #278 ) ;
#181 =( GEOMETRIC_REPRESENTATION_CONTEXT ( 3 ) GLOBAL_UNCERTAINTY_ASSIGNED_CONTEXT ( ( #84 ) ) GLOBAL_UNIT_ASSIGNED_CONTEXT ( ( #215, #78, #129 ) ) REPRESENTATION_CONTEXT ( 'NONE', 'WORKASPACE' ) );
#182 = DIRECTION ( 'NONE',  ( 0.000000000000000000, -1.000000000000000000, -0.000000000000000000 ) ) ;
#183 = SURFACE_STYLE_FILL_AREA ( #160 ) ;
#184 =( NAMED_UNIT ( * ) SI_UNIT ( $, .STERADIAN. ) SOLID_ANGLE_UNIT ( ) );
#185 = COLOUR_RGB ( '',0.7921568627450980005, 0.8196078431372548767, 0.9333333333333333481 ) ;
#186 =( NAMED_UNIT ( * ) PLANE_ANGLE_UNIT ( ) SI_UNIT ( $, .RADIAN. ) );
#187 = DIMENSIONAL_EXPONENTS ( 1.000000000000000000, 0.000000000000000000, 0.000000000000000000, 0.000000000000000000, 0.000000000000000000, 0.000000000000000000, 0.000000000000000000 ) ;
#188 = SHAPE_DEFINITION_REPRESENTATION ( #41, #30 ) ;
#189 = FACE_OUTER_BOUND ( 'NONE', #130, .T. ) ;
#190 =( GEOMETRIC_REPRESENTATION_CONTEXT ( 3 ) GLOBAL_UNCERTAINTY_ASSIGNED_CONTEXT ( ( #253 ) ) GLOBAL_UNIT_ASSIGNED_CONTEXT ( ( #251, #104, #156 ) ) REPRESENTATION_CONTEXT ( 'NONE', 'WORKASPACE' ) );
#191 = SURFACE_STYLE_FILL_AREA ( #195 ) ;
#192 = ADVANCED_FACE ( 'NONE', ( #29 ), #120, .T. ) ;
#193 =( LENGTH_UNIT ( ) NAMED_UNIT ( * ) SI_UNIT ( $, .METRE. ) );
#194 = PRESENTATION_LAYER_ASSIGNMENT (  '', '', ( #231 ) ) ;
#195 = FILL_AREA_STYLE ('',( #289 ) ) ;
#196 = SURFACE_SIDE_STYLE ('',( #191 ) ) ;
#197 = FACE_OUTER_BOUND ( 'NONE', #178, .T. ) ;
#198 = DIRECTION ( 'NONE',  ( 1.000000000000000000, 3.498990854706726443E-17, 0.000000000000000000 ) ) ;
#199 = VERTEX_POINT ( 'NONE', #10 ) ;
#200 = CARTESIAN_POINT ( 'NONE',  ( 0.2500000000000000000, 3.000000000000000444, 0.000000000000000000 ) ) ;
#201 = FILL_AREA_STYLE ('',( #128 ) ) ;
#202 = DIRECTION ( 'NONE',  ( -3.498990854706726443E-17, 1.000000000000000000, -0.000000000000000000 ) ) ;
#203 = PRESENTATION_STYLE_ASSIGNMENT (( #180 ) ) ;
#204 = AXIS2_PLACEMENT_3D ( 'NONE', #244, #87, #246 ) ;
#205 =( LENGTH_UNIT ( ) NAMED_UNIT ( * ) SI_UNIT ( $, .METRE. ) );
#206 =( CONVERSION_BASED_UNIT ( 'INCH', #18 ) LENGTH_UNIT ( ) NAMED_UNIT ( #50 ) );
#207 = CARTESIAN_POINT ( 'NONE',  ( -6.123233995736772199E-17, 3.000000000000000444, 0.000000000000000000 ) ) ;
#208 = CARTESIAN_POINT ( 'NONE',  ( 1.530367125165163595E-34, 1.250000000000000000, 0.000000000000000000 ) ) ;
#209 = DIMENSIONAL_EXPONENTS ( 1.000000000000000000, 0.000000000000000000, 0.000000000000000000, 0.000000000000000000, 0.000000000000000000, 0.000000000000000000, 0.000000000000000000 ) ;
#210 = AXIS2_PLACEMENT_3D ( 'NONE', #15, #297, #34 ) ;
#211 = PRESENTATION_STYLE_ASSIGNMENT (( #1 ) ) ;
#212 = DIRECTION ( 'NONE',  ( -3.498990854706726443E-17, 1.000000000000000000, -0.000000000000000000 ) ) ;
#213 = CYLINDRICAL_SURFACE ( 'NONE', #86, 0.2500000000000000555 ) ;
#214 = DIMENSIONAL_EXPONENTS ( 1.000000000000000000, 0.000000000000000000, 0.000000000000000000, 0.000000000000000000, 0.000000000000000000, 0.000000000000000000, 0.000000000000000000 ) ;
#215 =( CONVERSION_BASED_UNIT ( 'INCH', #269 ) LENGTH_UNIT ( ) NAMED_UNIT ( #187 ) );
#216 = MECHANICAL_DESIGN_GEOMETRIC_PRESENTATION_REPRESENTATION (  '', ( #44 ), #190 ) ;
#217 = PRODUCT_RELATED_PRODUCT_CATEGORY ( 'part', '', ( #131 ) ) ;
#218 =( NAMED_UNIT ( * ) PLANE_ANGLE_UNIT ( ) SI_UNIT ( $, .RADIAN. ) );
#219 = FILL_AREA_STYLE ('',( #123 ) ) ;
#220 = PRODUCT_DEFINITION_FORMATION_WITH_SPECIFIED_SOURCE ( 'ANY', '', #131, .NOT_KNOWN. ) ;
#221 = DIRECTION ( 'NONE',  ( -1.000000000000000000, 0.000000000000000000, 0.000000000000000000 ) ) ;
#222 = FACE_OUTER_BOUND ( 'NONE', #247, .T. ) ;
#223 = ORIENTED_EDGE ( 'NONE', *, *, #63, .F. ) ;
#224 = CARTESIAN_POINT ( 'NONE',  ( 0.000000000000000000, 1.250000000000000000, -0.2500000000000000000 ) ) ;
#225 = ADVANCED_FACE ( 'NONE', ( #222 ), #271, .T. ) ;
#226 = ORIENTED_EDGE ( 'NONE', *, *, #158, .F. ) ;
#227 = ADVANCED_FACE ( 'NONE', ( #132 ), #17, .F. ) ;
#228 = CARTESIAN_POINT ( 'NONE',  ( 0.000000000000000000, 1.250000000000000000, 0.000000000000000000 ) ) ;
#229 = UNCERTAINTY_MEASURE_WITH_UNIT (LENGTH_MEASURE( 1.000000000000000082E-05 ), #206, 'distance_accuracy_value', 'NONE');
#230 = LENGTH_MEASURE_WITH_UNIT ( LENGTH_MEASURE( 0.02539999999999999897 ), #205 );
#231 = STYLED_ITEM ( 'NONE', ( #51 ), #166 ) ;
#232 = EDGE_LOOP ( 'NONE', ( #80, #61, #136, #275 ) ) ;
#233 = UNCERTAINTY_MEASURE_WITH_UNIT (LENGTH_MEASURE( 1.000000000000000082E-05 ), #48, 'distance_accuracy_value', 'NONE');
#234 =( NAMED_UNIT ( * ) SI_UNIT ( $, .STERADIAN. ) SOLID_ANGLE_UNIT ( ) );
#235 = DIRECTION ( 'NONE',  ( -1.000000000000000000, -3.498990854706726443E-17, 0.000000000000000000 ) ) ;
#236 =( GEOMETRIC_REPRESENTATION_CONTEXT ( 3 ) GLOBAL_UNCERTAINTY_ASSIGNED_CONTEXT ( ( #163 ) ) GLOBAL_UNIT_ASSIGNED_CONTEXT ( ( #95, #218, #291 ) ) REPRESENTATION_CONTEXT ( 'NONE', 'WORKASPACE' ) );
#237 = SURFACE_STYLE_FILL_AREA ( #112 ) ;
#238 =( NAMED_UNIT ( * ) PLANE_ANGLE_UNIT ( ) SI_UNIT ( $, .RADIAN. ) );
#239 = CARTESIAN_POINT ( 'NONE',  ( 0.000000000000000000, 0.000000000000000000, -0.2500000000000000000 ) ) ;
#240 = COLOUR_RGB ( '',1.000000000000000000, 0.000000000000000000, 0.000000000000000000 ) ;
#241 = PRESENTATION_STYLE_ASSIGNMENT (( #149 ) ) ;
#242 = VECTOR ( 'NONE', #151, 39.37007874015748143 ) ;
#243 = CARTESIAN_POINT ( 'NONE',  ( 0.000000000000000000, 1.250000000000000000, 0.000000000000000000 ) ) ;
#244 = CARTESIAN_POINT ( 'NONE',  ( 0.000000000000000000, 1.250000000000000000, 0.000000000000000000 ) ) ;
#245 = ORIENTED_EDGE ( 'NONE', *, *, #259, .T. ) ;
#246 = DIRECTION ( 'NONE',  ( 0.000000000000000000, -0.000000000000000000, 1.000000000000000000 ) ) ;
#247 = EDGE_LOOP ( 'NONE', ( #280, #105 ) ) ;
#248 = COLOUR_RGB ( '',0.7921568627450980005, 0.8196078431372548767, 0.9333333333333333481 ) ;
#249 = DIRECTION ( 'NONE',  ( 3.498990854706726443E-17, -1.000000000000000000, 0.000000000000000000 ) ) ;
#250 = ORIENTED_EDGE ( 'NONE', *, *, #103, .F. ) ;
#251 =( CONVERSION_BASED_UNIT ( 'INCH', #230 ) LENGTH_UNIT ( ) NAMED_UNIT ( #146 ) );
#252 = VERTEX_POINT ( 'NONE', #36 ) ;
#253 = UNCERTAINTY_MEASURE_WITH_UNIT (LENGTH_MEASURE( 1.000000000000000082E-05 ), #251, 'distance_accuracy_value', 'NONE');
#254 =( NAMED_UNIT ( * ) SI_UNIT ( $, .STERADIAN. ) SOLID_ANGLE_UNIT ( ) );
#255 = CLOSED_SHELL ( 'NONE', ( #166, #192, #9, #225 ) ) ;
#256 = PLANE ( 'NONE',  #145 ) ;
#257 = CARTESIAN_POINT ( 'NONE',  ( -6.123233995736772199E-17, 3.000000000000000444, 0.000000000000000000 ) ) ;
#258 = EDGE_CURVE ( 'NONE', #296, #102, #100, .T. ) ;
#259 = EDGE_CURVE ( 'NONE', #296, #252, #38, .T. ) ;
#260 = DIRECTION ( 'NONE',  ( 1.000000000000000000, 0.000000000000000000, 0.000000000000000000 ) ) ;
#261 = COLOUR_RGB ( '',1.000000000000000000, 0.000000000000000000, 0.000000000000000000 ) ;
#262 = CARTESIAN_POINT ( 'NONE',  ( -0.2500000000000001110, 3.000000000000000444, 0.000000000000000000 ) ) ;
#263 = DIRECTION ( 'NONE',  ( -0.000000000000000000, -1.000000000000000000, -0.000000000000000000 ) ) ;
#264 = LENGTH_MEASURE_WITH_UNIT ( LENGTH_MEASURE( 0.02539999999999999897 ), #27 );
#265 = AXIS2_PLACEMENT_3D ( 'NONE', #303, #287, #74 ) ;
#266 = CIRCLE ( 'NONE', #19, 0.2500000000000000000 ) ;
#267 = EDGE_CURVE ( 'NONE', #152, #298, #56, .T. ) ;
#268 = DIRECTION ( 'NONE',  ( 0.000000000000000000, 0.000000000000000000, -1.000000000000000000 ) ) ;
#269 = LENGTH_MEASURE_WITH_UNIT ( LENGTH_MEASURE( 0.02539999999999999897 ), #193 );
#270 = MECHANICAL_DESIGN_GEOMETRIC_PRESENTATION_REPRESENTATION (  '', ( #231 ), #236 ) ;
#271 = PLANE ( 'NONE',  #122 ) ;
#272 = ORIENTED_EDGE ( 'NONE', *, *, #304, .T. ) ;
#273 = ORIENTED_EDGE ( 'NONE', *, *, #258, .F. ) ;
#274 = EDGE_CURVE ( 'NONE', #65, #199, #165, .T. ) ;
#275 = ORIENTED_EDGE ( 'NONE', *, *, #274, .F. ) ;
#276 = PRESENTATION_LAYER_ASSIGNMENT (  '', '', ( #32 ) ) ;
#277 = DIRECTION ( 'NONE',  ( -1.000000000000000000, 0.000000000000000000, 0.000000000000000000 ) ) ;
#278 = SURFACE_SIDE_STYLE ('',( #293 ) ) ;
#279 = PRESENTATION_STYLE_ASSIGNMENT (( #177 ) ) ;
#280 = ORIENTED_EDGE ( 'NONE', *, *, #63, .T. ) ;
#281 = DIRECTION ( 'NONE',  ( 0.000000000000000000, 0.000000000000000000, 1.000000000000000000 ) ) ;
#282 =( NAMED_UNIT ( * ) PLANE_ANGLE_UNIT ( ) SI_UNIT ( $, .RADIAN. ) );
#283 = PRESENTATION_LAYER_ASSIGNMENT (  '', '', ( #108 ) ) ;
#284 = EDGE_CURVE ( 'NONE', #199, #65, #77, .T. ) ;
#285 = CARTESIAN_POINT ( 'NONE',  ( 0.000000000000000000, 0.000000000000000000, 0.000000000000000000 ) ) ;
#286 = FILL_AREA_STYLE_COLOUR ( '', #185 ) ;
#287 = DIRECTION ( 'NONE',  ( -0.000000000000000000, -1.000000000000000000, -0.000000000000000000 ) ) ;
#288 = CARTESIAN_POINT ( 'NONE',  ( 3.061616997868383018E-17, 0.000000000000000000, 0.2500000000000000000 ) ) ;
#289 = FILL_AREA_STYLE_COLOUR ( '', #170 ) ;
#290 = DIRECTION ( 'NONE',  ( -0.000000000000000000, -1.000000000000000000, -0.000000000000000000 ) ) ;
#291 =( NAMED_UNIT ( * ) SI_UNIT ( $, .STERADIAN. ) SOLID_ANGLE_UNIT ( ) );
#292 = COLOUR_RGB ( '',1.000000000000000000, 0.000000000000000000, 0.000000000000000000 ) ;
#293 = SURFACE_STYLE_FILL_AREA ( #201 ) ;
#294 = AXIS2_PLACEMENT_3D ( 'NONE', #243, #33, #277 ) ;
#295 = AXIS2_PLACEMENT_3D ( 'NONE', #207, #212, #302 ) ;
#296 = VERTEX_POINT ( 'NONE', #224 ) ;
#297 = DIRECTION ( 'NONE',  ( -0.000000000000000000, -1.000000000000000000, -0.000000000000000000 ) ) ;
#298 = VERTEX_POINT ( 'NONE', #13 ) ;
#299 = DIRECTION ( 'NONE',  ( -1.000000000000000000, 0.000000000000000000, 0.000000000000000000 ) ) ;
#300 = AXIS2_PLACEMENT_3D ( 'NONE', #153, #39, #98 ) ;
#301 =( LENGTH_UNIT ( ) NAMED_UNIT ( * ) SI_UNIT ( $, .METRE. ) );
#302 = DIRECTION ( 'NONE',  ( -1.000000000000000000, 0.000000000000000000, 0.000000000000000000 ) ) ;
#303 = CARTESIAN_POINT ( 'NONE',  ( 0.000000000000000000, 0.000000000000000000, 0.000000000000000000 ) ) ;
#304 = EDGE_CURVE ( 'NONE', #298, #152, #47, .T. ) ;
#305 = ADVANCED_FACE ( 'NONE', ( #85 ), #117, .T. ) ;
#306 = CIRCLE ( 'NONE', #114, 0.2500000000000000000 ) ;
#307 = APPLICATION_PROTOCOL_DEFINITION ( 'draft international standard', 'automotive_design', 1998, #139 ) ;
#308 = AXIS2_PLACEMENT_3D ( 'NONE', #168, #281, #260 ) ;
#309 = DIRECTION ( 'NONE',  ( -3.498990854706726443E-17, 1.000000000000000000, -0.000000000000000000 ) ) ;
ENDSEC;
END-ISO-10303-21;
