ISO-10303-21;
HEADER;
FILE_DESCRIPTION (( 'STEP AP214' ),
    '1' );
FILE_NAME ('00167.STEP',
    '2023-06-22T14:03:47',
    ( '' ),
    ( '' ),
    'SwSTEP 2.0',
    'SolidWorks 2023',
    '' );
FILE_SCHEMA (( 'AUTOMOTIVE_DESIGN' ));
ENDSEC;

DATA;
#1 = AXIS2_PLACEMENT_3D ( 'NONE', #83, #138, #200 ) ;
#2 = APPLICATION_CONTEXT ( 'automotive_design' ) ;
#3 =( CONVERSION_BASED_UNIT ( 'INCH', #210 ) LENGTH_UNIT ( ) NAMED_UNIT ( #24 ) );
#4 = ORIENTED_EDGE ( 'NONE', *, *, #100, .F. ) ;
#5 = ADVANCED_FACE ( 'NONE', ( #238 ), #38, .T. ) ;
#6 = SURFACE_SIDE_STYLE ('',( #272 ) ) ;
#7 = EDGE_LOOP ( 'NONE', ( #149, #28, #292, #125 ) ) ;
#8 = EDGE_CURVE ( 'NONE', #11, #260, #209, .T. ) ;
#9 = ORIENTED_EDGE ( 'NONE', *, *, #80, .T. ) ;
#10 =( CONVERSION_BASED_UNIT ( 'INCH', #106 ) LENGTH_UNIT ( ) NAMED_UNIT ( #257 ) );
#11 = VERTEX_POINT ( 'NONE', #160 ) ;
#12 = DIRECTION ( 'NONE',  ( 1.000000000000000000, 0.000000000000000000, 0.000000000000000000 ) ) ;
#13 = DIRECTION ( 'NONE',  ( -3.498990854706722745E-17, 1.000000000000000000, -0.000000000000000000 ) ) ;
#14 = STYLED_ITEM ( 'NONE', ( #275 ), #184 ) ;
#15 =( LENGTH_UNIT ( ) NAMED_UNIT ( * ) SI_UNIT ( $, .METRE. ) );
#16 = FACE_OUTER_BOUND ( 'NONE', #7, .T. ) ;
#17 = FACE_OUTER_BOUND ( 'NONE', #217, .T. ) ;
#18 = SURFACE_STYLE_USAGE ( .BOTH. , #162 ) ;
#19 =( CONVERSION_BASED_UNIT ( 'INCH', #113 ) LENGTH_UNIT ( ) NAMED_UNIT ( #144 ) );
#20 = LENGTH_MEASURE_WITH_UNIT ( LENGTH_MEASURE( 0.02539999999999999897 ), #267 );
#21 = AXIS2_PLACEMENT_3D ( 'NONE', #265, #221, #75 ) ;
#22 = UNCERTAINTY_MEASURE_WITH_UNIT (LENGTH_MEASURE( 1.000000000000000082E-05 ), #3, 'distance_accuracy_value', 'NONE');
#23 =( NAMED_UNIT ( * ) SI_UNIT ( $, .STERADIAN. ) SOLID_ANGLE_UNIT ( ) );
#24 = DIMENSIONAL_EXPONENTS ( 1.000000000000000000, 0.000000000000000000, 0.000000000000000000, 0.000000000000000000, 0.000000000000000000, 0.000000000000000000, 0.000000000000000000 ) ;
#25 = CARTESIAN_POINT ( 'NONE',  ( 7.651835625825800871E-35, 0.7500000000000001110, 0.000000000000000000 ) ) ;
#26 = LINE ( 'NONE', #27, #271 ) ;
#27 = CARTESIAN_POINT ( 'NONE',  ( 0.1249999999999999584, 2.500000000000000000, 1.530808498934191817E-17 ) ) ;
#28 = ORIENTED_EDGE ( 'NONE', *, *, #202, .T. ) ;
#29 = FACE_OUTER_BOUND ( 'NONE', #169, .T. ) ;
#30 = FILL_AREA_STYLE ('',( #131 ) ) ;
#31 = CARTESIAN_POINT ( 'NONE',  ( 0.000000000000000000, 0.000000000000000000, 0.000000000000000000 ) ) ;
#32 = EDGE_LOOP ( 'NONE', ( #290, #101, #174, #151 ) ) ;
#33 = EDGE_CURVE ( 'NONE', #76, #196, #121, .T. ) ;
#34 = AXIS2_PLACEMENT_3D ( 'NONE', #213, #190, #288 ) ;
#35 = SURFACE_SIDE_STYLE ('',( #177 ) ) ;
#36 = VERTEX_POINT ( 'NONE', #307 ) ;
#37 = LINE ( 'NONE', #73, #289 ) ;
#38 = PLANE ( 'NONE',  #182 ) ;
#39 = PLANE ( 'NONE',  #242 ) ;
#40 = AXIS2_PLACEMENT_3D ( 'NONE', #245, #248, #42 ) ;
#41 = DIRECTION ( 'NONE',  ( -1.000000000000000000, 0.000000000000000000, 0.000000000000000000 ) ) ;
#42 = DIRECTION ( 'NONE',  ( -1.000000000000000000, 0.000000000000000000, 0.000000000000000000 ) ) ;
#43 = LENGTH_MEASURE_WITH_UNIT ( LENGTH_MEASURE( 0.02539999999999999897 ), #253 );
#44 = AXIS2_PLACEMENT_3D ( 'NONE', #229, #204, #66 ) ;
#45 = ADVANCED_FACE ( 'NONE', ( #16 ), #109, .T. ) ;
#46 = DIRECTION ( 'NONE',  ( -1.000000000000000000, -3.498990854706722745E-17, 0.000000000000000000 ) ) ;
#47 = PRESENTATION_LAYER_ASSIGNMENT (  '', '', ( #89 ) ) ;
#48 = CARTESIAN_POINT ( 'NONE',  ( 0.1250000000000000278, 2.500000000000000000, 1.530808498934192125E-17 ) ) ;
#49 = ORIENTED_EDGE ( 'NONE', *, *, #100, .T. ) ;
#50 = PLANE ( 'NONE',  #140 ) ;
#51 = ORIENTED_EDGE ( 'NONE', *, *, #33, .T. ) ;
#52 = PRODUCT_DEFINITION_SHAPE ( 'NONE', 'NONE',  #266 ) ;
#53 = EDGE_LOOP ( 'NONE', ( #294, #191 ) ) ;
#54 = STYLED_ITEM ( 'NONE', ( #247 ), #130 ) ;
#55 = CARTESIAN_POINT ( 'NONE',  ( 0.000000000000000000, 0.000000000000000000, -0.1250000000000000000 ) ) ;
#56 = ORIENTED_EDGE ( 'NONE', *, *, #74, .F. ) ;
#57 = DIRECTION ( 'NONE',  ( 0.000000000000000000, 1.000000000000000000, 0.000000000000000000 ) ) ;
#58 = SURFACE_SIDE_STYLE ('',( #300 ) ) ;
#59 = SURFACE_STYLE_USAGE ( .BOTH. , #35 ) ;
#60 = PRESENTATION_LAYER_ASSIGNMENT (  '', '', ( #168 ) ) ;
#61 = FILL_AREA_STYLE_COLOUR ( '', #199 ) ;
#62 =( CONVERSION_BASED_UNIT ( 'INCH', #20 ) LENGTH_UNIT ( ) NAMED_UNIT ( #92 ) );
#63 = ADVANCED_FACE ( 'NONE', ( #175 ), #39, .T. ) ;
#64 = COLOUR_RGB ( '',1.000000000000000000, 0.000000000000000000, 0.000000000000000000 ) ;
#65 =( NAMED_UNIT ( * ) SI_UNIT ( $, .STERADIAN. ) SOLID_ANGLE_UNIT ( ) );
#66 = DIRECTION ( 'NONE',  ( 0.000000000000000000, 0.000000000000000000, -1.000000000000000000 ) ) ;
#67 =( CONVERSION_BASED_UNIT ( 'INCH', #232 ) LENGTH_UNIT ( ) NAMED_UNIT ( #118 ) );
#68 = CIRCLE ( 'NONE', #165, 0.1250000000000000000 ) ;
#69 = CARTESIAN_POINT ( 'NONE',  ( -6.123233995736766036E-17, 2.500000000000000000, 0.000000000000000000 ) ) ;
#70 = MECHANICAL_DESIGN_GEOMETRIC_PRESENTATION_REPRESENTATION (  '', ( #168 ), #187 ) ;
#71 =( GEOMETRIC_REPRESENTATION_CONTEXT ( 3 ) GLOBAL_UNCERTAINTY_ASSIGNED_CONTEXT ( ( #95 ) ) GLOBAL_UNIT_ASSIGNED_CONTEXT ( ( #67, #166, #146 ) ) REPRESENTATION_CONTEXT ( 'NONE', 'WORKASPACE' ) );
#72 = ORIENTED_EDGE ( 'NONE', *, *, #301, .T. ) ;
#73 = CARTESIAN_POINT ( 'NONE',  ( 1.530808498934191509E-17, 0.000000000000000000, 0.1250000000000000000 ) ) ;
#74 = EDGE_CURVE ( 'NONE', #260, #11, #115, .T. ) ;
#75 = DIRECTION ( 'NONE',  ( -1.000000000000000000, 0.000000000000000000, 0.000000000000000000 ) ) ;
#76 = VERTEX_POINT ( 'NONE', #197 ) ;
#77 = STYLED_ITEM ( 'NONE', ( #225 ), #5 ) ;
#78 = DIRECTION ( 'NONE',  ( 1.000000000000000000, 3.498990854706722745E-17, 0.000000000000000000 ) ) ;
#79 = DIRECTION ( 'NONE',  ( -1.000000000000000000, 0.000000000000000000, 0.000000000000000000 ) ) ;
#80 = EDGE_CURVE ( 'NONE', #196, #36, #37, .T. ) ;
#81 = FILL_AREA_STYLE ('',( #302 ) ) ;
#82 = PRESENTATION_STYLE_ASSIGNMENT (( #157 ) ) ;
#83 = CARTESIAN_POINT ( 'NONE',  ( 0.000000000000000000, 0.7500000000000001110, 0.000000000000000000 ) ) ;
#84 = FILL_AREA_STYLE_COLOUR ( '', #105 ) ;
#85 = AXIS2_PLACEMENT_3D ( 'NONE', #287, #261, #93 ) ;
#86 = ADVANCED_FACE ( 'NONE', ( #17 ), #296, .F. ) ;
#87 = FACE_OUTER_BOUND ( 'NONE', #32, .T. ) ;
#88 = CYLINDRICAL_SURFACE ( 'NONE', #44, 0.1250000000000000000 ) ;
#89 = STYLED_ITEM ( 'NONE', ( #82 ), #63 ) ;
#90 =( NAMED_UNIT ( * ) PLANE_ANGLE_UNIT ( ) SI_UNIT ( $, .RADIAN. ) );
#91 =( LENGTH_UNIT ( ) NAMED_UNIT ( * ) SI_UNIT ( $, .METRE. ) );
#92 = DIMENSIONAL_EXPONENTS ( 1.000000000000000000, 0.000000000000000000, 0.000000000000000000, 0.000000000000000000, 0.000000000000000000, 0.000000000000000000, 0.000000000000000000 ) ;
#93 = DIRECTION ( 'NONE',  ( 0.000000000000000000, 0.000000000000000000, -1.000000000000000000 ) ) ;
#94 =( GEOMETRIC_REPRESENTATION_CONTEXT ( 3 ) GLOBAL_UNCERTAINTY_ASSIGNED_CONTEXT ( ( #207 ) ) GLOBAL_UNIT_ASSIGNED_CONTEXT ( ( #62, #112, #304 ) ) REPRESENTATION_CONTEXT ( 'NONE', 'WORKASPACE' ) );
#95 = UNCERTAINTY_MEASURE_WITH_UNIT (LENGTH_MEASURE( 1.000000000000000082E-05 ), #67, 'distance_accuracy_value', 'NONE');
#96 = DIRECTION ( 'NONE',  ( -0.000000000000000000, -1.000000000000000000, -0.000000000000000000 ) ) ;
#97 = VERTEX_POINT ( 'NONE', #55 ) ;
#98 =( NAMED_UNIT ( * ) PLANE_ANGLE_UNIT ( ) SI_UNIT ( $, .RADIAN. ) );
#99 = MECHANICAL_DESIGN_GEOMETRIC_PRESENTATION_REPRESENTATION (  '', ( #89 ), #158 ) ;
#100 = EDGE_CURVE ( 'NONE', #171, #240, #111, .T. ) ;
#101 = ORIENTED_EDGE ( 'NONE', *, *, #212, .T. ) ;
#102 = ORIENTED_EDGE ( 'NONE', *, *, #119, .T. ) ;
#103 = UNCERTAINTY_MEASURE_WITH_UNIT (LENGTH_MEASURE( 1.000000000000000082E-05 ), #19, 'distance_accuracy_value', 'NONE');
#104 = ORIENTED_EDGE ( 'NONE', *, *, #202, .F. ) ;
#105 = COLOUR_RGB ( '',1.000000000000000000, 0.000000000000000000, 0.000000000000000000 ) ;
#106 = LENGTH_MEASURE_WITH_UNIT ( LENGTH_MEASURE( 0.02539999999999999897 ), #15 );
#107 = APPLICATION_CONTEXT ( 'automotive_design' ) ;
#108 = DIRECTION ( 'NONE',  ( -1.000000000000000000, 0.000000000000000000, 0.000000000000000000 ) ) ;
#109 = CYLINDRICAL_SURFACE ( 'NONE', #40, 0.1250000000000000278 ) ;
#110 = DIRECTION ( 'NONE',  ( -3.498990854706722745E-17, 1.000000000000000000, -0.000000000000000000 ) ) ;
#111 = CIRCLE ( 'NONE', #21, 0.1250000000000000000 ) ;
#112 =( NAMED_UNIT ( * ) PLANE_ANGLE_UNIT ( ) SI_UNIT ( $, .RADIAN. ) );
#113 = LENGTH_MEASURE_WITH_UNIT ( LENGTH_MEASURE( 0.02539999999999999897 ), #274 );
#114 = UNCERTAINTY_MEASURE_WITH_UNIT (LENGTH_MEASURE( 1.000000000000000082E-05 ), #10, 'distance_accuracy_value', 'NONE');
#115 = CIRCLE ( 'NONE', #122, 0.1250000000000000555 ) ;
#116 =( GEOMETRIC_REPRESENTATION_CONTEXT ( 3 ) GLOBAL_UNCERTAINTY_ASSIGNED_CONTEXT ( ( #22 ) ) GLOBAL_UNIT_ASSIGNED_CONTEXT ( ( #3, #98, #189 ) ) REPRESENTATION_CONTEXT ( 'NONE', 'WORKASPACE' ) );
#117 = UNCERTAINTY_MEASURE_WITH_UNIT (LENGTH_MEASURE( 1.000000000000000082E-05 ), #228, 'distance_accuracy_value', 'NONE');
#118 = DIMENSIONAL_EXPONENTS ( 1.000000000000000000, 0.000000000000000000, 0.000000000000000000, 0.000000000000000000, 0.000000000000000000, 0.000000000000000000, 0.000000000000000000 ) ;
#119 = EDGE_CURVE ( 'NONE', #240, #11, #132, .T. ) ;
#120 = EDGE_CURVE ( 'NONE', #240, #171, #297, .T. ) ;
#121 = CIRCLE ( 'NONE', #1, 0.1250000000000000000 ) ;
#122 = AXIS2_PLACEMENT_3D ( 'NONE', #194, #268, #79 ) ;
#123 = AXIS2_PLACEMENT_3D ( 'NONE', #69, #259, #188 ) ;
#124 = DIRECTION ( 'NONE',  ( -3.498990854706722745E-17, 1.000000000000000000, 0.000000000000000000 ) ) ;
#125 = ORIENTED_EDGE ( 'NONE', *, *, #119, .F. ) ;
#126 = DIRECTION ( 'NONE',  ( 0.000000000000000000, 0.000000000000000000, -1.000000000000000000 ) ) ;
#127 = SURFACE_STYLE_FILL_AREA ( #30 ) ;
#128 = STYLED_ITEM ( 'NONE', ( #208 ), #192 ) ;
#129 = CIRCLE ( 'NONE', #85, 0.1250000000000000000 ) ;
#130 = MANIFOLD_SOLID_BREP ( 'Revolve - Tool Body (Straight Shanked)', #276 ) ;
#131 = FILL_AREA_STYLE_COLOUR ( '', #64 ) ;
#132 = LINE ( 'NONE', #154, #234 ) ;
#133 = CARTESIAN_POINT ( 'NONE',  ( -6.123233995736766036E-17, 2.500000000000000000, 0.000000000000000000 ) ) ;
#134 = MANIFOLD_SOLID_BREP ( 'Revolve - Cutting Edge', #252 ) ;
#135 =( NAMED_UNIT ( * ) PLANE_ANGLE_UNIT ( ) SI_UNIT ( $, .RADIAN. ) );
#136 =( LENGTH_UNIT ( ) NAMED_UNIT ( * ) SI_UNIT ( $, .METRE. ) );
#137 = FILL_AREA_STYLE ('',( #141 ) ) ;
#138 = DIRECTION ( 'NONE',  ( -0.000000000000000000, -1.000000000000000000, -0.000000000000000000 ) ) ;
#139 = AXIS2_PLACEMENT_3D ( 'NONE', #133, #180, #41 ) ;
#140 = AXIS2_PLACEMENT_3D ( 'NONE', #25, #124, #46 ) ;
#141 = FILL_AREA_STYLE_COLOUR ( '', #270 ) ;
#142 =( NAMED_UNIT ( * ) PLANE_ANGLE_UNIT ( ) SI_UNIT ( $, .RADIAN. ) );
#143 = MECHANICAL_DESIGN_GEOMETRIC_PRESENTATION_REPRESENTATION (  '', ( #14 ), #178 ) ;
#144 = DIMENSIONAL_EXPONENTS ( 1.000000000000000000, 0.000000000000000000, 0.000000000000000000, 0.000000000000000000, 0.000000000000000000, 0.000000000000000000, 0.000000000000000000 ) ;
#145 = PRODUCT_RELATED_PRODUCT_CATEGORY ( 'part', '', ( #239 ) ) ;
#146 =( NAMED_UNIT ( * ) SI_UNIT ( $, .STERADIAN. ) SOLID_ANGLE_UNIT ( ) );
#147 = CIRCLE ( 'NONE', #34, 0.1250000000000000000 ) ;
#148 = LINE ( 'NONE', #186, #235 ) ;
#149 = ORIENTED_EDGE ( 'NONE', *, *, #120, .T. ) ;
#150 =( LENGTH_UNIT ( ) NAMED_UNIT ( * ) SI_UNIT ( $, .METRE. ) );
#151 = ORIENTED_EDGE ( 'NONE', *, *, #283, .F. ) ;
#152 = SHAPE_DEFINITION_REPRESENTATION ( #52, #280 ) ;
#153 = DIRECTION ( 'NONE',  ( 0.000000000000000000, 0.000000000000000000, 1.000000000000000000 ) ) ;
#154 = CARTESIAN_POINT ( 'NONE',  ( -0.1250000000000001110, 2.500000000000000000, 0.000000000000000000 ) ) ;
#155 = EDGE_LOOP ( 'NONE', ( #51, #9, #211, #195 ) ) ;
#156 = DIRECTION ( 'NONE',  ( 0.000000000000000000, 0.000000000000000000, -1.000000000000000000 ) ) ;
#157 = SURFACE_STYLE_USAGE ( .BOTH. , #58 ) ;
#158 =( GEOMETRIC_REPRESENTATION_CONTEXT ( 3 ) GLOBAL_UNCERTAINTY_ASSIGNED_CONTEXT ( ( #114 ) ) GLOBAL_UNIT_ASSIGNED_CONTEXT ( ( #10, #135, #176 ) ) REPRESENTATION_CONTEXT ( 'NONE', 'WORKASPACE' ) );
#159 = DIRECTION ( 'NONE',  ( 3.498990854706722745E-17, -1.000000000000000000, 0.000000000000000000 ) ) ;
#160 = CARTESIAN_POINT ( 'NONE',  ( -0.1250000000000001388, 2.500000000000000000, 0.000000000000000000 ) ) ;
#161 = COLOUR_RGB ( '',1.000000000000000000, 0.000000000000000000, 0.000000000000000000 ) ;
#162 = SURFACE_SIDE_STYLE ('',( #309 ) ) ;
#163 = SURFACE_STYLE_USAGE ( .BOTH. , #6 ) ;
#164 = AXIS2_PLACEMENT_3D ( 'NONE', #224, #159, #78 ) ;
#165 = AXIS2_PLACEMENT_3D ( 'NONE', #286, #206, #126 ) ;
#166 =( NAMED_UNIT ( * ) PLANE_ANGLE_UNIT ( ) SI_UNIT ( $, .RADIAN. ) );
#167 = CARTESIAN_POINT ( 'NONE',  ( 1.530808498934191509E-17, 0.7500000000000001110, 0.1250000000000000000 ) ) ;
#168 = STYLED_ITEM ( 'NONE', ( #226 ), #134 ) ;
#169 = EDGE_LOOP ( 'NONE', ( #104, #49, #102, #56 ) ) ;
#170 = DIRECTION ( 'NONE',  ( -3.498990854706722745E-17, 1.000000000000000000, -0.000000000000000000 ) ) ;
#171 = VERTEX_POINT ( 'NONE', #299 ) ;
#172 = CARTESIAN_POINT ( 'NONE',  ( 0.000000000000000000, 0.000000000000000000, 0.000000000000000000 ) ) ;
#173 = ORIENTED_EDGE ( 'NONE', *, *, #120, .F. ) ;
#174 = ORIENTED_EDGE ( 'NONE', *, *, #254, .T. ) ;
#175 = FACE_OUTER_BOUND ( 'NONE', #193, .T. ) ;
#176 =( NAMED_UNIT ( * ) SI_UNIT ( $, .STERADIAN. ) SOLID_ANGLE_UNIT ( ) );
#177 = SURFACE_STYLE_FILL_AREA ( #81 ) ;
#178 =( GEOMETRIC_REPRESENTATION_CONTEXT ( 3 ) GLOBAL_UNCERTAINTY_ASSIGNED_CONTEXT ( ( #117 ) ) GLOBAL_UNIT_ASSIGNED_CONTEXT ( ( #228, #142, #23 ) ) REPRESENTATION_CONTEXT ( 'NONE', 'WORKASPACE' ) );
#179 = FILL_AREA_STYLE ('',( #84 ) ) ;
#180 = DIRECTION ( 'NONE',  ( -3.498990854706722745E-17, 1.000000000000000000, -0.000000000000000000 ) ) ;
#181 = SURFACE_STYLE_USAGE ( .BOTH. , #250 ) ;
#182 = AXIS2_PLACEMENT_3D ( 'NONE', #198, #57, #273 ) ;
#183 = SURFACE_STYLE_FILL_AREA ( #201 ) ;
#184 = ADVANCED_FACE ( 'NONE', ( #87 ), #88, .T. ) ;
#185 = DIRECTION ( 'NONE',  ( 0.000000000000000000, 0.000000000000000000, -1.000000000000000000 ) ) ;
#186 = CARTESIAN_POINT ( 'NONE',  ( 0.000000000000000000, 0.000000000000000000, -0.1250000000000000000 ) ) ;
#187 =( GEOMETRIC_REPRESENTATION_CONTEXT ( 3 ) GLOBAL_UNCERTAINTY_ASSIGNED_CONTEXT ( ( #103 ) ) GLOBAL_UNIT_ASSIGNED_CONTEXT ( ( #19, #279, #65 ) ) REPRESENTATION_CONTEXT ( 'NONE', 'WORKASPACE' ) );
#188 = DIRECTION ( 'NONE',  ( -1.000000000000000000, 0.000000000000000000, 0.000000000000000000 ) ) ;
#189 =( NAMED_UNIT ( * ) SI_UNIT ( $, .STERADIAN. ) SOLID_ANGLE_UNIT ( ) );
#190 = DIRECTION ( 'NONE',  ( -0.000000000000000000, -1.000000000000000000, -0.000000000000000000 ) ) ;
#191 = ORIENTED_EDGE ( 'NONE', *, *, #212, .F. ) ;
#192 = ADVANCED_FACE ( 'NONE', ( #251 ), #303, .T. ) ;
#193 = EDGE_LOOP ( 'NONE', ( #72, #243 ) ) ;
#194 = CARTESIAN_POINT ( 'NONE',  ( -6.123233995736766036E-17, 2.500000000000000000, 0.000000000000000000 ) ) ;
#195 = ORIENTED_EDGE ( 'NONE', *, *, #254, .F. ) ;
#196 = VERTEX_POINT ( 'NONE', #167 ) ;
#197 = CARTESIAN_POINT ( 'NONE',  ( 0.000000000000000000, 0.7500000000000001110, -0.1250000000000000000 ) ) ;
#198 = CARTESIAN_POINT ( 'NONE',  ( 0.000000000000000000, 0.7500000000000001110, 0.000000000000000000 ) ) ;
#199 = COLOUR_RGB ( '',0.7921568627450980005, 0.8196078431372548767, 0.9333333333333333481 ) ;
#200 = DIRECTION ( 'NONE',  ( 0.000000000000000000, 0.000000000000000000, -1.000000000000000000 ) ) ;
#201 = FILL_AREA_STYLE ('',( #61 ) ) ;
#202 = EDGE_CURVE ( 'NONE', #171, #260, #26, .T. ) ;
#203 = COLOUR_RGB ( '',0.7921568627450980005, 0.8196078431372548767, 0.9333333333333333481 ) ;
#204 = DIRECTION ( 'NONE',  ( -0.000000000000000000, -1.000000000000000000, -0.000000000000000000 ) ) ;
#205 = CYLINDRICAL_SURFACE ( 'NONE', #123, 0.1250000000000000278 ) ;
#206 = DIRECTION ( 'NONE',  ( -0.000000000000000000, -1.000000000000000000, -0.000000000000000000 ) ) ;
#207 = UNCERTAINTY_MEASURE_WITH_UNIT (LENGTH_MEASURE( 1.000000000000000082E-05 ), #62, 'distance_accuracy_value', 'NONE');
#208 = PRESENTATION_STYLE_ASSIGNMENT (( #163 ) ) ;
#209 = CIRCLE ( 'NONE', #139, 0.1250000000000000555 ) ;
#210 = LENGTH_MEASURE_WITH_UNIT ( LENGTH_MEASURE( 0.02539999999999999897 ), #91 );
#211 = ORIENTED_EDGE ( 'NONE', *, *, #301, .F. ) ;
#212 = EDGE_CURVE ( 'NONE', #196, #76, #129, .T. ) ;
#213 = CARTESIAN_POINT ( 'NONE',  ( 0.000000000000000000, 0.000000000000000000, 0.000000000000000000 ) ) ;
#214 = SURFACE_SIDE_STYLE ('',( #127 ) ) ;
#215 = MECHANICAL_DESIGN_GEOMETRIC_PRESENTATION_REPRESENTATION (  '', ( #128 ), #116 ) ;
#216 = DIRECTION ( 'NONE',  ( 0.000000000000000000, -1.000000000000000000, -0.000000000000000000 ) ) ;
#217 = EDGE_LOOP ( 'NONE', ( #298, #236 ) ) ;
#218 = CARTESIAN_POINT ( 'NONE',  ( 0.000000000000000000, 0.000000000000000000, 0.000000000000000000 ) ) ;
#219 = CARTESIAN_POINT ( 'NONE',  ( -7.582401355855259480E-33, 0.7499999999999998890, 0.000000000000000000 ) ) ;
#220 = PRESENTATION_LAYER_ASSIGNMENT (  '', '', ( #54 ) ) ;
#221 = DIRECTION ( 'NONE',  ( -3.498990854706722745E-17, 1.000000000000000000, -0.000000000000000000 ) ) ;
#222 = FILL_AREA_STYLE_COLOUR ( '', #161 ) ;
#223 = ADVANCED_FACE ( 'NONE', ( #29 ), #205, .T. ) ;
#224 = CARTESIAN_POINT ( 'NONE',  ( 0.1250000000000000000, 2.500000000000000000, 0.000000000000000000 ) ) ;
#225 = PRESENTATION_STYLE_ASSIGNMENT (( #269 ) ) ;
#226 = PRESENTATION_STYLE_ASSIGNMENT (( #181 ) ) ;
#227 = PRESENTATION_LAYER_ASSIGNMENT (  '', '', ( #14 ) ) ;
#228 =( CONVERSION_BASED_UNIT ( 'INCH', #43 ) LENGTH_UNIT ( ) NAMED_UNIT ( #231 ) );
#229 = CARTESIAN_POINT ( 'NONE',  ( 0.000000000000000000, 0.000000000000000000, 0.000000000000000000 ) ) ;
#230 = AXIS2_PLACEMENT_3D ( 'NONE', #219, #13, #108 ) ;
#231 = DIMENSIONAL_EXPONENTS ( 1.000000000000000000, 0.000000000000000000, 0.000000000000000000, 0.000000000000000000, 0.000000000000000000, 0.000000000000000000, 0.000000000000000000 ) ;
#232 = LENGTH_MEASURE_WITH_UNIT ( LENGTH_MEASURE( 0.02539999999999999897 ), #150 );
#233 = UNCERTAINTY_MEASURE_WITH_UNIT (LENGTH_MEASURE( 1.000000000000000082E-05 ), #306, 'distance_accuracy_value', 'NONE');
#234 = VECTOR ( 'NONE', #110, 39.37007874015748143 ) ;
#235 = VECTOR ( 'NONE', #96, 39.37007874015748143 ) ;
#236 = ORIENTED_EDGE ( 'NONE', *, *, #74, .T. ) ;
#237 = DIRECTION ( 'NONE',  ( -0.000000000000000000, -1.000000000000000000, -0.000000000000000000 ) ) ;
#238 = FACE_OUTER_BOUND ( 'NONE', #53, .T. ) ;
#239 = PRODUCT ( '00167', '00167', '', ( #291 ) ) ;
#240 = VERTEX_POINT ( 'NONE', #282 ) ;
#241 = LENGTH_MEASURE_WITH_UNIT ( LENGTH_MEASURE( 0.02539999999999999897 ), #136 );
#242 = AXIS2_PLACEMENT_3D ( 'NONE', #172, #216, #156 ) ;
#243 = ORIENTED_EDGE ( 'NONE', *, *, #283, .T. ) ;
#244 = FILL_AREA_STYLE ('',( #222 ) ) ;
#245 = CARTESIAN_POINT ( 'NONE',  ( -6.123233995736766036E-17, 2.500000000000000000, 0.000000000000000000 ) ) ;
#246 = PRESENTATION_LAYER_ASSIGNMENT (  '', '', ( #77 ) ) ;
#247 = PRESENTATION_STYLE_ASSIGNMENT (( #59 ) ) ;
#248 = DIRECTION ( 'NONE',  ( -3.498990854706722745E-17, 1.000000000000000000, -0.000000000000000000 ) ) ;
#249 = ADVANCED_FACE ( 'NONE', ( #258 ), #50, .F. ) ;
#250 = SURFACE_SIDE_STYLE ('',( #183 ) ) ;
#251 = FACE_OUTER_BOUND ( 'NONE', #155, .T. ) ;
#252 = CLOSED_SHELL ( 'NONE', ( #192, #5, #184, #63 ) ) ;
#253 =( LENGTH_UNIT ( ) NAMED_UNIT ( * ) SI_UNIT ( $, .METRE. ) );
#254 = EDGE_CURVE ( 'NONE', #76, #97, #148, .T. ) ;
#255 = DIMENSIONAL_EXPONENTS ( 1.000000000000000000, 0.000000000000000000, 0.000000000000000000, 0.000000000000000000, 0.000000000000000000, 0.000000000000000000, 0.000000000000000000 ) ;
#256 = AXIS2_PLACEMENT_3D ( 'NONE', #31, #237, #185 ) ;
#257 = DIMENSIONAL_EXPONENTS ( 1.000000000000000000, 0.000000000000000000, 0.000000000000000000, 0.000000000000000000, 0.000000000000000000, 0.000000000000000000, 0.000000000000000000 ) ;
#258 = FACE_OUTER_BOUND ( 'NONE', #263, .T. ) ;
#259 = DIRECTION ( 'NONE',  ( -3.498990854706722745E-17, 1.000000000000000000, -0.000000000000000000 ) ) ;
#260 = VERTEX_POINT ( 'NONE', #48 ) ;
#261 = DIRECTION ( 'NONE',  ( -0.000000000000000000, -1.000000000000000000, -0.000000000000000000 ) ) ;
#262 = MECHANICAL_DESIGN_GEOMETRIC_PRESENTATION_REPRESENTATION (  '', ( #77 ), #94 ) ;
#263 = EDGE_LOOP ( 'NONE', ( #173, #4 ) ) ;
#264 = APPLICATION_PROTOCOL_DEFINITION ( 'draft international standard', 'automotive_design', 1998, #2 ) ;
#265 = CARTESIAN_POINT ( 'NONE',  ( -7.582401355855259480E-33, 0.7499999999999998890, 0.000000000000000000 ) ) ;
#266 = PRODUCT_DEFINITION ( 'UNKNOWN', '', #278, #285 ) ;
#267 =( LENGTH_UNIT ( ) NAMED_UNIT ( * ) SI_UNIT ( $, .METRE. ) );
#268 = DIRECTION ( 'NONE',  ( -3.498990854706722745E-17, 1.000000000000000000, -0.000000000000000000 ) ) ;
#269 = SURFACE_STYLE_USAGE ( .BOTH. , #214 ) ;
#270 = COLOUR_RGB ( '',1.000000000000000000, 0.000000000000000000, 0.000000000000000000 ) ;
#271 = VECTOR ( 'NONE', #170, 39.37007874015748143 ) ;
#272 = SURFACE_STYLE_FILL_AREA ( #179 ) ;
#273 = DIRECTION ( 'NONE',  ( 0.000000000000000000, -0.000000000000000000, 1.000000000000000000 ) ) ;
#274 =( LENGTH_UNIT ( ) NAMED_UNIT ( * ) SI_UNIT ( $, .METRE. ) );
#275 = PRESENTATION_STYLE_ASSIGNMENT (( #18 ) ) ;
#276 = CLOSED_SHELL ( 'NONE', ( #45, #249, #223, #86 ) ) ;
#277 = PRESENTATION_LAYER_ASSIGNMENT (  '', '', ( #128 ) ) ;
#278 = PRODUCT_DEFINITION_FORMATION_WITH_SPECIFIED_SOURCE ( 'ANY', '', #239, .NOT_KNOWN. ) ;
#279 =( NAMED_UNIT ( * ) PLANE_ANGLE_UNIT ( ) SI_UNIT ( $, .RADIAN. ) );
#280 = ADVANCED_BREP_SHAPE_REPRESENTATION ( '00167', ( #134, #130, #308 ), #71 ) ;
#281 =( NAMED_UNIT ( * ) SI_UNIT ( $, .STERADIAN. ) SOLID_ANGLE_UNIT ( ) );
#282 = CARTESIAN_POINT ( 'NONE',  ( -0.1250000000000000000, 0.7499999999999998890, 0.000000000000000000 ) ) ;
#283 = EDGE_CURVE ( 'NONE', #36, #97, #68, .T. ) ;
#284 = MECHANICAL_DESIGN_GEOMETRIC_PRESENTATION_REPRESENTATION (  '', ( #54 ), #305 ) ;
#285 = PRODUCT_DEFINITION_CONTEXT ( 'detailed design', #2, 'design' ) ;
#286 = CARTESIAN_POINT ( 'NONE',  ( 0.000000000000000000, 0.000000000000000000, 0.000000000000000000 ) ) ;
#287 = CARTESIAN_POINT ( 'NONE',  ( 0.000000000000000000, 0.7500000000000001110, 0.000000000000000000 ) ) ;
#288 = DIRECTION ( 'NONE',  ( 0.000000000000000000, 0.000000000000000000, -1.000000000000000000 ) ) ;
#289 = VECTOR ( 'NONE', #293, 39.37007874015748143 ) ;
#290 = ORIENTED_EDGE ( 'NONE', *, *, #80, .F. ) ;
#291 = PRODUCT_CONTEXT ( 'NONE', #107, 'mechanical' ) ;
#292 = ORIENTED_EDGE ( 'NONE', *, *, #8, .F. ) ;
#293 = DIRECTION ( 'NONE',  ( -0.000000000000000000, -1.000000000000000000, -0.000000000000000000 ) ) ;
#294 = ORIENTED_EDGE ( 'NONE', *, *, #33, .F. ) ;
#295 = APPLICATION_PROTOCOL_DEFINITION ( 'draft international standard', 'automotive_design', 1998, #107 ) ;
#296 = PLANE ( 'NONE',  #164 ) ;
#297 = CIRCLE ( 'NONE', #230, 0.1250000000000000000 ) ;
#298 = ORIENTED_EDGE ( 'NONE', *, *, #8, .T. ) ;
#299 = CARTESIAN_POINT ( 'NONE',  ( 0.1250000000000000278, 0.7499999999999998890, 1.530808498934192125E-17 ) ) ;
#300 = SURFACE_STYLE_FILL_AREA ( #244 ) ;
#301 = EDGE_CURVE ( 'NONE', #97, #36, #147, .T. ) ;
#302 = FILL_AREA_STYLE_COLOUR ( '', #203 ) ;
#303 = CYLINDRICAL_SURFACE ( 'NONE', #256, 0.1250000000000000000 ) ;
#304 =( NAMED_UNIT ( * ) SI_UNIT ( $, .STERADIAN. ) SOLID_ANGLE_UNIT ( ) );
#305 =( GEOMETRIC_REPRESENTATION_CONTEXT ( 3 ) GLOBAL_UNCERTAINTY_ASSIGNED_CONTEXT ( ( #233 ) ) GLOBAL_UNIT_ASSIGNED_CONTEXT ( ( #306, #90, #281 ) ) REPRESENTATION_CONTEXT ( 'NONE', 'WORKASPACE' ) );
#306 =( CONVERSION_BASED_UNIT ( 'INCH', #241 ) LENGTH_UNIT ( ) NAMED_UNIT ( #255 ) );
#307 = CARTESIAN_POINT ( 'NONE',  ( 1.530808498934191509E-17, 0.000000000000000000, 0.1250000000000000000 ) ) ;
#308 = AXIS2_PLACEMENT_3D ( 'NONE', #218, #153, #12 ) ;
#309 = SURFACE_STYLE_FILL_AREA ( #137 ) ;
ENDSEC;
END-ISO-10303-21;
