ISO-10303-21;
HEADER;
FILE_DESCRIPTION (( 'STEP AP214' ),
    '1' );
FILE_NAME ('Micro_DM-375-4120X.STEP',
    '2021-09-02T16:05:05',
    ( '' ),
    ( '' ),
    'SwSTEP 2.0',
    'SolidWorks 2020',
    '' );
FILE_SCHEMA (( 'AUTOMOTIVE_DESIGN' ));
ENDSEC;

DATA;
#1 = FACE_OUTER_BOUND ( 'NONE', #133, .T. ) ;
#2 = ORIENTED_EDGE ( 'NONE', *, *, #187, .T. ) ;
#3 = MECHANICAL_DESIGN_GEOMETRIC_PRESENTATION_REPRESENTATION (  '', ( #106 ), #90 ) ;
#4 = AXIS2_PLACEMENT_3D ( 'NONE', #225, #145, #251 ) ;
#5 = PRODUCT_RELATED_PRODUCT_CATEGORY ( 'part', '', ( #260 ) ) ;
#6 = ORIENTED_EDGE ( 'NONE', *, *, #187, .F. ) ;
#7 = DIRECTION ( 'NONE',  ( 0.8660254037844400399, 0.0000000000000000000, 0.4999999999999976685 ) ) ;
#8 = UNCERTAINTY_MEASURE_WITH_UNIT (LENGTH_MEASURE( 1.000000000000000082E-05 ), #166, 'distance_accuracy_value', 'NONE');
#9 = CIRCLE ( 'NONE', #194, 0.1874500000000000333 ) ;
#10 = ORIENTED_EDGE ( 'NONE', *, *, #116, .F. ) ;
#11 = VERTEX_POINT ( 'NONE', #154 ) ;
#12 = PRODUCT_DEFINITION_SHAPE ( 'NONE', 'NONE',  #35 ) ;
#13 = DIRECTION ( 'NONE',  ( -1.000000000000000000, 0.0000000000000000000, 0.0000000000000000000 ) ) ;
#14 = FACE_OUTER_BOUND ( 'NONE', #210, .T. ) ;
#15 = DIRECTION ( 'NONE',  ( -1.000000000000000000, 0.0000000000000000000, 0.0000000000000000000 ) ) ;
#16 = AXIS2_PLACEMENT_3D ( 'NONE', #298, #136, #15 ) ;
#17 = PRODUCT_CONTEXT ( 'NONE', #269, 'mechanical' ) ;
#18 = CARTESIAN_POINT ( 'NONE',  ( 0.0000000000000000000, 0.0000000000000000000, 2.500000000000000000 ) ) ;
#19 = EDGE_CURVE ( 'NONE', #92, #77, #211, .T. ) ;
#20 = CARTESIAN_POINT ( 'NONE',  ( 0.0000000000000000000, 0.0000000000000000000, 0.0000000000000000000 ) ) ;
#21 = DIRECTION ( 'NONE',  ( -0.0000000000000000000, -0.0000000000000000000, -1.000000000000000000 ) ) ;
#22 = EDGE_LOOP ( 'NONE', ( #124, #54, #255, #10 ) ) ;
#23 = EDGE_LOOP ( 'NONE', ( #94, #103 ) ) ;
#24 = CYLINDRICAL_SURFACE ( 'NONE', #138, 0.1875000000000000278 ) ;
#25 = EDGE_CURVE ( 'NONE', #11, #279, #55, .T. ) ;
#26 = VECTOR ( 'NONE', #300, 39.37007874015748143 ) ;
#27 = DIRECTION ( 'NONE',  ( 1.000000000000000000, 0.0000000000000000000, 0.0000000000000000000 ) ) ;
#28 = FACE_OUTER_BOUND ( 'NONE', #329, .T. ) ;
#29 = ORIENTED_EDGE ( 'NONE', *, *, #195, .T. ) ;
#30 = ADVANCED_FACE ( 'NONE', ( #162 ), #112, .T. ) ;
#31 = ORIENTED_EDGE ( 'NONE', *, *, #294, .F. ) ;
#32 = FACE_OUTER_BOUND ( 'NONE', #283, .T. ) ;
#33 = AXIS2_PLACEMENT_3D ( 'NONE', #248, #304, #70 ) ;
#34 = CARTESIAN_POINT ( 'NONE',  ( 0.0000000000000000000, 0.0000000000000000000, 2.500000000000000000 ) ) ;
#35 = PRODUCT_DEFINITION ( 'UNKNOWN', '', #69, #212 ) ;
#36 = CARTESIAN_POINT ( 'NONE',  ( 0.1724999999999995981, 2.204364238465233357E-17, 2.500000000000000000 ) ) ;
#37 = CIRCLE ( 'NONE', #241, 0.1875000000000000278 ) ;
#38 = EDGE_CURVE ( 'NONE', #186, #47, #264, .T. ) ;
#39 = CARTESIAN_POINT ( 'NONE',  ( -0.1875000000000000278, 0.0000000000000000000, 1.000000000000000000 ) ) ;
#40 = SURFACE_SIDE_STYLE ('',( #86 ) ) ;
#41 = CARTESIAN_POINT ( 'NONE',  ( 0.0000000000000000000, 0.0000000000000000000, 2.500000000000000000 ) ) ;
#42 = DIRECTION ( 'NONE',  ( -0.0000000000000000000, -0.0000000000000000000, -1.000000000000000000 ) ) ;
#43 = ADVANCED_FACE ( 'NONE', ( #286, #157 ), #208, .T. ) ;
#44 = CIRCLE ( 'NONE', #235, 0.1874500000000001443 ) ;
#45 = CARTESIAN_POINT ( 'NONE',  ( -0.007499999999999999722, 1.193724467468882761E-17, 1.707404996040164512E-17 ) ) ;
#46 = DIRECTION ( 'NONE',  ( -1.000000000000000000, 0.0000000000000000000, 0.0000000000000000000 ) ) ;
#47 = VERTEX_POINT ( 'NONE', #74 ) ;
#48 = ORIENTED_EDGE ( 'NONE', *, *, #267, .T. ) ;
#49 = CLOSED_SHELL ( 'NONE', ( #122, #30, #62, #149, #50, #284, #222, #43, #141, #153, #143 ) ) ;
#50 = ADVANCED_FACE ( 'NONE', ( #28 ), #318, .T. ) ;
#51 = VECTOR ( 'NONE', #281, 39.37007874015748143 ) ;
#52 = ORIENTED_EDGE ( 'NONE', *, *, #119, .F. ) ;
#53 = CARTESIAN_POINT ( 'NONE',  ( 0.1875000000000000278, 2.296212748401287726E-17, 2.500000000000000000 ) ) ;
#54 = ORIENTED_EDGE ( 'NONE', *, *, #101, .T. ) ;
#55 = LINE ( 'NONE', #233, #263 ) ;
#56 = CIRCLE ( 'NONE', #113, 0.1874500000000001443 ) ;
#57 = DIRECTION ( 'NONE',  ( -1.000000000000000000, 0.0000000000000000000, 0.0000000000000000000 ) ) ;
#58 = LINE ( 'NONE', #217, #97 ) ;
#59 = DIRECTION ( 'NONE',  ( -1.000000000000000000, 0.0000000000000000000, 0.0000000000000000000 ) ) ;
#60 = CIRCLE ( 'NONE', #147, 0.1874500000000000333 ) ;
#61 = DIRECTION ( 'NONE',  ( -0.0000000000000000000, -0.0000000000000000000, -1.000000000000000000 ) ) ;
#62 = ADVANCED_FACE ( 'NONE', ( #245 ), #192, .T. ) ;
#63 = FILL_AREA_STYLE_COLOUR ( '', #317 ) ;
#64 = CARTESIAN_POINT ( 'NONE',  ( 0.1874500000000000610, 2.295600425001714235E-17, 0.0000000000000000000 ) ) ;
#65 = DIRECTION ( 'NONE',  ( 1.000000000000000000, 0.0000000000000000000, -0.0000000000000000000 ) ) ;
#66 = DIRECTION ( 'NONE',  ( 1.000000000000000000, 0.0000000000000000000, 0.0000000000000000000 ) ) ;
#67 = LINE ( 'NONE', #64, #26 ) ;
#68 = ORIENTED_EDGE ( 'NONE', *, *, #291, .F. ) ;
#69 = PRODUCT_DEFINITION_FORMATION_WITH_SPECIFIED_SOURCE ( 'ANY', '', #260, .NOT_KNOWN. ) ;
#70 = DIRECTION ( 'NONE',  ( -1.000000000000000000, 0.0000000000000000000, 0.0000000000000000000 ) ) ;
#71 = EDGE_LOOP ( 'NONE', ( #202, #252 ) ) ;
#72 = CARTESIAN_POINT ( 'NONE',  ( 0.0000000000000000000, 0.0000000000000000000, 1.707404996040164512E-17 ) ) ;
#73 = EDGE_CURVE ( 'NONE', #156, #311, #58, .T. ) ;
#74 = CARTESIAN_POINT ( 'NONE',  ( 0.1875000000000000278, 2.296212748401287726E-17, 1.000000000000000000 ) ) ;
#75 = CIRCLE ( 'NONE', #33, 0.007499999999999999722 ) ;
#76 = DIRECTION ( 'NONE',  ( -1.000000000000000000, 0.0000000000000000000, 0.0000000000000000000 ) ) ;
#77 = VERTEX_POINT ( 'NONE', #110 ) ;
#78 = EDGE_LOOP ( 'NONE', ( #2, #180, #31, #236 ) ) ;
#79 =( CONVERSION_BASED_UNIT ( 'INCH', #165 ) LENGTH_UNIT ( ) NAMED_UNIT ( #188 ) );
#80 = CONICAL_SURFACE ( 'NONE', #161, 0.1724999999999995981, 0.7853981633974357335 ) ;
#81 = CARTESIAN_POINT ( 'NONE',  ( 0.0000000000000000000, 0.0000000000000000000, 1.000000000000000000 ) ) ;
#82 = PLANE ( 'NONE',  #98 ) ;
#83 = CYLINDRICAL_SURFACE ( 'NONE', #120, 0.1874500000000000610 ) ;
#84 = MANIFOLD_SOLID_BREP ( 'Cut-Revolve4', #49 ) ;
#85 = CIRCLE ( 'NONE', #268, 0.1875000000000000278 ) ;
#86 = SURFACE_STYLE_FILL_AREA ( #301 ) ;
#87 =( LENGTH_UNIT ( ) NAMED_UNIT ( * ) SI_UNIT ( $, .METRE. ) );
#88 = DIRECTION ( 'NONE',  ( 0.7071067811865385799, 8.659560562354823157E-17, -0.7071067811865563435 ) ) ;
#89 = CARTESIAN_POINT ( 'NONE',  ( 0.0000000000000000000, 0.0000000000000000000, 0.0000000000000000000 ) ) ;
#90 =( GEOMETRIC_REPRESENTATION_CONTEXT ( 3 ) GLOBAL_UNCERTAINTY_ASSIGNED_CONTEXT ( ( #150 ) ) GLOBAL_UNIT_ASSIGNED_CONTEXT ( ( #79, #320, #197 ) ) REPRESENTATION_CONTEXT ( 'NONE', 'WORKASPACE' ) );
#91 = CARTESIAN_POINT ( 'NONE',  ( -0.1874500000000001443, 0.0000000000000000000, 1.000000000000000000 ) ) ;
#92 = VERTEX_POINT ( 'NONE', #36 ) ;
#93 = DIRECTION ( 'NONE',  ( -1.000000000000000000, 0.0000000000000000000, 0.0000000000000000000 ) ) ;
#94 = ORIENTED_EDGE ( 'NONE', *, *, #291, .T. ) ;
#95 = DIRECTION ( 'NONE',  ( -1.000000000000000000, 0.0000000000000000000, 0.0000000000000000000 ) ) ;
#96 = ORIENTED_EDGE ( 'NONE', *, *, #116, .T. ) ;
#97 = VECTOR ( 'NONE', #296, 39.37007874015748143 ) ;
#98 = AXIS2_PLACEMENT_3D ( 'NONE', #191, #270, #109 ) ;
#99 = EDGE_LOOP ( 'NONE', ( #226, #232, #185, #159 ) ) ;
#100 = ORIENTED_EDGE ( 'NONE', *, *, #209, .F. ) ;
#101 = EDGE_CURVE ( 'NONE', #104, #156, #44, .T. ) ;
#102 = AXIS2_PLACEMENT_3D ( 'NONE', #18, #306, #66 ) ;
#103 = ORIENTED_EDGE ( 'NONE', *, *, #183, .T. ) ;
#104 = VERTEX_POINT ( 'NONE', #272 ) ;
#105 = ORIENTED_EDGE ( 'NONE', *, *, #126, .T. ) ;
#106 = STYLED_ITEM ( 'NONE', ( #193 ), #84 ) ;
#107 = LINE ( 'NONE', #134, #310 ) ;
#108 = DIRECTION ( 'NONE',  ( 1.000000000000000000, 0.0000000000000000000, 0.0000000000000000000 ) ) ;
#109 = DIRECTION ( 'NONE',  ( 1.000000000000000000, 0.0000000000000000000, -0.0000000000000000000 ) ) ;
#110 = CARTESIAN_POINT ( 'NONE',  ( -0.1724999999999995981, 0.0000000000000000000, 2.500000000000000000 ) ) ;
#111 = AXIS2_PLACEMENT_3D ( 'NONE', #72, #179, #129 ) ;
#112 = CONICAL_SURFACE ( 'NONE', #111, 0.007499999999999999722, 1.047197551196600518 ) ;
#113 = AXIS2_PLACEMENT_3D ( 'NONE', #163, #295, #265 ) ;
#114 = APPLICATION_PROTOCOL_DEFINITION ( 'draft international standard', 'automotive_design', 1998, #288 ) ;
#115 = DIRECTION ( 'NONE',  ( 1.000000000000000000, 0.0000000000000000000, 0.0000000000000000000 ) ) ;
#116 = EDGE_CURVE ( 'NONE', #279, #311, #60, .T. ) ;
#117 = CARTESIAN_POINT ( 'NONE',  ( -0.1724999999999995981, 0.0000000000000000000, 2.500000000000000000 ) ) ;
#118 = DIRECTION ( 'NONE',  ( 1.000000000000000000, 0.0000000000000000000, 0.0000000000000000000 ) ) ;
#119 = EDGE_CURVE ( 'NONE', #156, #104, #56, .T. ) ;
#120 = AXIS2_PLACEMENT_3D ( 'NONE', #239, #218, #13 ) ;
#121 = LENGTH_MEASURE_WITH_UNIT ( LENGTH_MEASURE( 0.02539999999999999897 ), #323 );
#122 = ADVANCED_FACE ( 'NONE', ( #32 ), #83, .T. ) ;
#123 = FACE_OUTER_BOUND ( 'NONE', #78, .T. ) ;
#124 = ORIENTED_EDGE ( 'NONE', *, *, #158, .F. ) ;
#125 = DIRECTION ( 'NONE',  ( -0.0000000000000000000, -0.0000000000000000000, -1.000000000000000000 ) ) ;
#126 = EDGE_CURVE ( 'NONE', #328, #152, #107, .T. ) ;
#127 = PRESENTATION_LAYER_ASSIGNMENT (  '', '', ( #106 ) ) ;
#128 = AXIS2_PLACEMENT_3D ( 'NONE', #164, #244, #108 ) ;
#129 = DIRECTION ( 'NONE',  ( 1.000000000000000000, 0.0000000000000000000, 0.0000000000000000000 ) ) ;
#130 = EDGE_LOOP ( 'NONE', ( #312, #313 ) ) ;
#131 = ORIENTED_EDGE ( 'NONE', *, *, #205, .F. ) ;
#132 = ORIENTED_EDGE ( 'NONE', *, *, #101, .F. ) ;
#133 = EDGE_LOOP ( 'NONE', ( #262, #131, #184, #206 ) ) ;
#134 = CARTESIAN_POINT ( 'NONE',  ( -0.1875000000000000278, 0.0000000000000000000, 2.500000000000000000 ) ) ;
#135 = VECTOR ( 'NONE', #230, 39.37007874015748854 ) ;
#136 = DIRECTION ( 'NONE',  ( 0.0000000000000000000, 0.0000000000000000000, -1.000000000000000000 ) ) ;
#137 = SURFACE_STYLE_FILL_AREA ( #266 ) ;
#138 = AXIS2_PLACEMENT_3D ( 'NONE', #168, #282, #46 ) ;
#139 = FACE_OUTER_BOUND ( 'NONE', #22, .T. ) ;
#140 = DIRECTION ( 'NONE',  ( -1.000000000000000000, 0.0000000000000000000, 0.0000000000000000000 ) ) ;
#141 = ADVANCED_FACE ( 'NONE', ( #14 ), #155, .T. ) ;
#142 = EDGE_LOOP ( 'NONE', ( #52, #132 ) ) ;
#143 = ADVANCED_FACE ( 'NONE', ( #319 ), #82, .F. ) ;
#144 =( CONVERSION_BASED_UNIT ( 'INCH', #228 ) LENGTH_UNIT ( ) NAMED_UNIT ( #238 ) );
#145 = DIRECTION ( 'NONE',  ( -0.0000000000000000000, -0.0000000000000000000, -1.000000000000000000 ) ) ;
#146 = AXIS2_PLACEMENT_3D ( 'NONE', #261, #290, #76 ) ;
#147 = AXIS2_PLACEMENT_3D ( 'NONE', #189, #293, #57 ) ;
#148 = CARTESIAN_POINT ( 'NONE',  ( 0.1874500000000000610, 0.0000000000000000000, 0.1038941809406725564 ) ) ;
#149 = ADVANCED_FACE ( 'NONE', ( #123 ), #24, .T. ) ;
#150 = UNCERTAINTY_MEASURE_WITH_UNIT (LENGTH_MEASURE( 1.000000000000000082E-05 ), #79, 'distance_accuracy_value', 'NONE');
#151 = LINE ( 'NONE', #324, #160 ) ;
#152 = VERTEX_POINT ( 'NONE', #39 ) ;
#153 = ADVANCED_FACE ( 'NONE', ( #139 ), #229, .T. ) ;
#154 = CARTESIAN_POINT ( 'NONE',  ( 0.007499999999999999722, 0.0000000000000000000, 1.707404996040164512E-17 ) ) ;
#155 = CONICAL_SURFACE ( 'NONE', #128, 0.007499999999999999722, 1.047197551196600518 ) ;
#156 = VERTEX_POINT ( 'NONE', #91 ) ;
#157 = FACE_OUTER_BOUND ( 'NONE', #71, .T. ) ;
#158 = EDGE_CURVE ( 'NONE', #104, #279, #67, .T. ) ;
#159 = ORIENTED_EDGE ( 'NONE', *, *, #25, .F. ) ;
#160 = VECTOR ( 'NONE', #88, 39.37007874015748854 ) ;
#161 = AXIS2_PLACEMENT_3D ( 'NONE', #41, #198, #95 ) ;
#162 = FACE_OUTER_BOUND ( 'NONE', #99, .T. ) ;
#163 = CARTESIAN_POINT ( 'NONE',  ( 0.0000000000000000000, 0.0000000000000000000, 1.000000000000000000 ) ) ;
#164 = CARTESIAN_POINT ( 'NONE',  ( 0.0000000000000000000, 0.0000000000000000000, 1.707404996040164512E-17 ) ) ;
#165 = LENGTH_MEASURE_WITH_UNIT ( LENGTH_MEASURE( 0.02539999999999999897 ), #87 );
#166 =( CONVERSION_BASED_UNIT ( 'INCH', #121 ) LENGTH_UNIT ( ) NAMED_UNIT ( #215 ) );
#167 = DIRECTION ( 'NONE',  ( -1.000000000000000000, 0.0000000000000000000, 0.0000000000000000000 ) ) ;
#168 = CARTESIAN_POINT ( 'NONE',  ( 0.0000000000000000000, 0.0000000000000000000, 2.500000000000000000 ) ) ;
#169 = UNCERTAINTY_MEASURE_WITH_UNIT (LENGTH_MEASURE( 1.000000000000000082E-05 ), #144, 'distance_accuracy_value', 'NONE');
#170 = DIRECTION ( 'NONE',  ( -0.0000000000000000000, -0.0000000000000000000, -1.000000000000000000 ) ) ;
#171 = ADVANCED_BREP_SHAPE_REPRESENTATION ( 'Micro_DM-375-4120X', ( #84, #274 ), #181 ) ;
#172 = SURFACE_STYLE_USAGE ( .BOTH. , #40 ) ;
#173 = CARTESIAN_POINT ( 'NONE',  ( 0.0000000000000000000, 0.0000000000000000000, 1.707404996040164512E-17 ) ) ;
#174 = LINE ( 'NONE', #221, #51 ) ;
#175 =( GEOMETRIC_REPRESENTATION_CONTEXT ( 3 ) GLOBAL_UNCERTAINTY_ASSIGNED_CONTEXT ( ( #169 ) ) GLOBAL_UNIT_ASSIGNED_CONTEXT ( ( #144, #203, #250 ) ) REPRESENTATION_CONTEXT ( 'NONE', 'WORKASPACE' ) );
#176 = CARTESIAN_POINT ( 'NONE',  ( 0.0000000000000000000, 0.0000000000000000000, 0.1038941809406725564 ) ) ;
#177 = ORIENTED_EDGE ( 'NONE', *, *, #178, .F. ) ;
#178 = EDGE_CURVE ( 'NONE', #311, #279, #9, .T. ) ;
#179 = DIRECTION ( 'NONE',  ( 0.0000000000000000000, 0.0000000000000000000, 1.000000000000000000 ) ) ;
#180 = ORIENTED_EDGE ( 'NONE', *, *, #38, .T. ) ;
#181 =( GEOMETRIC_REPRESENTATION_CONTEXT ( 3 ) GLOBAL_UNCERTAINTY_ASSIGNED_CONTEXT ( ( #8 ) ) GLOBAL_UNIT_ASSIGNED_CONTEXT ( ( #166, #280, #254 ) ) REPRESENTATION_CONTEXT ( 'NONE', 'WORKASPACE' ) );
#182 = CARTESIAN_POINT ( 'NONE',  ( -0.1874500000000000610, 2.295600425001714852E-17, 0.1038941809406725564 ) ) ;
#183 = EDGE_CURVE ( 'NONE', #256, #11, #75, .T. ) ;
#184 = ORIENTED_EDGE ( 'NONE', *, *, #209, .T. ) ;
#185 = ORIENTED_EDGE ( 'NONE', *, *, #178, .T. ) ;
#186 = VERTEX_POINT ( 'NONE', #201 ) ;
#187 = EDGE_CURVE ( 'NONE', #328, #186, #231, .T. ) ;
#188 = DIMENSIONAL_EXPONENTS ( 1.000000000000000000, 0.0000000000000000000, 0.0000000000000000000, 0.0000000000000000000, 0.0000000000000000000, 0.0000000000000000000, 0.0000000000000000000 ) ;
#189 = CARTESIAN_POINT ( 'NONE',  ( 0.0000000000000000000, 0.0000000000000000000, 0.1038941809406725564 ) ) ;
#190 = DIRECTION ( 'NONE',  ( -0.0000000000000000000, -0.0000000000000000000, -1.000000000000000000 ) ) ;
#191 = CARTESIAN_POINT ( 'NONE',  ( 0.0000000000000000000, 0.0000000000000000000, 0.0000000000000000000 ) ) ;
#192 = CONICAL_SURFACE ( 'NONE', #16, 0.1724999999999995981, 0.7853981633974357335 ) ;
#193 = PRESENTATION_STYLE_ASSIGNMENT (( #271 ) ) ;
#194 = AXIS2_PLACEMENT_3D ( 'NONE', #176, #125, #93 ) ;
#195 = EDGE_CURVE ( 'NONE', #186, #328, #85, .T. ) ;
#196 = PRESENTATION_STYLE_ASSIGNMENT (( #172 ) ) ;
#197 =( NAMED_UNIT ( * ) SI_UNIT ( $, .STERADIAN. ) SOLID_ANGLE_UNIT ( ) );
#198 = DIRECTION ( 'NONE',  ( 0.0000000000000000000, 0.0000000000000000000, -1.000000000000000000 ) ) ;
#199 = APPLICATION_PROTOCOL_DEFINITION ( 'draft international standard', 'automotive_design', 1998, #269 ) ;
#200 = DIRECTION ( 'NONE',  ( -1.000000000000000000, 0.0000000000000000000, 0.0000000000000000000 ) ) ;
#201 = CARTESIAN_POINT ( 'NONE',  ( 0.1875000000000000278, 2.296212748401287726E-17, 2.484999999999999432 ) ) ;
#202 = ORIENTED_EDGE ( 'NONE', *, *, #294, .T. ) ;
#203 =( NAMED_UNIT ( * ) PLANE_ANGLE_UNIT ( ) SI_UNIT ( $, .RADIAN. ) );
#204 = CARTESIAN_POINT ( 'NONE',  ( 0.0000000000000000000, 0.0000000000000000000, 2.484999999999999432 ) ) ;
#205 = EDGE_CURVE ( 'NONE', #77, #92, #314, .T. ) ;
#206 = ORIENTED_EDGE ( 'NONE', *, *, #195, .F. ) ;
#207 = DIRECTION ( 'NONE',  ( 0.0000000000000000000, 0.0000000000000000000, 1.000000000000000000 ) ) ;
#208 = PLANE ( 'NONE',  #146 ) ;
#209 = EDGE_CURVE ( 'NONE', #77, #328, #278, .T. ) ;
#210 = EDGE_LOOP ( 'NONE', ( #309, #68, #292, #96 ) ) ;
#211 = CIRCLE ( 'NONE', #297, 0.1724999999999995981 ) ;
#212 = PRODUCT_DEFINITION_CONTEXT ( 'detailed design', #288, 'design' ) ;
#213 = ORIENTED_EDGE ( 'NONE', *, *, #158, .T. ) ;
#214 = ORIENTED_EDGE ( 'NONE', *, *, #73, .F. ) ;
#215 = DIMENSIONAL_EXPONENTS ( 1.000000000000000000, 0.0000000000000000000, 0.0000000000000000000, 0.0000000000000000000, 0.0000000000000000000, 0.0000000000000000000, 0.0000000000000000000 ) ;
#216 = STYLED_ITEM ( 'NONE', ( #196 ), #171 ) ;
#217 = CARTESIAN_POINT ( 'NONE',  ( -0.1874500000000000610, 0.0000000000000000000, 0.0000000000000000000 ) ) ;
#218 = DIRECTION ( 'NONE',  ( -0.0000000000000000000, -0.0000000000000000000, -1.000000000000000000 ) ) ;
#219 = FILL_AREA_STYLE_COLOUR ( '', #257 ) ;
#220 = PRESENTATION_LAYER_ASSIGNMENT (  '', '', ( #216 ) ) ;
#221 = CARTESIAN_POINT ( 'NONE',  ( -0.007499999999999999722, 9.184850993605147975E-19, 1.707404996040164512E-17 ) ) ;
#222 = ADVANCED_FACE ( 'NONE', ( #1 ), #80, .T. ) ;
#223 = CARTESIAN_POINT ( 'NONE',  ( 0.0000000000000000000, 0.0000000000000000000, 2.500000000000000000 ) ) ;
#224 = DIRECTION ( 'NONE',  ( 0.0000000000000000000, 0.0000000000000000000, 1.000000000000000000 ) ) ;
#225 = CARTESIAN_POINT ( 'NONE',  ( 0.0000000000000000000, 0.0000000000000000000, 1.000000000000000000 ) ) ;
#226 = ORIENTED_EDGE ( 'NONE', *, *, #183, .F. ) ;
#227 = MECHANICAL_DESIGN_GEOMETRIC_PRESENTATION_REPRESENTATION (  '', ( #216 ), #175 ) ;
#228 = LENGTH_MEASURE_WITH_UNIT ( LENGTH_MEASURE( 0.02539999999999999897 ), #246 );
#229 = CYLINDRICAL_SURFACE ( 'NONE', #253, 0.1874500000000000610 ) ;
#230 = DIRECTION ( 'NONE',  ( -0.7071067811865385799, 0.0000000000000000000, -0.7071067811865563435 ) ) ;
#231 = CIRCLE ( 'NONE', #322, 0.1875000000000000278 ) ;
#232 = ORIENTED_EDGE ( 'NONE', *, *, #243, .T. ) ;
#233 = CARTESIAN_POINT ( 'NONE',  ( 0.007499999999999999722, 0.0000000000000000000, 1.707404996040164512E-17 ) ) ;
#234 = ORIENTED_EDGE ( 'NONE', *, *, #299, .F. ) ;
#235 = AXIS2_PLACEMENT_3D ( 'NONE', #81, #61, #167 ) ;
#236 = ORIENTED_EDGE ( 'NONE', *, *, #126, .F. ) ;
#237 = EDGE_LOOP ( 'NONE', ( #315, #48, #6, #100 ) ) ;
#238 = DIMENSIONAL_EXPONENTS ( 1.000000000000000000, 0.0000000000000000000, 0.0000000000000000000, 0.0000000000000000000, 0.0000000000000000000, 0.0000000000000000000, 0.0000000000000000000 ) ;
#239 = CARTESIAN_POINT ( 'NONE',  ( 0.0000000000000000000, 0.0000000000000000000, 0.0000000000000000000 ) ) ;
#240 = VECTOR ( 'NONE', #289, 39.37007874015748143 ) ;
#241 = AXIS2_PLACEMENT_3D ( 'NONE', #308, #42, #249 ) ;
#242 = DIRECTION ( 'NONE',  ( -0.0000000000000000000, -0.0000000000000000000, -1.000000000000000000 ) ) ;
#243 = EDGE_CURVE ( 'NONE', #256, #311, #174, .T. ) ;
#244 = DIRECTION ( 'NONE',  ( 0.0000000000000000000, 0.0000000000000000000, 1.000000000000000000 ) ) ;
#245 = FACE_OUTER_BOUND ( 'NONE', #237, .T. ) ;
#246 =( LENGTH_UNIT ( ) NAMED_UNIT ( * ) SI_UNIT ( $, .METRE. ) );
#247 = SURFACE_SIDE_STYLE ('',( #137 ) ) ;
#248 = CARTESIAN_POINT ( 'NONE',  ( 0.0000000000000000000, 0.0000000000000000000, 1.707404996040164512E-17 ) ) ;
#249 = DIRECTION ( 'NONE',  ( -1.000000000000000000, 0.0000000000000000000, 0.0000000000000000000 ) ) ;
#250 =( NAMED_UNIT ( * ) SI_UNIT ( $, .STERADIAN. ) SOLID_ANGLE_UNIT ( ) );
#251 = DIRECTION ( 'NONE',  ( -1.000000000000000000, 0.0000000000000000000, 0.0000000000000000000 ) ) ;
#252 = ORIENTED_EDGE ( 'NONE', *, *, #299, .T. ) ;
#253 = AXIS2_PLACEMENT_3D ( 'NONE', #89, #21, #200 ) ;
#254 =( NAMED_UNIT ( * ) SI_UNIT ( $, .STERADIAN. ) SOLID_ANGLE_UNIT ( ) );
#255 = ORIENTED_EDGE ( 'NONE', *, *, #73, .T. ) ;
#256 = VERTEX_POINT ( 'NONE', #45 ) ;
#257 = COLOUR_RGB ( '',0.7921568627450980005, 0.8196078431372548767, 0.9333333333333333481 ) ;
#258 = CIRCLE ( 'NONE', #302, 0.007499999999999999722 ) ;
#259 = CARTESIAN_POINT ( 'NONE',  ( 0.0000000000000000000, 0.0000000000000000000, 2.500000000000000000 ) ) ;
#260 = PRODUCT ( 'Micro_DM-375-4120X', 'Micro_DM-375-4120X', '', ( #17 ) ) ;
#261 = CARTESIAN_POINT ( 'NONE',  ( 0.1874500000000001443, 0.0000000000000000000, 1.000000000000000000 ) ) ;
#262 = ORIENTED_EDGE ( 'NONE', *, *, #267, .F. ) ;
#263 = VECTOR ( 'NONE', #7, 39.37007874015748143 ) ;
#264 = LINE ( 'NONE', #53, #240 ) ;
#265 = DIRECTION ( 'NONE',  ( -1.000000000000000000, 0.0000000000000000000, 0.0000000000000000000 ) ) ;
#266 = FILL_AREA_STYLE ('',( #219 ) ) ;
#267 = EDGE_CURVE ( 'NONE', #92, #186, #151, .T. ) ;
#268 = AXIS2_PLACEMENT_3D ( 'NONE', #277, #327, #115 ) ;
#269 = APPLICATION_CONTEXT ( 'automotive_design' ) ;
#270 = DIRECTION ( 'NONE',  ( 0.0000000000000000000, 0.0000000000000000000, 1.000000000000000000 ) ) ;
#271 = SURFACE_STYLE_USAGE ( .BOTH. , #247 ) ;
#272 = CARTESIAN_POINT ( 'NONE',  ( 0.1874500000000001443, 2.295600425001715468E-17, 1.000000000000000000 ) ) ;
#273 = SHAPE_DEFINITION_REPRESENTATION ( #12, #171 ) ;
#274 = AXIS2_PLACEMENT_3D ( 'NONE', #20, #224, #276 ) ;
#275 = FACE_OUTER_BOUND ( 'NONE', #130, .T. ) ;
#276 = DIRECTION ( 'NONE',  ( 1.000000000000000000, 0.0000000000000000000, 0.0000000000000000000 ) ) ;
#277 = CARTESIAN_POINT ( 'NONE',  ( 0.0000000000000000000, 0.0000000000000000000, 2.484999999999999432 ) ) ;
#278 = LINE ( 'NONE', #117, #135 ) ;
#279 = VERTEX_POINT ( 'NONE', #148 ) ;
#280 =( NAMED_UNIT ( * ) PLANE_ANGLE_UNIT ( ) SI_UNIT ( $, .RADIAN. ) );
#281 = DIRECTION ( 'NONE',  ( -0.8660254037844400399, 1.060575238724908640E-16, 0.4999999999999976685 ) ) ;
#282 = DIRECTION ( 'NONE',  ( -0.0000000000000000000, -0.0000000000000000000, -1.000000000000000000 ) ) ;
#283 = EDGE_LOOP ( 'NONE', ( #305, #213, #177, #214 ) ) ;
#284 = ADVANCED_FACE ( 'NONE', ( #275 ), #325, .T. ) ;
#285 = ORIENTED_EDGE ( 'NONE', *, *, #38, .F. ) ;
#286 = FACE_BOUND ( 'NONE', #142, .T. ) ;
#287 = CIRCLE ( 'NONE', #4, 0.1875000000000000278 ) ;
#288 = APPLICATION_CONTEXT ( 'automotive_design' ) ;
#289 = DIRECTION ( 'NONE',  ( -0.0000000000000000000, -0.0000000000000000000, -1.000000000000000000 ) ) ;
#290 = DIRECTION ( 'NONE',  ( -0.0000000000000000000, 0.0000000000000000000, -1.000000000000000000 ) ) ;
#291 = EDGE_CURVE ( 'NONE', #11, #256, #258, .T. ) ;
#292 = ORIENTED_EDGE ( 'NONE', *, *, #25, .T. ) ;
#293 = DIRECTION ( 'NONE',  ( -0.0000000000000000000, -0.0000000000000000000, -1.000000000000000000 ) ) ;
#294 = EDGE_CURVE ( 'NONE', #152, #47, #37, .T. ) ;
#295 = DIRECTION ( 'NONE',  ( -0.0000000000000000000, -0.0000000000000000000, -1.000000000000000000 ) ) ;
#296 = DIRECTION ( 'NONE',  ( -0.0000000000000000000, -0.0000000000000000000, -1.000000000000000000 ) ) ;
#297 = AXIS2_PLACEMENT_3D ( 'NONE', #259, #316, #27 ) ;
#298 = CARTESIAN_POINT ( 'NONE',  ( 0.0000000000000000000, 0.0000000000000000000, 2.500000000000000000 ) ) ;
#299 = EDGE_CURVE ( 'NONE', #47, #152, #287, .T. ) ;
#300 = DIRECTION ( 'NONE',  ( -0.0000000000000000000, -0.0000000000000000000, -1.000000000000000000 ) ) ;
#301 = FILL_AREA_STYLE ('',( #63 ) ) ;
#302 = AXIS2_PLACEMENT_3D ( 'NONE', #173, #170, #140 ) ;
#303 = DIRECTION ( 'NONE',  ( 0.0000000000000000000, 0.0000000000000000000, -1.000000000000000000 ) ) ;
#304 = DIRECTION ( 'NONE',  ( -0.0000000000000000000, -0.0000000000000000000, -1.000000000000000000 ) ) ;
#305 = ORIENTED_EDGE ( 'NONE', *, *, #119, .T. ) ;
#306 = DIRECTION ( 'NONE',  ( 0.0000000000000000000, 0.0000000000000000000, 1.000000000000000000 ) ) ;
#307 = CARTESIAN_POINT ( 'NONE',  ( -0.1875000000000000278, 0.0000000000000000000, 2.484999999999999432 ) ) ;
#308 = CARTESIAN_POINT ( 'NONE',  ( 0.0000000000000000000, 0.0000000000000000000, 1.000000000000000000 ) ) ;
#309 = ORIENTED_EDGE ( 'NONE', *, *, #243, .F. ) ;
#310 = VECTOR ( 'NONE', #242, 39.37007874015748143 ) ;
#311 = VERTEX_POINT ( 'NONE', #182 ) ;
#312 = ORIENTED_EDGE ( 'NONE', *, *, #205, .T. ) ;
#313 = ORIENTED_EDGE ( 'NONE', *, *, #19, .T. ) ;
#314 = CIRCLE ( 'NONE', #102, 0.1724999999999995981 ) ;
#315 = ORIENTED_EDGE ( 'NONE', *, *, #19, .F. ) ;
#316 = DIRECTION ( 'NONE',  ( 0.0000000000000000000, 0.0000000000000000000, 1.000000000000000000 ) ) ;
#317 = COLOUR_RGB ( '',0.7921568627450980005, 0.8196078431372548767, 0.9333333333333333481 ) ;
#318 = CYLINDRICAL_SURFACE ( 'NONE', #321, 0.1875000000000000278 ) ;
#319 = FACE_OUTER_BOUND ( 'NONE', #23, .T. ) ;
#320 =( NAMED_UNIT ( * ) PLANE_ANGLE_UNIT ( ) SI_UNIT ( $, .RADIAN. ) );
#321 = AXIS2_PLACEMENT_3D ( 'NONE', #34, #190, #59 ) ;
#322 = AXIS2_PLACEMENT_3D ( 'NONE', #204, #303, #118 ) ;
#323 =( LENGTH_UNIT ( ) NAMED_UNIT ( * ) SI_UNIT ( $, .METRE. ) );
#324 = CARTESIAN_POINT ( 'NONE',  ( 0.1724999999999995981, 2.112515728529179297E-17, 2.500000000000000000 ) ) ;
#325 = PLANE ( 'NONE',  #326 ) ;
#326 = AXIS2_PLACEMENT_3D ( 'NONE', #223, #207, #65 ) ;
#327 = DIRECTION ( 'NONE',  ( 0.0000000000000000000, 0.0000000000000000000, -1.000000000000000000 ) ) ;
#328 = VERTEX_POINT ( 'NONE', #307 ) ;
#329 = EDGE_LOOP ( 'NONE', ( #285, #29, #105, #234 ) ) ;
ENDSEC;
END-ISO-10303-21;
