ISO-10303-21;
HEADER;
FILE_DESCRIPTION (( 'STEP AP214' ),
    '1' );
FILE_NAME ('Micro_AEMM-020-4.STEP',
    '2022-03-15T14:23:21',
    ( '' ),
    ( '' ),
    'SwSTEP 2.0',
    'SolidWorks 2022',
    '' );
FILE_SCHEMA (( 'AUTOMOTIVE_DESIGN' ));
ENDSEC;

DATA;
#1 = ADVANCED_FACE ( 'NONE', ( #164 ), #142, .T. ) ;
#2 = ORIENTED_EDGE ( 'NONE', *, *, #198, .F. ) ;
#3 = FACE_OUTER_BOUND ( 'NONE', #275, .T. ) ;
#4 = ORIENTED_EDGE ( 'NONE', *, *, #297, .F. ) ;
#5 = CIRCLE ( 'NONE', #174, 0.03933063000000000531 ) ;
#6 = AXIS2_PLACEMENT_3D ( 'NONE', #231, #230, #286 ) ;
#7 = DIRECTION ( 'NONE',  ( 0.000000000000000000, 0.000000000000000000, 1.000000000000000000 ) ) ;
#8 = ADVANCED_FACE ( 'NONE', ( #243 ), #103, .T. ) ;
#9 = ORIENTED_EDGE ( 'NONE', *, *, #148, .F. ) ;
#10 = CARTESIAN_POINT ( 'NONE',  ( 0.03933062999999999837, 4.816613013794885432E-18, -9.478001694819074349E-34 ) ) ;
#11 = COLOUR_RGB ( '',0.7921568627450980005, 0.8196078431372548767, 0.9333333333333333481 ) ;
#12 = DIRECTION ( 'NONE',  ( -1.000000000000000000, 0.000000000000000000, 1.224646799147352961E-16 ) ) ;
#13 = DIRECTION ( 'NONE',  ( 0.000000000000000000, 0.000000000000000000, 1.000000000000000000 ) ) ;
#14 = LINE ( 'NONE', #119, #202 ) ;
#15 = PRODUCT_DEFINITION ( 'UNKNOWN', '', #195, #144 ) ;
#16 = DIRECTION ( 'NONE',  ( 1.000000000000000000, 0.000000000000000000, 0.000000000000000000 ) ) ;
#17 = PRODUCT_DEFINITION_SHAPE ( 'NONE', 'NONE',  #15 ) ;
#18 = AXIS2_PLACEMENT_3D ( 'NONE', #240, #30, #113 ) ;
#19 = CARTESIAN_POINT ( 'NONE',  ( 0.000000000000000000, 0.000000000000000000, 1.953504000000000129 ) ) ;
#20 = EDGE_CURVE ( 'NONE', #264, #237, #77, .T. ) ;
#21 = PRESENTATION_STYLE_ASSIGNMENT (( #81 ) ) ;
#22 = VECTOR ( 'NONE', #146, 39.37007874015748854 ) ;
#23 = CARTESIAN_POINT ( 'NONE',  ( 5.898649710075393742E-34, 0.000000000000000000, 4.816613013794885432E-18 ) ) ;
#24 = MECHANICAL_DESIGN_GEOMETRIC_PRESENTATION_REPRESENTATION (  '', ( #188 ), #233 ) ;
#25 = EDGE_CURVE ( 'NONE', #131, #166, #100, .T. ) ;
#26 = DIRECTION ( 'NONE',  ( 1.000000000000000000, 0.000000000000000000, 0.000000000000000000 ) ) ;
#27 = ORIENTED_EDGE ( 'NONE', *, *, #108, .T. ) ;
#28 = ORIENTED_EDGE ( 'NONE', *, *, #67, .T. ) ;
#29 = VECTOR ( 'NONE', #85, 39.37007874015748143 ) ;
#30 = DIRECTION ( 'NONE',  ( 1.224646799147353207E-16, 0.000000000000000000, 1.000000000000000000 ) ) ;
#31 = ORIENTED_EDGE ( 'NONE', *, *, #148, .T. ) ;
#32 = CARTESIAN_POINT ( 'NONE',  ( 0.07874000000000000443, 9.642868896486258509E-18, 1.953504000000000129 ) ) ;
#33 = DIRECTION ( 'NONE',  ( -1.224646799147353207E-16, -0.000000000000000000, -1.000000000000000000 ) ) ;
#34 = PRESENTATION_STYLE_ASSIGNMENT (( #268 ) ) ;
#35 = SHAPE_DEFINITION_REPRESENTATION ( #17, #235 ) ;
#36 = AXIS2_PLACEMENT_3D ( 'NONE', #196, #284, #78 ) ;
#37 = ADVANCED_FACE ( 'NONE', ( #116 ), #102, .T. ) ;
#38 = CYLINDRICAL_SURFACE ( 'NONE', #6, 0.07874000000000000443 ) ;
#39 = CARTESIAN_POINT ( 'NONE',  ( 5.898649710075393742E-34, 0.000000000000000000, 4.816613013794885432E-18 ) ) ;
#40 = CARTESIAN_POINT ( 'NONE',  ( 0.000000000000000000, 0.000000000000000000, 1.968503999999999809 ) ) ;
#41 = SURFACE_STYLE_FILL_AREA ( #178 ) ;
#42 = LINE ( 'NONE', #172, #282 ) ;
#43 = AXIS2_PLACEMENT_3D ( 'NONE', #39, #287, #12 ) ;
#44 = DIRECTION ( 'NONE',  ( -1.224646799147353207E-16, -0.000000000000000000, -1.000000000000000000 ) ) ;
#45 = EDGE_CURVE ( 'NONE', #49, #56, #62, .T. ) ;
#46 = EDGE_LOOP ( 'NONE', ( #70, #106, #217, #259 ) ) ;
#47 = EDGE_CURVE ( 'NONE', #49, #166, #105, .T. ) ;
#48 = AXIS2_PLACEMENT_3D ( 'NONE', #68, #157, #255 ) ;
#49 = VERTEX_POINT ( 'NONE', #125 ) ;
#50 = EDGE_CURVE ( 'NONE', #190, #56, #14, .T. ) ;
#51 = DIRECTION ( 'NONE',  ( -0.000000000000000000, -0.000000000000000000, -1.000000000000000000 ) ) ;
#52 = ORIENTED_EDGE ( 'NONE', *, *, #45, .T. ) ;
#53 = ORIENTED_EDGE ( 'NONE', *, *, #277, .T. ) ;
#54 = AXIS2_PLACEMENT_3D ( 'NONE', #23, #33, #173 ) ;
#55 = CARTESIAN_POINT ( 'NONE',  ( 0.000000000000000000, 0.000000000000000000, 1.968503999999999809 ) ) ;
#56 = VERTEX_POINT ( 'NONE', #117 ) ;
#57 = LENGTH_MEASURE_WITH_UNIT ( LENGTH_MEASURE( 0.02539999999999999897 ), #205 );
#58 = DIRECTION ( 'NONE',  ( 0.1736481776669314137, 0.000000000000000000, 0.9848077530122077983 ) ) ;
#59 = DIRECTION ( 'NONE',  ( 1.000000000000000000, 0.000000000000000000, 0.000000000000000000 ) ) ;
#60 = FILL_AREA_STYLE_COLOUR ( '', #147 ) ;
#61 = EDGE_CURVE ( 'NONE', #237, #264, #94, .T. ) ;
#62 = LINE ( 'NONE', #272, #29 ) ;
#63 =( CONVERSION_BASED_UNIT ( 'INCH', #271 ) LENGTH_UNIT ( ) NAMED_UNIT ( #64 ) );
#64 = DIMENSIONAL_EXPONENTS ( 1.000000000000000000, 0.000000000000000000, 0.000000000000000000, 0.000000000000000000, 0.000000000000000000, 0.000000000000000000, 0.000000000000000000 ) ;
#65 = CARTESIAN_POINT ( 'NONE',  ( 0.000000000000000000, 0.000000000000000000, 1.953504000000000129 ) ) ;
#66 = VECTOR ( 'NONE', #224, 39.37007874015748854 ) ;
#67 = EDGE_CURVE ( 'NONE', #169, #49, #291, .T. ) ;
#68 = CARTESIAN_POINT ( 'NONE',  ( 0.000000000000000000, 0.000000000000000000, 0.000000000000000000 ) ) ;
#69 = DIRECTION ( 'NONE',  ( 1.000000000000000000, 0.000000000000000000, 0.000000000000000000 ) ) ;
#70 = ORIENTED_EDGE ( 'NONE', *, *, #232, .F. ) ;
#71 = CARTESIAN_POINT ( 'NONE',  ( -0.06374000000000018540, 0.000000000000000000, 1.968503999999999809 ) ) ;
#72 = ORIENTED_EDGE ( 'NONE', *, *, #61, .T. ) ;
#73 = PRODUCT_RELATED_PRODUCT_CATEGORY ( 'part', '', ( #150 ) ) ;
#74 = DIRECTION ( 'NONE',  ( 1.000000000000000000, 0.000000000000000000, 0.000000000000000000 ) ) ;
#75 = ORIENTED_EDGE ( 'NONE', *, *, #61, .F. ) ;
#76 = DIRECTION ( 'NONE',  ( 1.000000000000000000, 0.000000000000000000, -0.000000000000000000 ) ) ;
#77 = CIRCLE ( 'NONE', #54, 0.03933062999999999837 ) ;
#78 = DIRECTION ( 'NONE',  ( 1.000000000000000000, 0.000000000000000000, -0.000000000000000000 ) ) ;
#79 = DIRECTION ( 'NONE',  ( 0.000000000000000000, 0.000000000000000000, -1.000000000000000000 ) ) ;
#80 = CARTESIAN_POINT ( 'NONE',  ( 0.06374000000000018540, 7.805898697765251255E-18, 1.968503999999999809 ) ) ;
#81 = SURFACE_STYLE_USAGE ( .BOTH. , #290 ) ;
#82 = SURFACE_SIDE_STYLE ('',( #219 ) ) ;
#83 = AXIS2_PLACEMENT_3D ( 'NONE', #40, #222, #250 ) ;
#84 = ADVANCED_FACE ( 'NONE', ( #86 ), #214, .T. ) ;
#85 = DIRECTION ( 'NONE',  ( -0.000000000000000000, -0.000000000000000000, -1.000000000000000000 ) ) ;
#86 = FACE_OUTER_BOUND ( 'NONE', #274, .T. ) ;
#87 = ORIENTED_EDGE ( 'NONE', *, *, #133, .T. ) ;
#88 = VERTEX_POINT ( 'NONE', #177 ) ;
#89 = AXIS2_PLACEMENT_3D ( 'NONE', #242, #191, #74 ) ;
#90 = ORIENTED_EDGE ( 'NONE', *, *, #133, .F. ) ;
#91 = ORIENTED_EDGE ( 'NONE', *, *, #186, .F. ) ;
#92 = EDGE_LOOP ( 'NONE', ( #140, #72 ) ) ;
#93 = PLANE ( 'NONE',  #36 ) ;
#94 = CIRCLE ( 'NONE', #43, 0.03933062999999999837 ) ;
#95 = DIRECTION ( 'NONE',  ( -0.1736481776669312194, 2.126576849575783625E-17, 0.9848077530122080203 ) ) ;
#96 = LINE ( 'NONE', #292, #182 ) ;
#97 = LENGTH_MEASURE_WITH_UNIT ( LENGTH_MEASURE( 0.02539999999999999897 ), #201 );
#98 = DIRECTION ( 'NONE',  ( -1.224646799147353207E-16, -0.000000000000000000, -1.000000000000000000 ) ) ;
#99 = AXIS2_PLACEMENT_3D ( 'NONE', #278, #216, #69 ) ;
#100 = LINE ( 'NONE', #80, #66 ) ;
#101 =( NAMED_UNIT ( * ) PLANE_ANGLE_UNIT ( ) SI_UNIT ( $, .RADIAN. ) );
#102 = CONICAL_SURFACE ( 'NONE', #83, 0.06374000000000018540, 0.7853981633974522758 ) ;
#103 = CYLINDRICAL_SURFACE ( 'NONE', #48, 0.03933063000000000531 ) ;
#104 = EDGE_CURVE ( 'NONE', #166, #239, #246, .T. ) ;
#105 = CIRCLE ( 'NONE', #276, 0.07874000000000000443 ) ;
#106 = ORIENTED_EDGE ( 'NONE', *, *, #25, .T. ) ;
#107 = FACE_OUTER_BOUND ( 'NONE', #92, .T. ) ;
#108 = EDGE_CURVE ( 'NONE', #88, #237, #42, .T. ) ;
#109 = EDGE_LOOP ( 'NONE', ( #114, #87, #52, #91 ) ) ;
#110 =( NAMED_UNIT ( * ) SI_UNIT ( $, .STERADIAN. ) SOLID_ANGLE_UNIT ( ) );
#111 = CIRCLE ( 'NONE', #99, 0.07874000000000000443 ) ;
#112 = ORIENTED_EDGE ( 'NONE', *, *, #186, .T. ) ;
#113 = DIRECTION ( 'NONE',  ( 1.000000000000000000, 0.000000000000000000, 0.000000000000000000 ) ) ;
#114 = ORIENTED_EDGE ( 'NONE', *, *, #104, .F. ) ;
#115 = DIRECTION ( 'NONE',  ( 0.000000000000000000, 0.000000000000000000, 1.000000000000000000 ) ) ;
#116 = FACE_OUTER_BOUND ( 'NONE', #46, .T. ) ;
#117 = CARTESIAN_POINT ( 'NONE',  ( -0.07873999999999994892, 0.000000000000000000, 0.4203516436035862891 ) ) ;
#118 = DIRECTION ( 'NONE',  ( -1.224646799147353207E-16, -0.000000000000000000, -1.000000000000000000 ) ) ;
#119 = CARTESIAN_POINT ( 'NONE',  ( -0.03933062999999997755, 4.816613013794886973E-18, 0.1968500000000000250 ) ) ;
#120 = UNCERTAINTY_MEASURE_WITH_UNIT (LENGTH_MEASURE( 1.000000000000000082E-05 ), #176, 'distance_accuracy_value', 'NONE');
#121 = APPLICATION_PROTOCOL_DEFINITION ( 'draft international standard', 'automotive_design', 1998, #170 ) ;
#122 =( NAMED_UNIT ( * ) PLANE_ANGLE_UNIT ( ) SI_UNIT ( $, .RADIAN. ) );
#123 = APPLICATION_PROTOCOL_DEFINITION ( 'draft international standard', 'automotive_design', 1998, #159 ) ;
#124 =( LENGTH_UNIT ( ) NAMED_UNIT ( * ) SI_UNIT ( $, .METRE. ) );
#125 = CARTESIAN_POINT ( 'NONE',  ( -0.07874000000000000443, 0.000000000000000000, 1.953504000000000129 ) ) ;
#126 = AXIS2_PLACEMENT_3D ( 'NONE', #171, #165, #26 ) ;
#127 = DIMENSIONAL_EXPONENTS ( 1.000000000000000000, 0.000000000000000000, 0.000000000000000000, 0.000000000000000000, 0.000000000000000000, 0.000000000000000000, 0.000000000000000000 ) ;
#128 = DIRECTION ( 'NONE',  ( -1.000000000000000000, 0.000000000000000000, 1.224646799147353207E-16 ) ) ;
#129 = CIRCLE ( 'NONE', #296, 0.06374000000000018540 ) ;
#130 =( GEOMETRIC_REPRESENTATION_CONTEXT ( 3 ) GLOBAL_UNCERTAINTY_ASSIGNED_CONTEXT ( ( #120 ) ) GLOBAL_UNIT_ASSIGNED_CONTEXT ( ( #176, #122, #247 ) ) REPRESENTATION_CONTEXT ( 'NONE', 'WORKASPACE' ) );
#131 = VERTEX_POINT ( 'NONE', #265 ) ;
#132 = VECTOR ( 'NONE', #175, 39.37007874015748143 ) ;
#133 = EDGE_CURVE ( 'NONE', #166, #49, #156, .T. ) ;
#134 = MANIFOLD_SOLID_BREP ( 'Cut-Revolve1', #208 ) ;
#135 = CARTESIAN_POINT ( 'NONE',  ( 2.410717224121564935E-17, 0.000000000000000000, 0.1968500000000000250 ) ) ;
#136 = ORIENTED_EDGE ( 'NONE', *, *, #50, .F. ) ;
#137 = ORIENTED_EDGE ( 'NONE', *, *, #226, .F. ) ;
#138 = CONICAL_SURFACE ( 'NONE', #18, 0.03933063000000000531, 0.1745329251994339192 ) ;
#139 = FACE_OUTER_BOUND ( 'NONE', #187, .T. ) ;
#140 = ORIENTED_EDGE ( 'NONE', *, *, #20, .T. ) ;
#141 = DIRECTION ( 'NONE',  ( 1.000000000000000000, 0.000000000000000000, 0.000000000000000000 ) ) ;
#142 = PLANE ( 'NONE',  #299 ) ;
#143 = CARTESIAN_POINT ( 'NONE',  ( 0.07874000000000004607, 9.642868896486264672E-18, 0.4203516436035862891 ) ) ;
#144 = PRODUCT_DEFINITION_CONTEXT ( 'detailed design', #170, 'design' ) ;
#145 = DIRECTION ( 'NONE',  ( -1.000000000000000000, 0.000000000000000000, 0.000000000000000000 ) ) ;
#146 = DIRECTION ( 'NONE',  ( -0.7071067811865502373, 0.000000000000000000, -0.7071067811865446862 ) ) ;
#147 = COLOUR_RGB ( '',0.7921568627450980005, 0.8196078431372548767, 0.9333333333333333481 ) ;
#148 = EDGE_CURVE ( 'NONE', #190, #264, #96, .T. ) ;
#149 = CARTESIAN_POINT ( 'NONE',  ( -0.03933062999999999837, 0.000000000000000000, 9.633226027589770864E-18 ) ) ;
#150 = PRODUCT ( 'Micro_AEMM-020-4', 'Micro_AEMM-020-4', '', ( #293 ) ) ;
#151 = LINE ( 'NONE', #153, #289 ) ;
#152 = CARTESIAN_POINT ( 'NONE',  ( 0.07874000000000000443, 9.642868896486258509E-18, 1.968503999999999809 ) ) ;
#153 = CARTESIAN_POINT ( 'NONE',  ( 0.03933063000000002613, 0.000000000000000000, 0.1968500000000000250 ) ) ;
#154 = CARTESIAN_POINT ( 'NONE',  ( -0.06374000000000018540, 0.000000000000000000, 1.968503999999999809 ) ) ;
#155 = PRESENTATION_LAYER_ASSIGNMENT (  '', '', ( #188 ) ) ;
#156 = CIRCLE ( 'NONE', #228, 0.07874000000000000443 ) ;
#157 = DIRECTION ( 'NONE',  ( -1.224646799147353207E-16, -0.000000000000000000, -1.000000000000000000 ) ) ;
#158 = STYLED_ITEM ( 'NONE', ( #21 ), #235 ) ;
#159 = APPLICATION_CONTEXT ( 'automotive_design' ) ;
#160 = CIRCLE ( 'NONE', #262, 0.06374000000000018540 ) ;
#161 = FACE_OUTER_BOUND ( 'NONE', #194, .T. ) ;
#162 = ORIENTED_EDGE ( 'NONE', *, *, #226, .T. ) ;
#163 = CARTESIAN_POINT ( 'NONE',  ( 0.000000000000000000, 0.000000000000000000, 1.968503999999999809 ) ) ;
#164 = FACE_OUTER_BOUND ( 'NONE', #192, .T. ) ;
#165 = DIRECTION ( 'NONE',  ( -1.224646799147353207E-16, -0.000000000000000000, -1.000000000000000000 ) ) ;
#166 = VERTEX_POINT ( 'NONE', #32 ) ;
#167 =( GEOMETRIC_REPRESENTATION_CONTEXT ( 3 ) GLOBAL_UNCERTAINTY_ASSIGNED_CONTEXT ( ( #269 ) ) GLOBAL_UNIT_ASSIGNED_CONTEXT ( ( #63, #101, #110 ) ) REPRESENTATION_CONTEXT ( 'NONE', 'WORKASPACE' ) );
#168 = DIRECTION ( 'NONE',  ( -1.000000000000000000, 0.000000000000000000, 0.000000000000000000 ) ) ;
#169 = VERTEX_POINT ( 'NONE', #71 ) ;
#170 = APPLICATION_CONTEXT ( 'automotive_design' ) ;
#171 = CARTESIAN_POINT ( 'NONE',  ( 5.147822948554609098E-17, 0.000000000000000000, 0.4203516436035862891 ) ) ;
#172 = CARTESIAN_POINT ( 'NONE',  ( 0.03933063000000000531, 4.816613013794886973E-18, -4.816613013794886973E-18 ) ) ;
#173 = DIRECTION ( 'NONE',  ( -1.000000000000000000, 0.000000000000000000, 1.224646799147352961E-16 ) ) ;
#174 = AXIS2_PLACEMENT_3D ( 'NONE', #135, #245, #212 ) ;
#175 = DIRECTION ( 'NONE',  ( -0.000000000000000000, -0.000000000000000000, -1.000000000000000000 ) ) ;
#176 =( CONVERSION_BASED_UNIT ( 'INCH', #97 ) LENGTH_UNIT ( ) NAMED_UNIT ( #127 ) );
#177 = CARTESIAN_POINT ( 'NONE',  ( 0.03933063000000002613, 0.000000000000000000, 0.1968500000000000250 ) ) ;
#178 = FILL_AREA_STYLE ('',( #60 ) ) ;
#179 = DIRECTION ( 'NONE',  ( -1.224646799147353207E-16, -0.000000000000000000, -1.000000000000000000 ) ) ;
#180 = ORIENTED_EDGE ( 'NONE', *, *, #232, .T. ) ;
#181 = CYLINDRICAL_SURFACE ( 'NONE', #283, 0.03933063000000000531 ) ;
#182 = VECTOR ( 'NONE', #98, 39.37007874015748143 ) ;
#183 = ORIENTED_EDGE ( 'NONE', *, *, #277, .F. ) ;
#184 = ADVANCED_FACE ( 'NONE', ( #236 ), #256, .T. ) ;
#185 = AXIS2_PLACEMENT_3D ( 'NONE', #270, #197, #266 ) ;
#186 = EDGE_CURVE ( 'NONE', #239, #56, #111, .T. ) ;
#187 = EDGE_LOOP ( 'NONE', ( #4, #258, #207, #183 ) ) ;
#188 = STYLED_ITEM ( 'NONE', ( #34 ), #134 ) ;
#189 = DIRECTION ( 'NONE',  ( 0.000000000000000000, 0.000000000000000000, 1.000000000000000000 ) ) ;
#190 = VERTEX_POINT ( 'NONE', #193 ) ;
#191 = DIRECTION ( 'NONE',  ( 1.224646799147353207E-16, 0.000000000000000000, 1.000000000000000000 ) ) ;
#192 = EDGE_LOOP ( 'NONE', ( #162, #180 ) ) ;
#193 = CARTESIAN_POINT ( 'NONE',  ( -0.03933062999999997755, 7.229740955140571970E-18, 0.1968500000000000250 ) ) ;
#194 = EDGE_LOOP ( 'NONE', ( #280, #298, #2, #253 ) ) ;
#195 = PRODUCT_DEFINITION_FORMATION_WITH_SPECIFIED_SOURCE ( 'ANY', '', #150, .NOT_KNOWN. ) ;
#196 = CARTESIAN_POINT ( 'NONE',  ( 0.000000000000000000, 0.000000000000000000, 0.000000000000000000 ) ) ;
#197 = DIRECTION ( 'NONE',  ( 0.000000000000000000, 0.000000000000000000, -1.000000000000000000 ) ) ;
#198 = EDGE_CURVE ( 'NONE', #56, #239, #220, .T. ) ;
#199 = FILL_AREA_STYLE_COLOUR ( '', #11 ) ;
#200 = CARTESIAN_POINT ( 'NONE',  ( 0.000000000000000000, 0.000000000000000000, 0.000000000000000000 ) ) ;
#201 =( LENGTH_UNIT ( ) NAMED_UNIT ( * ) SI_UNIT ( $, .METRE. ) );
#202 = VECTOR ( 'NONE', #95, 39.37007874015747433 ) ;
#203 = MECHANICAL_DESIGN_GEOMETRIC_PRESENTATION_REPRESENTATION (  '', ( #158 ), #167 ) ;
#204 = FACE_OUTER_BOUND ( 'NONE', #109, .T. ) ;
#205 =( LENGTH_UNIT ( ) NAMED_UNIT ( * ) SI_UNIT ( $, .METRE. ) );
#206 = DIMENSIONAL_EXPONENTS ( 1.000000000000000000, 0.000000000000000000, 0.000000000000000000, 0.000000000000000000, 0.000000000000000000, 0.000000000000000000, 0.000000000000000000 ) ;
#207 = ORIENTED_EDGE ( 'NONE', *, *, #198, .T. ) ;
#208 = CLOSED_SHELL ( 'NONE', ( #254, #221, #37, #210, #295, #1, #84, #184, #8, #238 ) ) ;
#209 = AXIS2_PLACEMENT_3D ( 'NONE', #249, #118, #145 ) ;
#210 = ADVANCED_FACE ( 'NONE', ( #161 ), #260, .T. ) ;
#211 = ORIENTED_EDGE ( 'NONE', *, *, #244, .T. ) ;
#212 = DIRECTION ( 'NONE',  ( -1.000000000000000000, 0.000000000000000000, 0.000000000000000000 ) ) ;
#213 = EDGE_LOOP ( 'NONE', ( #136, #241, #53, #112 ) ) ;
#214 = CONICAL_SURFACE ( 'NONE', #185, 0.06374000000000018540, 0.7853981633974522758 ) ;
#215 = AXIS2_PLACEMENT_3D ( 'NONE', #200, #13, #251 ) ;
#216 = DIRECTION ( 'NONE',  ( -1.224646799147353207E-16, -0.000000000000000000, -1.000000000000000000 ) ) ;
#217 = ORIENTED_EDGE ( 'NONE', *, *, #47, .F. ) ;
#218 = ORIENTED_EDGE ( 'NONE', *, *, #25, .F. ) ;
#219 = SURFACE_STYLE_FILL_AREA ( #288 ) ;
#220 = CIRCLE ( 'NONE', #126, 0.07874000000000000443 ) ;
#221 = ADVANCED_FACE ( 'NONE', ( #139 ), #138, .T. ) ;
#222 = DIRECTION ( 'NONE',  ( 0.000000000000000000, 0.000000000000000000, -1.000000000000000000 ) ) ;
#223 = UNCERTAINTY_MEASURE_WITH_UNIT (LENGTH_MEASURE( 1.000000000000000082E-05 ), #225, 'distance_accuracy_value', 'NONE');
#224 = DIRECTION ( 'NONE',  ( 0.7071067811865502373, 8.659560562354966138E-17, -0.7071067811865446862 ) ) ;
#225 =( CONVERSION_BASED_UNIT ( 'INCH', #57 ) LENGTH_UNIT ( ) NAMED_UNIT ( #206 ) );
#226 = EDGE_CURVE ( 'NONE', #169, #131, #129, .T. ) ;
#227 = CARTESIAN_POINT ( 'NONE',  ( 0.000000000000000000, 0.000000000000000000, 0.000000000000000000 ) ) ;
#228 = AXIS2_PLACEMENT_3D ( 'NONE', #65, #229, #59 ) ;
#229 = DIRECTION ( 'NONE',  ( 0.000000000000000000, 0.000000000000000000, -1.000000000000000000 ) ) ;
#230 = DIRECTION ( 'NONE',  ( -0.000000000000000000, -0.000000000000000000, -1.000000000000000000 ) ) ;
#231 = CARTESIAN_POINT ( 'NONE',  ( 0.000000000000000000, 0.000000000000000000, 1.968503999999999809 ) ) ;
#232 = EDGE_CURVE ( 'NONE', #131, #169, #160, .T. ) ;
#233 =( GEOMETRIC_REPRESENTATION_CONTEXT ( 3 ) GLOBAL_UNCERTAINTY_ASSIGNED_CONTEXT ( ( #223 ) ) GLOBAL_UNIT_ASSIGNED_CONTEXT ( ( #225, #248, #285 ) ) REPRESENTATION_CONTEXT ( 'NONE', 'WORKASPACE' ) );
#234 = CARTESIAN_POINT ( 'NONE',  ( 0.000000000000000000, 0.000000000000000000, 1.968503999999999809 ) ) ;
#235 = ADVANCED_BREP_SHAPE_REPRESENTATION ( 'Micro_AEMM-020-4', ( #134, #215 ), #130 ) ;
#236 = FACE_OUTER_BOUND ( 'NONE', #213, .T. ) ;
#237 = VERTEX_POINT ( 'NONE', #10 ) ;
#238 = ADVANCED_FACE ( 'NONE', ( #107 ), #93, .F. ) ;
#239 = VERTEX_POINT ( 'NONE', #143 ) ;
#240 = CARTESIAN_POINT ( 'NONE',  ( 2.410717224121564935E-17, 0.000000000000000000, 0.1968500000000000250 ) ) ;
#241 = ORIENTED_EDGE ( 'NONE', *, *, #244, .F. ) ;
#242 = CARTESIAN_POINT ( 'NONE',  ( 2.410717224121564935E-17, 0.000000000000000000, 0.1968500000000000250 ) ) ;
#243 = FACE_OUTER_BOUND ( 'NONE', #279, .T. ) ;
#244 = EDGE_CURVE ( 'NONE', #88, #190, #5, .T. ) ;
#245 = DIRECTION ( 'NONE',  ( -1.224646799147353207E-16, -0.000000000000000000, -1.000000000000000000 ) ) ;
#246 = LINE ( 'NONE', #152, #132 ) ;
#247 =( NAMED_UNIT ( * ) SI_UNIT ( $, .STERADIAN. ) SOLID_ANGLE_UNIT ( ) );
#248 =( NAMED_UNIT ( * ) PLANE_ANGLE_UNIT ( ) SI_UNIT ( $, .RADIAN. ) );
#249 = CARTESIAN_POINT ( 'NONE',  ( 2.410717224121564935E-17, 0.000000000000000000, 0.1968500000000000250 ) ) ;
#250 = DIRECTION ( 'NONE',  ( -1.000000000000000000, 0.000000000000000000, 0.000000000000000000 ) ) ;
#251 = DIRECTION ( 'NONE',  ( 1.000000000000000000, 0.000000000000000000, 0.000000000000000000 ) ) ;
#252 = PRESENTATION_LAYER_ASSIGNMENT (  '', '', ( #158 ) ) ;
#253 = ORIENTED_EDGE ( 'NONE', *, *, #45, .F. ) ;
#254 = ADVANCED_FACE ( 'NONE', ( #3 ), #181, .T. ) ;
#255 = DIRECTION ( 'NONE',  ( -1.000000000000000000, 0.000000000000000000, 1.224646799147353207E-16 ) ) ;
#256 = CONICAL_SURFACE ( 'NONE', #89, 0.03933063000000000531, 0.1745329251994339192 ) ;
#257 = DIRECTION ( 'NONE',  ( 1.000000000000000000, 0.000000000000000000, 0.000000000000000000 ) ) ;
#258 = ORIENTED_EDGE ( 'NONE', *, *, #50, .T. ) ;
#259 = ORIENTED_EDGE ( 'NONE', *, *, #67, .F. ) ;
#260 = CYLINDRICAL_SURFACE ( 'NONE', #267, 0.07874000000000000443 ) ;
#261 = ORIENTED_EDGE ( 'NONE', *, *, #297, .T. ) ;
#262 = AXIS2_PLACEMENT_3D ( 'NONE', #55, #189, #141 ) ;
#263 = CARTESIAN_POINT ( 'NONE',  ( 0.000000000000000000, 0.000000000000000000, 1.968503999999999809 ) ) ;
#264 = VERTEX_POINT ( 'NONE', #149 ) ;
#265 = CARTESIAN_POINT ( 'NONE',  ( 0.06374000000000018540, 8.724383797125754882E-18, 1.968503999999999809 ) ) ;
#266 = DIRECTION ( 'NONE',  ( -1.000000000000000000, 0.000000000000000000, 0.000000000000000000 ) ) ;
#267 = AXIS2_PLACEMENT_3D ( 'NONE', #163, #51, #168 ) ;
#268 = SURFACE_STYLE_USAGE ( .BOTH. , #82 ) ;
#269 = UNCERTAINTY_MEASURE_WITH_UNIT (LENGTH_MEASURE( 1.000000000000000082E-05 ), #63, 'distance_accuracy_value', 'NONE');
#270 = CARTESIAN_POINT ( 'NONE',  ( 0.000000000000000000, 0.000000000000000000, 1.968503999999999809 ) ) ;
#271 = LENGTH_MEASURE_WITH_UNIT ( LENGTH_MEASURE( 0.02539999999999999897 ), #124 );
#272 = CARTESIAN_POINT ( 'NONE',  ( -0.07874000000000000443, 0.000000000000000000, 1.968503999999999809 ) ) ;
#273 = CIRCLE ( 'NONE', #209, 0.03933063000000000531 ) ;
#274 = EDGE_LOOP ( 'NONE', ( #218, #137, #28, #90 ) ) ;
#275 = EDGE_LOOP ( 'NONE', ( #261, #27, #281, #9 ) ) ;
#276 = AXIS2_PLACEMENT_3D ( 'NONE', #19, #79, #16 ) ;
#277 = EDGE_CURVE ( 'NONE', #88, #239, #151, .T. ) ;
#278 = CARTESIAN_POINT ( 'NONE',  ( 5.147822948554609098E-17, 0.000000000000000000, 0.4203516436035862891 ) ) ;
#279 = EDGE_LOOP ( 'NONE', ( #294, #211, #31, #75 ) ) ;
#280 = ORIENTED_EDGE ( 'NONE', *, *, #47, .T. ) ;
#281 = ORIENTED_EDGE ( 'NONE', *, *, #20, .F. ) ;
#282 = VECTOR ( 'NONE', #179, 39.37007874015748143 ) ;
#283 = AXIS2_PLACEMENT_3D ( 'NONE', #227, #44, #128 ) ;
#284 = DIRECTION ( 'NONE',  ( 0.000000000000000000, 0.000000000000000000, 1.000000000000000000 ) ) ;
#285 =( NAMED_UNIT ( * ) SI_UNIT ( $, .STERADIAN. ) SOLID_ANGLE_UNIT ( ) );
#286 = DIRECTION ( 'NONE',  ( -1.000000000000000000, 0.000000000000000000, 0.000000000000000000 ) ) ;
#287 = DIRECTION ( 'NONE',  ( -1.224646799147353207E-16, -0.000000000000000000, -1.000000000000000000 ) ) ;
#288 = FILL_AREA_STYLE ('',( #199 ) ) ;
#289 = VECTOR ( 'NONE', #58, 39.37007874015748143 ) ;
#290 = SURFACE_SIDE_STYLE ('',( #41 ) ) ;
#291 = LINE ( 'NONE', #154, #22 ) ;
#292 = CARTESIAN_POINT ( 'NONE',  ( -0.03933063000000000531, 0.000000000000000000, 4.816613013794886973E-18 ) ) ;
#293 = PRODUCT_CONTEXT ( 'NONE', #159, 'mechanical' ) ;
#294 = ORIENTED_EDGE ( 'NONE', *, *, #108, .F. ) ;
#295 = ADVANCED_FACE ( 'NONE', ( #204 ), #38, .T. ) ;
#296 = AXIS2_PLACEMENT_3D ( 'NONE', #263, #115, #257 ) ;
#297 = EDGE_CURVE ( 'NONE', #190, #88, #273, .T. ) ;
#298 = ORIENTED_EDGE ( 'NONE', *, *, #104, .T. ) ;
#299 = AXIS2_PLACEMENT_3D ( 'NONE', #234, #7, #76 ) ;
ENDSEC;
END-ISO-10303-21;
