ISO-10303-21;
HEADER;
FILE_DESCRIPTION (( 'STEP AP214' ),
    '1' );
FILE_NAME ('Micro_AEMM-025-4X.STEP',
    '2022-03-15T14:23:56',
    ( '' ),
    ( '' ),
    'SwSTEP 2.0',
    'SolidWorks 2022',
    '' );
FILE_SCHEMA (( 'AUTOMOTIVE_DESIGN' ));
ENDSEC;

DATA;
#1 = CARTESIAN_POINT ( 'NONE',  ( 0.07874000000000004607, 9.642868896486264672E-18, 0.4039578718853090167 ) ) ;
#2 = PRESENTATION_STYLE_ASSIGNMENT (( #207 ) ) ;
#3 = AXIS2_PLACEMENT_3D ( 'NONE', #77, #105, #196 ) ;
#4 = DIRECTION ( 'NONE',  ( -1.224646799147353207E-16, -0.000000000000000000, -1.000000000000000000 ) ) ;
#5 = DIRECTION ( 'NONE',  ( -0.000000000000000000, -0.000000000000000000, -1.000000000000000000 ) ) ;
#6 = FILL_AREA_STYLE ('',( #211 ) ) ;
#7 = AXIS2_PLACEMENT_3D ( 'NONE', #41, #223, #19 ) ;
#8 = FACE_OUTER_BOUND ( 'NONE', #176, .T. ) ;
#9 = LENGTH_MEASURE_WITH_UNIT ( LENGTH_MEASURE( 0.02539999999999999897 ), #125 );
#10 = CONICAL_SURFACE ( 'NONE', #83, 0.04916328750000000664, 0.1745329251994338360 ) ;
#11 = SURFACE_SIDE_STYLE ('',( #98 ) ) ;
#12 = SHAPE_DEFINITION_REPRESENTATION ( #130, #112 ) ;
#13 = ADVANCED_FACE ( 'NONE', ( #135 ), #190, .T. ) ;
#14 = EDGE_LOOP ( 'NONE', ( #251, #224, #204, #254 ) ) ;
#15 = CYLINDRICAL_SURFACE ( 'NONE', #253, 0.07874000000000000443 ) ;
#16 = AXIS2_PLACEMENT_3D ( 'NONE', #192, #259, #50 ) ;
#17 = DIRECTION ( 'NONE',  ( -0.1736481776669311639, 2.126576849575782392E-17, 0.9848077530122080203 ) ) ;
#18 = ORIENTED_EDGE ( 'NONE', *, *, #90, .T. ) ;
#19 = DIRECTION ( 'NONE',  ( 1.000000000000000000, 0.000000000000000000, 0.000000000000000000 ) ) ;
#20 = VERTEX_POINT ( 'NONE', #275 ) ;
#21 = COLOUR_RGB ( '',0.7921568627450980005, 0.8196078431372548767, 0.9333333333333333481 ) ;
#22 = CARTESIAN_POINT ( 'NONE',  ( 2.892860668945878169E-17, 0.000000000000000000, 0.2362200000000000133 ) ) ;
#23 = APPLICATION_PROTOCOL_DEFINITION ( 'draft international standard', 'automotive_design', 1998, #79 ) ;
#24 = ORIENTED_EDGE ( 'NONE', *, *, #185, .F. ) ;
#25 = LENGTH_MEASURE_WITH_UNIT ( LENGTH_MEASURE( 0.02539999999999999897 ), #258 );
#26 = LINE ( 'NONE', #69, #219 ) ;
#27 = APPLICATION_CONTEXT ( 'automotive_design' ) ;
#28 = CARTESIAN_POINT ( 'NONE',  ( -0.04916328749999997888, 6.020766267243608331E-18, 0.2362200000000000133 ) ) ;
#29 = DIRECTION ( 'NONE',  ( 0.7071067811865502373, 8.659560562354966138E-17, -0.7071067811865446862 ) ) ;
#30 = CARTESIAN_POINT ( 'NONE',  ( -0.07873999999999994892, 0.000000000000000000, 0.4039578718853090167 ) ) ;
#31 = PRESENTATION_LAYER_ASSIGNMENT (  '', '', ( #187 ) ) ;
#32 = CYLINDRICAL_SURFACE ( 'NONE', #216, 0.04916328750000000664 ) ;
#33 =( CONVERSION_BASED_UNIT ( 'INCH', #9 ) LENGTH_UNIT ( ) NAMED_UNIT ( #252 ) );
#34 = EDGE_CURVE ( 'NONE', #160, #43, #151, .T. ) ;
#35 = DIRECTION ( 'NONE',  ( -0.000000000000000000, -0.000000000000000000, -1.000000000000000000 ) ) ;
#36 =( GEOMETRIC_REPRESENTATION_CONTEXT ( 3 ) GLOBAL_UNCERTAINTY_ASSIGNED_CONTEXT ( ( #134 ) ) GLOBAL_UNIT_ASSIGNED_CONTEXT ( ( #55, #103, #217 ) ) REPRESENTATION_CONTEXT ( 'NONE', 'WORKASPACE' ) );
#37 = EDGE_CURVE ( 'NONE', #59, #80, #136, .T. ) ;
#38 = UNCERTAINTY_MEASURE_WITH_UNIT (LENGTH_MEASURE( 1.000000000000000082E-05 ), #293, 'distance_accuracy_value', 'NONE');
#39 = ORIENTED_EDGE ( 'NONE', *, *, #240, .T. ) ;
#40 = PRODUCT_DEFINITION_FORMATION_WITH_SPECIFIED_SOURCE ( 'ANY', '', #175, .NOT_KNOWN. ) ;
#41 = CARTESIAN_POINT ( 'NONE',  ( 4.947057147947202128E-17, 0.000000000000000000, 0.4039578718853090167 ) ) ;
#42 = AXIS2_PLACEMENT_3D ( 'NONE', #88, #249, #57 ) ;
#43 = VERTEX_POINT ( 'NONE', #64 ) ;
#44 = ORIENTED_EDGE ( 'NONE', *, *, #236, .F. ) ;
#45 = AXIS2_PLACEMENT_3D ( 'NONE', #286, #141, #86 ) ;
#46 = ADVANCED_FACE ( 'NONE', ( #201 ), #295, .F. ) ;
#47 = ORIENTED_EDGE ( 'NONE', *, *, #287, .F. ) ;
#48 = SURFACE_SIDE_STYLE ('',( #163 ) ) ;
#49 = CARTESIAN_POINT ( 'NONE',  ( 0.000000000000000000, 0.000000000000000000, 1.953504000000000129 ) ) ;
#50 = DIRECTION ( 'NONE',  ( 1.000000000000000000, 0.000000000000000000, 0.000000000000000000 ) ) ;
#51 = VECTOR ( 'NONE', #52, 39.37007874015748854 ) ;
#52 = DIRECTION ( 'NONE',  ( -0.7071067811865502373, 0.000000000000000000, -0.7071067811865446862 ) ) ;
#53 =( LENGTH_UNIT ( ) NAMED_UNIT ( * ) SI_UNIT ( $, .METRE. ) );
#54 = CYLINDRICAL_SURFACE ( 'NONE', #245, 0.07874000000000000443 ) ;
#55 =( CONVERSION_BASED_UNIT ( 'INCH', #146 ) LENGTH_UNIT ( ) NAMED_UNIT ( #227 ) );
#56 = CARTESIAN_POINT ( 'NONE',  ( 0.000000000000000000, 0.000000000000000000, 1.968503999999999809 ) ) ;
#57 = DIRECTION ( 'NONE',  ( 1.000000000000000000, 0.000000000000000000, -0.000000000000000000 ) ) ;
#58 = CIRCLE ( 'NONE', #162, 0.06374000000000018540 ) ;
#59 = VERTEX_POINT ( 'NONE', #30 ) ;
#60 = EDGE_LOOP ( 'NONE', ( #66, #184, #226, #62 ) ) ;
#61 = ORIENTED_EDGE ( 'NONE', *, *, #37, .F. ) ;
#62 = ORIENTED_EDGE ( 'NONE', *, *, #240, .F. ) ;
#63 = AXIS2_PLACEMENT_3D ( 'NONE', #49, #147, #266 ) ;
#64 = CARTESIAN_POINT ( 'NONE',  ( -0.04916328749999997888, 7.831817581864934190E-18, 0.2362200000000000133 ) ) ;
#65 = ORIENTED_EDGE ( 'NONE', *, *, #104, .F. ) ;
#66 = ORIENTED_EDGE ( 'NONE', *, *, #171, .F. ) ;
#67 = DIMENSIONAL_EXPONENTS ( 1.000000000000000000, 0.000000000000000000, 0.000000000000000000, 0.000000000000000000, 0.000000000000000000, 0.000000000000000000, 0.000000000000000000 ) ;
#68 = FILL_AREA_STYLE ('',( #279 ) ) ;
#69 = CARTESIAN_POINT ( 'NONE',  ( 0.04916328750000002745, 0.000000000000000000, 0.2362200000000000133 ) ) ;
#70 = DIRECTION ( 'NONE',  ( -1.000000000000000000, 0.000000000000000000, 0.000000000000000000 ) ) ;
#71 = CARTESIAN_POINT ( 'NONE',  ( 0.07874000000000000443, 9.642868896486258509E-18, 1.953504000000000129 ) ) ;
#72 = DIRECTION ( 'NONE',  ( -1.224646799147353207E-16, -0.000000000000000000, -1.000000000000000000 ) ) ;
#73 = DIRECTION ( 'NONE',  ( 1.000000000000000000, 0.000000000000000000, 0.000000000000000000 ) ) ;
#74 = CARTESIAN_POINT ( 'NONE',  ( 0.04916328749999999276, 6.020766267243607560E-18, -9.478001694819074349E-34 ) ) ;
#75 = CARTESIAN_POINT ( 'NONE',  ( 0.06374000000000018540, 7.805898697765251255E-18, 1.968503999999999809 ) ) ;
#76 = COLOUR_RGB ( '',0.7921568627450980005, 0.8196078431372548767, 0.9333333333333333481 ) ;
#77 = CARTESIAN_POINT ( 'NONE',  ( 0.000000000000000000, 0.000000000000000000, 0.000000000000000000 ) ) ;
#78 = AXIS2_PLACEMENT_3D ( 'NONE', #280, #239, #124 ) ;
#79 = APPLICATION_CONTEXT ( 'automotive_design' ) ;
#80 = VERTEX_POINT ( 'NONE', #1 ) ;
#81 = APPLICATION_PROTOCOL_DEFINITION ( 'draft international standard', 'automotive_design', 1998, #27 ) ;
#82 = AXIS2_PLACEMENT_3D ( 'NONE', #145, #142, #191 ) ;
#83 = AXIS2_PLACEMENT_3D ( 'NONE', #117, #119, #210 ) ;
#84 = UNCERTAINTY_MEASURE_WITH_UNIT (LENGTH_MEASURE( 1.000000000000000082E-05 ), #33, 'distance_accuracy_value', 'NONE');
#85 = ORIENTED_EDGE ( 'NONE', *, *, #104, .T. ) ;
#86 = DIRECTION ( 'NONE',  ( -1.000000000000000000, 0.000000000000000000, 0.000000000000000000 ) ) ;
#87 = DIRECTION ( 'NONE',  ( -1.000000000000000000, 0.000000000000000000, 0.000000000000000000 ) ) ;
#88 = CARTESIAN_POINT ( 'NONE',  ( 0.000000000000000000, 0.000000000000000000, 0.000000000000000000 ) ) ;
#89 = CIRCLE ( 'NONE', #107, 0.04916328749999999276 ) ;
#90 = EDGE_CURVE ( 'NONE', #179, #113, #213, .T. ) ;
#91 = ORIENTED_EDGE ( 'NONE', *, *, #37, .T. ) ;
#92 = VERTEX_POINT ( 'NONE', #94 ) ;
#93 = CARTESIAN_POINT ( 'NONE',  ( 7.373312137594241536E-34, 0.000000000000000000, 6.020766267243607560E-18 ) ) ;
#94 = CARTESIAN_POINT ( 'NONE',  ( -0.06374000000000018540, 0.000000000000000000, 1.968503999999999809 ) ) ;
#95 = VECTOR ( 'NONE', #263, 39.37007874015748143 ) ;
#96 = FACE_OUTER_BOUND ( 'NONE', #60, .T. ) ;
#97 = DIRECTION ( 'NONE',  ( -1.000000000000000000, 0.000000000000000000, 1.224646799147353207E-16 ) ) ;
#98 = SURFACE_STYLE_FILL_AREA ( #6 ) ;
#99 = AXIS2_PLACEMENT_3D ( 'NONE', #22, #159, #298 ) ;
#100 = CARTESIAN_POINT ( 'NONE',  ( -0.07874000000000000443, 0.000000000000000000, 1.968503999999999809 ) ) ;
#101 = AXIS2_PLACEMENT_3D ( 'NONE', #123, #166, #122 ) ;
#102 = ADVANCED_FACE ( 'NONE', ( #193 ), #118, .T. ) ;
#103 =( NAMED_UNIT ( * ) PLANE_ANGLE_UNIT ( ) SI_UNIT ( $, .RADIAN. ) );
#104 = EDGE_CURVE ( 'NONE', #113, #59, #149, .T. ) ;
#105 = DIRECTION ( 'NONE',  ( 0.000000000000000000, 0.000000000000000000, 1.000000000000000000 ) ) ;
#106 = VECTOR ( 'NONE', #29, 39.37007874015748854 ) ;
#107 = AXIS2_PLACEMENT_3D ( 'NONE', #93, #72, #155 ) ;
#108 = CARTESIAN_POINT ( 'NONE',  ( 0.000000000000000000, 0.000000000000000000, 1.968503999999999809 ) ) ;
#109 = ORIENTED_EDGE ( 'NONE', *, *, #185, .T. ) ;
#110 = ORIENTED_EDGE ( 'NONE', *, *, #231, .F. ) ;
#111 = EDGE_CURVE ( 'NONE', #80, #59, #241, .T. ) ;
#112 = ADVANCED_BREP_SHAPE_REPRESENTATION ( 'Micro_AEMM-025-4X', ( #195, #3 ), #153 ) ;
#113 = VERTEX_POINT ( 'NONE', #215 ) ;
#114 = VECTOR ( 'NONE', #164, 39.37007874015748143 ) ;
#115 = ORIENTED_EDGE ( 'NONE', *, *, #292, .F. ) ;
#116 = ORIENTED_EDGE ( 'NONE', *, *, #129, .F. ) ;
#117 = CARTESIAN_POINT ( 'NONE',  ( 2.892860668945878169E-17, 0.000000000000000000, 0.2362200000000000133 ) ) ;
#118 = CYLINDRICAL_SURFACE ( 'NONE', #78, 0.04916328750000000664 ) ;
#119 = DIRECTION ( 'NONE',  ( 1.224646799147353207E-16, 0.000000000000000000, 1.000000000000000000 ) ) ;
#120 = EDGE_CURVE ( 'NONE', #113, #179, #221, .T. ) ;
#121 = DIRECTION ( 'NONE',  ( -1.000000000000000000, 0.000000000000000000, 0.000000000000000000 ) ) ;
#122 = DIRECTION ( 'NONE',  ( 1.000000000000000000, 0.000000000000000000, -0.000000000000000000 ) ) ;
#123 = CARTESIAN_POINT ( 'NONE',  ( 0.000000000000000000, 0.000000000000000000, 1.968503999999999809 ) ) ;
#124 = DIRECTION ( 'NONE',  ( -1.000000000000000000, 0.000000000000000000, 1.224646799147353207E-16 ) ) ;
#125 =( LENGTH_UNIT ( ) NAMED_UNIT ( * ) SI_UNIT ( $, .METRE. ) );
#126 = FACE_OUTER_BOUND ( 'NONE', #181, .T. ) ;
#127 = AXIS2_PLACEMENT_3D ( 'NONE', #205, #273, #97 ) ;
#128 = ADVANCED_FACE ( 'NONE', ( #96 ), #32, .T. ) ;
#129 = EDGE_CURVE ( 'NONE', #160, #80, #26, .T. ) ;
#130 = PRODUCT_DEFINITION_SHAPE ( 'NONE', 'NONE',  #156 ) ;
#131 = DIRECTION ( 'NONE',  ( -1.000000000000000000, 0.000000000000000000, 0.000000000000000000 ) ) ;
#132 =( GEOMETRIC_REPRESENTATION_CONTEXT ( 3 ) GLOBAL_UNCERTAINTY_ASSIGNED_CONTEXT ( ( #84 ) ) GLOBAL_UNIT_ASSIGNED_CONTEXT ( ( #33, #218, #269 ) ) REPRESENTATION_CONTEXT ( 'NONE', 'WORKASPACE' ) );
#133 = ORIENTED_EDGE ( 'NONE', *, *, #120, .T. ) ;
#134 = UNCERTAINTY_MEASURE_WITH_UNIT (LENGTH_MEASURE( 1.000000000000000082E-05 ), #55, 'distance_accuracy_value', 'NONE');
#135 = FACE_OUTER_BOUND ( 'NONE', #14, .T. ) ;
#136 = CIRCLE ( 'NONE', #7, 0.07874000000000000443 ) ;
#137 = ORIENTED_EDGE ( 'NONE', *, *, #260, .T. ) ;
#138 = ORIENTED_EDGE ( 'NONE', *, *, #197, .F. ) ;
#139 = CONICAL_SURFACE ( 'NONE', #45, 0.06374000000000018540, 0.7853981633974522758 ) ;
#140 = EDGE_LOOP ( 'NONE', ( #158, #39 ) ) ;
#141 = DIRECTION ( 'NONE',  ( 0.000000000000000000, 0.000000000000000000, -1.000000000000000000 ) ) ;
#142 = DIRECTION ( 'NONE',  ( 0.000000000000000000, 0.000000000000000000, -1.000000000000000000 ) ) ;
#143 = EDGE_CURVE ( 'NONE', #20, #179, #188, .T. ) ;
#144 = FACE_OUTER_BOUND ( 'NONE', #242, .T. ) ;
#145 = CARTESIAN_POINT ( 'NONE',  ( 0.000000000000000000, 0.000000000000000000, 1.953504000000000129 ) ) ;
#146 = LENGTH_MEASURE_WITH_UNIT ( LENGTH_MEASURE( 0.02539999999999999897 ), #53 );
#147 = DIRECTION ( 'NONE',  ( 0.000000000000000000, 0.000000000000000000, -1.000000000000000000 ) ) ;
#148 = DIRECTION ( 'NONE',  ( 0.000000000000000000, 0.000000000000000000, -1.000000000000000000 ) ) ;
#149 = LINE ( 'NONE', #100, #114 ) ;
#150 = ORIENTED_EDGE ( 'NONE', *, *, #120, .F. ) ;
#151 = CIRCLE ( 'NONE', #267, 0.04916328750000000664 ) ;
#152 = LINE ( 'NONE', #244, #225 ) ;
#153 =( GEOMETRIC_REPRESENTATION_CONTEXT ( 3 ) GLOBAL_UNCERTAINTY_ASSIGNED_CONTEXT ( ( #38 ) ) GLOBAL_UNIT_ASSIGNED_CONTEXT ( ( #293, #299, #247 ) ) REPRESENTATION_CONTEXT ( 'NONE', 'WORKASPACE' ) );
#154 = ORIENTED_EDGE ( 'NONE', *, *, #197, .T. ) ;
#155 = DIRECTION ( 'NONE',  ( -1.000000000000000000, 0.000000000000000000, 1.224646799147353207E-16 ) ) ;
#156 = PRODUCT_DEFINITION ( 'UNKNOWN', '', #40, #178 ) ;
#157 = CIRCLE ( 'NONE', #16, 0.06374000000000018540 ) ;
#158 = ORIENTED_EDGE ( 'NONE', *, *, #236, .T. ) ;
#159 = DIRECTION ( 'NONE',  ( 1.224646799147353207E-16, 0.000000000000000000, 1.000000000000000000 ) ) ;
#160 = VERTEX_POINT ( 'NONE', #208 ) ;
#161 = ORIENTED_EDGE ( 'NONE', *, *, #256, .T. ) ;
#162 = AXIS2_PLACEMENT_3D ( 'NONE', #108, #261, #165 ) ;
#163 = SURFACE_STYLE_FILL_AREA ( #68 ) ;
#164 = DIRECTION ( 'NONE',  ( -0.000000000000000000, -0.000000000000000000, -1.000000000000000000 ) ) ;
#165 = DIRECTION ( 'NONE',  ( 1.000000000000000000, 0.000000000000000000, 0.000000000000000000 ) ) ;
#166 = DIRECTION ( 'NONE',  ( 0.000000000000000000, 0.000000000000000000, 1.000000000000000000 ) ) ;
#167 = LINE ( 'NONE', #177, #95 ) ;
#168 = PRESENTATION_STYLE_ASSIGNMENT (( #289 ) ) ;
#169 = DIRECTION ( 'NONE',  ( -1.000000000000000000, 0.000000000000000000, 0.000000000000000000 ) ) ;
#170 = MECHANICAL_DESIGN_GEOMETRIC_PRESENTATION_REPRESENTATION (  '', ( #180 ), #36 ) ;
#171 = EDGE_CURVE ( 'NONE', #160, #297, #238, .T. ) ;
#172 = CARTESIAN_POINT ( 'NONE',  ( -0.04916328749999999276, 0.000000000000000000, 1.204153253448721512E-17 ) ) ;
#173 = ADVANCED_FACE ( 'NONE', ( #8 ), #283, .T. ) ;
#174 = VECTOR ( 'NONE', #4, 39.37007874015748143 ) ;
#175 = PRODUCT ( 'Micro_AEMM-025-4X', 'Micro_AEMM-025-4X', '', ( #243 ) ) ;
#176 = EDGE_LOOP ( 'NONE', ( #268, #109 ) ) ;
#177 = CARTESIAN_POINT ( 'NONE',  ( -0.04916328750000000664, 0.000000000000000000, 6.020766267243608331E-18 ) ) ;
#178 = PRODUCT_DEFINITION_CONTEXT ( 'detailed design', #27, 'design' ) ;
#179 = VERTEX_POINT ( 'NONE', #71 ) ;
#180 = STYLED_ITEM ( 'NONE', ( #168 ), #195 ) ;
#181 = EDGE_LOOP ( 'NONE', ( #133, #203, #61, #65 ) ) ;
#182 = ORIENTED_EDGE ( 'NONE', *, *, #143, .T. ) ;
#183 = CARTESIAN_POINT ( 'NONE',  ( -0.06374000000000018540, 0.000000000000000000, 1.968503999999999809 ) ) ;
#184 = ORIENTED_EDGE ( 'NONE', *, *, #34, .T. ) ;
#185 = EDGE_CURVE ( 'NONE', #20, #92, #157, .T. ) ;
#186 = CARTESIAN_POINT ( 'NONE',  ( 4.947057147947202128E-17, 0.000000000000000000, 0.4039578718853090167 ) ) ;
#187 = STYLED_ITEM ( 'NONE', ( #2 ), #112 ) ;
#188 = LINE ( 'NONE', #75, #106 ) ;
#189 = FACE_OUTER_BOUND ( 'NONE', #274, .T. ) ;
#190 = CONICAL_SURFACE ( 'NONE', #99, 0.04916328750000000664, 0.1745329251994338360 ) ;
#191 = DIRECTION ( 'NONE',  ( 1.000000000000000000, 0.000000000000000000, 0.000000000000000000 ) ) ;
#192 = CARTESIAN_POINT ( 'NONE',  ( 0.000000000000000000, 0.000000000000000000, 1.968503999999999809 ) ) ;
#193 = FACE_OUTER_BOUND ( 'NONE', #272, .T. ) ;
#194 = AXIS2_PLACEMENT_3D ( 'NONE', #56, #148, #131 ) ;
#195 = MANIFOLD_SOLID_BREP ( 'Cut-Revolve1', #271 ) ;
#196 = DIRECTION ( 'NONE',  ( 1.000000000000000000, 0.000000000000000000, 0.000000000000000000 ) ) ;
#197 = EDGE_CURVE ( 'NONE', #92, #113, #290, .T. ) ;
#198 = MECHANICAL_DESIGN_GEOMETRIC_PRESENTATION_REPRESENTATION (  '', ( #187 ), #132 ) ;
#199 = CARTESIAN_POINT ( 'NONE',  ( 2.892860668945878169E-17, 0.000000000000000000, 0.2362200000000000133 ) ) ;
#200 = ADVANCED_FACE ( 'NONE', ( #264 ), #202, .T. ) ;
#201 = FACE_OUTER_BOUND ( 'NONE', #140, .T. ) ;
#202 = CONICAL_SURFACE ( 'NONE', #194, 0.06374000000000018540, 0.7853981633974522758 ) ;
#203 = ORIENTED_EDGE ( 'NONE', *, *, #231, .T. ) ;
#204 = ORIENTED_EDGE ( 'NONE', *, *, #129, .T. ) ;
#205 = CARTESIAN_POINT ( 'NONE',  ( 7.373312137594241536E-34, 0.000000000000000000, 6.020766267243607560E-18 ) ) ;
#206 = ORIENTED_EDGE ( 'NONE', *, *, #171, .T. ) ;
#207 = SURFACE_STYLE_USAGE ( .BOTH. , #48 ) ;
#208 = CARTESIAN_POINT ( 'NONE',  ( 0.04916328750000002745, 0.000000000000000000, 0.2362200000000000133 ) ) ;
#209 = AXIS2_PLACEMENT_3D ( 'NONE', #229, #220, #121 ) ;
#210 = DIRECTION ( 'NONE',  ( 1.000000000000000000, 0.000000000000000000, 0.000000000000000000 ) ) ;
#211 = FILL_AREA_STYLE_COLOUR ( '', #76 ) ;
#212 = CARTESIAN_POINT ( 'NONE',  ( 0.000000000000000000, 0.000000000000000000, 1.968503999999999809 ) ) ;
#213 = CIRCLE ( 'NONE', #82, 0.07874000000000000443 ) ;
#214 = CARTESIAN_POINT ( 'NONE',  ( 0.000000000000000000, 0.000000000000000000, 0.000000000000000000 ) ) ;
#215 = CARTESIAN_POINT ( 'NONE',  ( -0.07874000000000000443, 0.000000000000000000, 1.953504000000000129 ) ) ;
#216 = AXIS2_PLACEMENT_3D ( 'NONE', #214, #285, #230 ) ;
#217 =( NAMED_UNIT ( * ) SI_UNIT ( $, .STERADIAN. ) SOLID_ANGLE_UNIT ( ) );
#218 =( NAMED_UNIT ( * ) PLANE_ANGLE_UNIT ( ) SI_UNIT ( $, .RADIAN. ) );
#219 = VECTOR ( 'NONE', #233, 39.37007874015748143 ) ;
#220 = DIRECTION ( 'NONE',  ( -1.224646799147353207E-16, -0.000000000000000000, -1.000000000000000000 ) ) ;
#221 = CIRCLE ( 'NONE', #63, 0.07874000000000000443 ) ;
#222 = ORIENTED_EDGE ( 'NONE', *, *, #256, .F. ) ;
#223 = DIRECTION ( 'NONE',  ( -1.224646799147353207E-16, -0.000000000000000000, -1.000000000000000000 ) ) ;
#224 = ORIENTED_EDGE ( 'NONE', *, *, #34, .F. ) ;
#225 = VECTOR ( 'NONE', #35, 39.37007874015748143 ) ;
#226 = ORIENTED_EDGE ( 'NONE', *, *, #287, .T. ) ;
#227 = DIMENSIONAL_EXPONENTS ( 1.000000000000000000, 0.000000000000000000, 0.000000000000000000, 0.000000000000000000, 0.000000000000000000, 0.000000000000000000, 0.000000000000000000 ) ;
#228 = VERTEX_POINT ( 'NONE', #172 ) ;
#229 = CARTESIAN_POINT ( 'NONE',  ( 2.892860668945878169E-17, 0.000000000000000000, 0.2362200000000000133 ) ) ;
#230 = DIRECTION ( 'NONE',  ( -1.000000000000000000, 0.000000000000000000, 1.224646799147353207E-16 ) ) ;
#231 = EDGE_CURVE ( 'NONE', #179, #80, #152, .T. ) ;
#232 = CARTESIAN_POINT ( 'NONE',  ( 0.000000000000000000, 0.000000000000000000, 1.968503999999999809 ) ) ;
#233 = DIRECTION ( 'NONE',  ( 0.1736481776669313304, 0.000000000000000000, 0.9848077530122077983 ) ) ;
#234 = ADVANCED_FACE ( 'NONE', ( #126 ), #15, .T. ) ;
#235 = PRESENTATION_LAYER_ASSIGNMENT (  '', '', ( #180 ) ) ;
#236 = EDGE_CURVE ( 'NONE', #228, #297, #89, .T. ) ;
#237 = CARTESIAN_POINT ( 'NONE',  ( 0.04916328750000000664, 6.020766267243608331E-18, -6.020766267243608331E-18 ) ) ;
#238 = LINE ( 'NONE', #237, #174 ) ;
#239 = DIRECTION ( 'NONE',  ( -1.224646799147353207E-16, -0.000000000000000000, -1.000000000000000000 ) ) ;
#240 = EDGE_CURVE ( 'NONE', #297, #228, #262, .T. ) ;
#241 = CIRCLE ( 'NONE', #296, 0.07874000000000000443 ) ;
#242 = EDGE_LOOP ( 'NONE', ( #110, #18, #85, #248 ) ) ;
#243 = PRODUCT_CONTEXT ( 'NONE', #79, 'mechanical' ) ;
#244 = CARTESIAN_POINT ( 'NONE',  ( 0.07874000000000000443, 9.642868896486258509E-18, 1.968503999999999809 ) ) ;
#245 = AXIS2_PLACEMENT_3D ( 'NONE', #232, #281, #70 ) ;
#246 = EDGE_LOOP ( 'NONE', ( #222, #137, #91, #116 ) ) ;
#247 =( NAMED_UNIT ( * ) SI_UNIT ( $, .STERADIAN. ) SOLID_ANGLE_UNIT ( ) );
#248 = ORIENTED_EDGE ( 'NONE', *, *, #111, .F. ) ;
#249 = DIRECTION ( 'NONE',  ( 0.000000000000000000, 0.000000000000000000, 1.000000000000000000 ) ) ;
#250 = ADVANCED_FACE ( 'NONE', ( #144 ), #54, .T. ) ;
#251 = ORIENTED_EDGE ( 'NONE', *, *, #260, .F. ) ;
#252 = DIMENSIONAL_EXPONENTS ( 1.000000000000000000, 0.000000000000000000, 0.000000000000000000, 0.000000000000000000, 0.000000000000000000, 0.000000000000000000, 0.000000000000000000 ) ;
#253 = AXIS2_PLACEMENT_3D ( 'NONE', #212, #5, #169 ) ;
#254 = ORIENTED_EDGE ( 'NONE', *, *, #111, .T. ) ;
#255 = LINE ( 'NONE', #28, #288 ) ;
#256 = EDGE_CURVE ( 'NONE', #43, #160, #270, .T. ) ;
#257 = DIRECTION ( 'NONE',  ( -1.224646799147353207E-16, -0.000000000000000000, -1.000000000000000000 ) ) ;
#258 =( LENGTH_UNIT ( ) NAMED_UNIT ( * ) SI_UNIT ( $, .METRE. ) );
#259 = DIRECTION ( 'NONE',  ( 0.000000000000000000, 0.000000000000000000, 1.000000000000000000 ) ) ;
#260 = EDGE_CURVE ( 'NONE', #43, #59, #255, .T. ) ;
#261 = DIRECTION ( 'NONE',  ( 0.000000000000000000, 0.000000000000000000, 1.000000000000000000 ) ) ;
#262 = CIRCLE ( 'NONE', #127, 0.04916328749999999276 ) ;
#263 = DIRECTION ( 'NONE',  ( -1.224646799147353207E-16, -0.000000000000000000, -1.000000000000000000 ) ) ;
#264 = FACE_OUTER_BOUND ( 'NONE', #291, .T. ) ;
#265 = ADVANCED_FACE ( 'NONE', ( #189 ), #139, .T. ) ;
#266 = DIRECTION ( 'NONE',  ( 1.000000000000000000, 0.000000000000000000, 0.000000000000000000 ) ) ;
#267 = AXIS2_PLACEMENT_3D ( 'NONE', #199, #294, #87 ) ;
#268 = ORIENTED_EDGE ( 'NONE', *, *, #292, .T. ) ;
#269 =( NAMED_UNIT ( * ) SI_UNIT ( $, .STERADIAN. ) SOLID_ANGLE_UNIT ( ) );
#270 = CIRCLE ( 'NONE', #209, 0.04916328750000000664 ) ;
#271 = CLOSED_SHELL ( 'NONE', ( #102, #282, #265, #234, #250, #173, #200, #13, #128, #46 ) ) ;
#272 = EDGE_LOOP ( 'NONE', ( #161, #206, #44, #47 ) ) ;
#273 = DIRECTION ( 'NONE',  ( -1.224646799147353207E-16, -0.000000000000000000, -1.000000000000000000 ) ) ;
#274 = EDGE_LOOP ( 'NONE', ( #24, #182, #150, #138 ) ) ;
#275 = CARTESIAN_POINT ( 'NONE',  ( 0.06374000000000018540, 8.724383797125754882E-18, 1.968503999999999809 ) ) ;
#276 = ORIENTED_EDGE ( 'NONE', *, *, #90, .F. ) ;
#277 = ORIENTED_EDGE ( 'NONE', *, *, #143, .F. ) ;
#278 = PRODUCT_RELATED_PRODUCT_CATEGORY ( 'part', '', ( #175 ) ) ;
#279 = FILL_AREA_STYLE_COLOUR ( '', #21 ) ;
#280 = CARTESIAN_POINT ( 'NONE',  ( 0.000000000000000000, 0.000000000000000000, 0.000000000000000000 ) ) ;
#281 = DIRECTION ( 'NONE',  ( -0.000000000000000000, -0.000000000000000000, -1.000000000000000000 ) ) ;
#282 = ADVANCED_FACE ( 'NONE', ( #284 ), #10, .T. ) ;
#283 = PLANE ( 'NONE',  #101 ) ;
#284 = FACE_OUTER_BOUND ( 'NONE', #246, .T. ) ;
#285 = DIRECTION ( 'NONE',  ( -1.224646799147353207E-16, -0.000000000000000000, -1.000000000000000000 ) ) ;
#286 = CARTESIAN_POINT ( 'NONE',  ( 0.000000000000000000, 0.000000000000000000, 1.968503999999999809 ) ) ;
#287 = EDGE_CURVE ( 'NONE', #43, #228, #167, .T. ) ;
#288 = VECTOR ( 'NONE', #17, 39.37007874015747433 ) ;
#289 = SURFACE_STYLE_USAGE ( .BOTH. , #11 ) ;
#290 = LINE ( 'NONE', #183, #51 ) ;
#291 = EDGE_LOOP ( 'NONE', ( #277, #115, #154, #276 ) ) ;
#292 = EDGE_CURVE ( 'NONE', #92, #20, #58, .T. ) ;
#293 =( CONVERSION_BASED_UNIT ( 'INCH', #25 ) LENGTH_UNIT ( ) NAMED_UNIT ( #67 ) );
#294 = DIRECTION ( 'NONE',  ( -1.224646799147353207E-16, -0.000000000000000000, -1.000000000000000000 ) ) ;
#295 = PLANE ( 'NONE',  #42 ) ;
#296 = AXIS2_PLACEMENT_3D ( 'NONE', #186, #257, #73 ) ;
#297 = VERTEX_POINT ( 'NONE', #74 ) ;
#298 = DIRECTION ( 'NONE',  ( 1.000000000000000000, 0.000000000000000000, 0.000000000000000000 ) ) ;
#299 =( NAMED_UNIT ( * ) PLANE_ANGLE_UNIT ( ) SI_UNIT ( $, .RADIAN. ) );
ENDSEC;
END-ISO-10303-21;
