ISO-10303-21;
HEADER;
FILE_DESCRIPTION (( 'STEP AP214' ),
    '1' );
FILE_NAME ('30362.STEP',
    '2023-06-22T18:25:57',
    ( '' ),
    ( '' ),
    'SwSTEP 2.0',
    'SolidWorks 2023',
    '' );
FILE_SCHEMA (( 'AUTOMOTIVE_DESIGN' ));
ENDSEC;

DATA;
#1 = VERTEX_POINT ( 'NONE', #32 ) ;
#2 = ORIENTED_EDGE ( 'NONE', *, *, #244, .F. ) ;
#3 = PLANE ( 'NONE',  #76 ) ;
#4 = UNCERTAINTY_MEASURE_WITH_UNIT (LENGTH_MEASURE( 1.000000000000000082E-05 ), #131, 'distance_accuracy_value', 'NONE');
#5 = ORIENTED_EDGE ( 'NONE', *, *, #188, .F. ) ;
#6 = DIRECTION ( 'NONE',  ( -0.000000000000000000, -1.000000000000000000, -0.000000000000000000 ) ) ;
#7 = ORIENTED_EDGE ( 'NONE', *, *, #244, .T. ) ;
#8 = LENGTH_MEASURE_WITH_UNIT ( LENGTH_MEASURE( 0.02539999999999999897 ), #93 );
#9 = AXIS2_PLACEMENT_3D ( 'NONE', #61, #68, #183 ) ;
#10 = PRODUCT_DEFINITION_FORMATION_WITH_SPECIFIED_SOURCE ( 'ANY', '', #355, .NOT_KNOWN. ) ;
#11 = MANIFOLD_SOLID_BREP ( 'Revolve - Cutting Edge', #351 ) ;
#12 = VECTOR ( 'NONE', #145, 39.37007874015748143 ) ;
#13 = DIRECTION ( 'NONE',  ( 1.360718665719285587E-17, 1.000000000000000000, -0.000000000000000000 ) ) ;
#14 = EDGE_LOOP ( 'NONE', ( #7, #280 ) ) ;
#15 = ADVANCED_FACE ( 'NONE', ( #318 ), #88, .T. ) ;
#16 = CARTESIAN_POINT ( 'NONE',  ( 5.841474700459605913E-19, 0.5429293346789784147, 0.000000000000000000 ) ) ;
#17 =( NAMED_UNIT ( * ) SI_UNIT ( $, .STERADIAN. ) SOLID_ANGLE_UNIT ( ) );
#18 = APPLICATION_PROTOCOL_DEFINITION ( 'draft international standard', 'automotive_design', 1998, #197 ) ;
#19 =( NAMED_UNIT ( * ) SI_UNIT ( $, .STERADIAN. ) SOLID_ANGLE_UNIT ( ) );
#20 = DIRECTION ( 'NONE',  ( -1.000000000000000000, 0.000000000000000000, 0.000000000000000000 ) ) ;
#21 = LENGTH_MEASURE_WITH_UNIT ( LENGTH_MEASURE( 0.02539999999999999897 ), #165 );
#22 =( GEOMETRIC_REPRESENTATION_CONTEXT ( 3 ) GLOBAL_UNCERTAINTY_ASSIGNED_CONTEXT ( ( #82 ) ) GLOBAL_UNIT_ASSIGNED_CONTEXT ( ( #312, #34, #227 ) ) REPRESENTATION_CONTEXT ( 'NONE', 'WORKASPACE' ) );
#23 =( GEOMETRIC_REPRESENTATION_CONTEXT ( 3 ) GLOBAL_UNCERTAINTY_ASSIGNED_CONTEXT ( ( #72 ) ) GLOBAL_UNIT_ASSIGNED_CONTEXT ( ( #159, #248, #305 ) ) REPRESENTATION_CONTEXT ( 'NONE', 'WORKASPACE' ) );
#24 = CARTESIAN_POINT ( 'NONE',  ( 5.841474700459605913E-19, 0.5429293346789784147, 0.000000000000000000 ) ) ;
#25 = ORIENTED_EDGE ( 'NONE', *, *, #240, .T. ) ;
#26 =( CONVERSION_BASED_UNIT ( 'INCH', #278 ) LENGTH_UNIT ( ) NAMED_UNIT ( #129 ) );
#27 = STYLED_ITEM ( 'NONE', ( #271 ), #65 ) ;
#28 = DIRECTION ( 'NONE',  ( 0.3420201433256701562, 0.9396926207859077618, 4.188538737677009638E-17 ) ) ;
#29 = FILL_AREA_STYLE_COLOUR ( '', #205 ) ;
#30 = VERTEX_POINT ( 'NONE', #234 ) ;
#31 =( LENGTH_UNIT ( ) NAMED_UNIT ( * ) SI_UNIT ( $, .METRE. ) );
#32 = CARTESIAN_POINT ( 'NONE',  ( 0.2031250000000000000, 0.5000000000000001110, 2.583239341951448537E-17 ) ) ;
#33 = LENGTH_MEASURE_WITH_UNIT ( LENGTH_MEASURE( 0.02539999999999999897 ), #31 );
#34 =( NAMED_UNIT ( * ) PLANE_ANGLE_UNIT ( ) SI_UNIT ( $, .RADIAN. ) );
#35 = AXIS2_PLACEMENT_3D ( 'NONE', #100, #56, #87 ) ;
#36 = VECTOR ( 'NONE', #130, 39.37007874015748143 ) ;
#37 = EDGE_LOOP ( 'NONE', ( #233, #290, #226, #121 ) ) ;
#38 = UNCERTAINTY_MEASURE_WITH_UNIT (LENGTH_MEASURE( 1.000000000000000082E-05 ), #261, 'distance_accuracy_value', 'NONE');
#39 = VERTEX_POINT ( 'NONE', #285 ) ;
#40 = SURFACE_STYLE_FILL_AREA ( #104 ) ;
#41 = DIMENSIONAL_EXPONENTS ( 1.000000000000000000, 0.000000000000000000, 0.000000000000000000, 0.000000000000000000, 0.000000000000000000, 0.000000000000000000, 0.000000000000000000 ) ;
#42 = CONICAL_SURFACE ( 'NONE', #347, 0.2031250000000000000, 0.3490658503988674499 ) ;
#43 = CARTESIAN_POINT ( 'NONE',  ( 0.000000000000000000, 0.000000000000000000, -0.2031250000000000000 ) ) ;
#44 = CIRCLE ( 'NONE', #182, 0.2187500000000000000 ) ;
#45 = PLANE ( 'NONE',  #307 ) ;
#46 = SURFACE_SIDE_STYLE ('',( #301 ) ) ;
#47 = DIMENSIONAL_EXPONENTS ( 1.000000000000000000, 0.000000000000000000, 0.000000000000000000, 0.000000000000000000, 0.000000000000000000, 0.000000000000000000, 0.000000000000000000 ) ;
#48 = PRESENTATION_LAYER_ASSIGNMENT (  '', '', ( #250 ) ) ;
#49 = DIRECTION ( 'NONE',  ( 1.000000000000000000, -1.360718665719285587E-17, 0.000000000000000000 ) ) ;
#50 = ADVANCED_FACE ( 'NONE', ( #346 ), #321, .T. ) ;
#51 = CIRCLE ( 'NONE', #260, 0.2187500000000000278 ) ;
#52 = DIRECTION ( 'NONE',  ( -1.000000000000000000, 0.000000000000000000, 0.000000000000000000 ) ) ;
#53 = EDGE_LOOP ( 'NONE', ( #156, #223, #96, #282 ) ) ;
#54 = ADVANCED_BREP_SHAPE_REPRESENTATION ( '30362', ( #11, #128, #319 ), #23 ) ;
#55 = STYLED_ITEM ( 'NONE', ( #231 ), #11 ) ;
#56 = DIRECTION ( 'NONE',  ( -0.000000000000000000, -1.000000000000000000, -0.000000000000000000 ) ) ;
#57 = FILL_AREA_STYLE ('',( #29 ) ) ;
#58 = PRODUCT_DEFINITION ( 'UNKNOWN', '', #10, #175 ) ;
#59 = VERTEX_POINT ( 'NONE', #215 ) ;
#60 = SURFACE_SIDE_STYLE ('',( #119 ) ) ;
#61 = CARTESIAN_POINT ( 'NONE',  ( 3.061616997868392262E-17, 2.750000000000000000, 0.000000000000000000 ) ) ;
#62 = AXIS2_PLACEMENT_3D ( 'NONE', #71, #291, #74 ) ;
#63 = FACE_OUTER_BOUND ( 'NONE', #338, .T. ) ;
#64 = ORIENTED_EDGE ( 'NONE', *, *, #237, .F. ) ;
#65 = ADVANCED_FACE ( 'NONE', ( #302 ), #329, .T. ) ;
#66 = CARTESIAN_POINT ( 'NONE',  ( 0.000000000000000000, 0.5000000000000000000, -0.2031250000000000000 ) ) ;
#67 = DIRECTION ( 'NONE',  ( -0.3420201433256701562, 0.9396926207859077618, 0.000000000000000000 ) ) ;
#68 = DIRECTION ( 'NONE',  ( 1.360718665719285587E-17, 1.000000000000000000, -0.000000000000000000 ) ) ;
#69 = CIRCLE ( 'NONE', #219, 0.2031250000000000000 ) ;
#70 = EDGE_CURVE ( 'NONE', #111, #59, #228, .T. ) ;
#71 = CARTESIAN_POINT ( 'NONE',  ( 3.061616997868392262E-17, 2.750000000000000000, 0.000000000000000000 ) ) ;
#72 = UNCERTAINTY_MEASURE_WITH_UNIT (LENGTH_MEASURE( 1.000000000000000082E-05 ), #159, 'distance_accuracy_value', 'NONE');
#73 = DIRECTION ( 'NONE',  ( 0.000000000000000000, -1.000000000000000000, -0.000000000000000000 ) ) ;
#74 = DIRECTION ( 'NONE',  ( -1.000000000000000000, 0.000000000000000000, 0.000000000000000000 ) ) ;
#75 = COLOUR_RGB ( '',0.7921568627450980005, 0.8196078431372548767, 0.9333333333333333481 ) ;
#76 = AXIS2_PLACEMENT_3D ( 'NONE', #324, #273, #214 ) ;
#77 =( GEOMETRIC_REPRESENTATION_CONTEXT ( 3 ) GLOBAL_UNCERTAINTY_ASSIGNED_CONTEXT ( ( #101 ) ) GLOBAL_UNIT_ASSIGNED_CONTEXT ( ( #196, #323, #17 ) ) REPRESENTATION_CONTEXT ( 'NONE', 'WORKASPACE' ) );
#78 = DIMENSIONAL_EXPONENTS ( 1.000000000000000000, 0.000000000000000000, 0.000000000000000000, 0.000000000000000000, 0.000000000000000000, 0.000000000000000000, 0.000000000000000000 ) ;
#79 = SURFACE_SIDE_STYLE ('',( #40 ) ) ;
#80 = CIRCLE ( 'NONE', #113, 0.2187500000000000278 ) ;
#81 = PLANE ( 'NONE',  #90 ) ;
#82 = UNCERTAINTY_MEASURE_WITH_UNIT (LENGTH_MEASURE( 1.000000000000000082E-05 ), #312, 'distance_accuracy_value', 'NONE');
#83 = DIRECTION ( 'NONE',  ( 1.360718665719285587E-17, 1.000000000000000000, -0.000000000000000000 ) ) ;
#84 = DIRECTION ( 'NONE',  ( -1.360718665719285587E-17, -1.000000000000000000, 0.000000000000000000 ) ) ;
#85 = CONICAL_SURFACE ( 'NONE', #134, 0.2031250000000000000, 0.3490658503988674499 ) ;
#86 = DIRECTION ( 'NONE',  ( 1.360718665719285587E-17, 1.000000000000000000, -0.000000000000000000 ) ) ;
#87 = DIRECTION ( 'NONE',  ( 0.000000000000000000, 0.000000000000000000, -1.000000000000000000 ) ) ;
#88 = CYLINDRICAL_SURFACE ( 'NONE', #9, 0.2187500000000000278 ) ;
#89 = SURFACE_STYLE_USAGE ( .BOTH. , #60 ) ;
#90 = AXIS2_PLACEMENT_3D ( 'NONE', #198, #84, #49 ) ;
#91 = DIRECTION ( 'NONE',  ( 0.000000000000000000, 0.000000000000000000, -1.000000000000000000 ) ) ;
#92 = SURFACE_SIDE_STYLE ('',( #204 ) ) ;
#93 =( LENGTH_UNIT ( ) NAMED_UNIT ( * ) SI_UNIT ( $, .METRE. ) );
#94 = PRODUCT_DEFINITION_SHAPE ( 'NONE', 'NONE',  #58 ) ;
#95 = CARTESIAN_POINT ( 'NONE',  ( 0.2187500000000000278, 2.750000000000000000, 2.678914873134835372E-17 ) ) ;
#96 = ORIENTED_EDGE ( 'NONE', *, *, #356, .T. ) ;
#97 = CARTESIAN_POINT ( 'NONE',  ( 0.000000000000000000, 0.5000000000000001110, 0.000000000000000000 ) ) ;
#98 = LINE ( 'NONE', #43, #36 ) ;
#99 = DIRECTION ( 'NONE',  ( 1.360718665719285587E-17, 1.000000000000000000, -0.000000000000000000 ) ) ;
#100 = CARTESIAN_POINT ( 'NONE',  ( 0.000000000000000000, 0.5000000000000000000, 0.000000000000000000 ) ) ;
#101 = UNCERTAINTY_MEASURE_WITH_UNIT (LENGTH_MEASURE( 1.000000000000000082E-05 ), #196, 'distance_accuracy_value', 'NONE');
#102 = COLOUR_RGB ( '',1.000000000000000000, 0.000000000000000000, 0.000000000000000000 ) ;
#103 = MECHANICAL_DESIGN_GEOMETRIC_PRESENTATION_REPRESENTATION (  '', ( #190 ), #229 ) ;
#104 = FILL_AREA_STYLE ('',( #163 ) ) ;
#105 = PRESENTATION_STYLE_ASSIGNMENT (( #239 ) ) ;
#106 = DIMENSIONAL_EXPONENTS ( 1.000000000000000000, 0.000000000000000000, 0.000000000000000000, 0.000000000000000000, 0.000000000000000000, 0.000000000000000000, 0.000000000000000000 ) ;
#107 = CARTESIAN_POINT ( 'NONE',  ( 0.2187500000000000555, 2.750000000000000000, 2.678914873134835372E-17 ) ) ;
#108 = MECHANICAL_DESIGN_GEOMETRIC_PRESENTATION_REPRESENTATION (  '', ( #27 ), #358 ) ;
#109 = ORIENTED_EDGE ( 'NONE', *, *, #306, .F. ) ;
#110 = DIRECTION ( 'NONE',  ( -1.000000000000000000, 0.000000000000000000, 0.000000000000000000 ) ) ;
#111 = VERTEX_POINT ( 'NONE', #275 ) ;
#112 = APPLICATION_CONTEXT ( 'automotive_design' ) ;
#113 = AXIS2_PLACEMENT_3D ( 'NONE', #16, #348, #20 ) ;
#114 = LINE ( 'NONE', #281, #161 ) ;
#115 = VERTEX_POINT ( 'NONE', #242 ) ;
#116 = SURFACE_STYLE_FILL_AREA ( #317 ) ;
#117 = ORIENTED_EDGE ( 'NONE', *, *, #240, .F. ) ;
#118 = EDGE_CURVE ( 'NONE', #249, #115, #51, .T. ) ;
#119 = SURFACE_STYLE_FILL_AREA ( #57 ) ;
#120 = ORIENTED_EDGE ( 'NONE', *, *, #237, .T. ) ;
#121 = ORIENTED_EDGE ( 'NONE', *, *, #320, .F. ) ;
#122 = COLOUR_RGB ( '',0.7921568627450980005, 0.8196078431372548767, 0.9333333333333333481 ) ;
#123 = CYLINDRICAL_SURFACE ( 'NONE', #251, 0.2031250000000000000 ) ;
#124 =( NAMED_UNIT ( * ) PLANE_ANGLE_UNIT ( ) SI_UNIT ( $, .RADIAN. ) );
#125 = ADVANCED_FACE ( 'NONE', ( #213 ), #45, .F. ) ;
#126 = PLANE ( 'NONE',  #352 ) ;
#127 = DIRECTION ( 'NONE',  ( 1.360718665719285587E-17, 1.000000000000000000, -0.000000000000000000 ) ) ;
#128 = MANIFOLD_SOLID_BREP ( 'Revolve - Tool Body (Reduced Cut Diameter)', #339 ) ;
#129 = DIMENSIONAL_EXPONENTS ( 1.000000000000000000, 0.000000000000000000, 0.000000000000000000, 0.000000000000000000, 0.000000000000000000, 0.000000000000000000, 0.000000000000000000 ) ;
#130 = DIRECTION ( 'NONE',  ( -0.000000000000000000, -1.000000000000000000, -0.000000000000000000 ) ) ;
#131 =( CONVERSION_BASED_UNIT ( 'INCH', #21 ) LENGTH_UNIT ( ) NAMED_UNIT ( #106 ) );
#132 = APPLICATION_PROTOCOL_DEFINITION ( 'draft international standard', 'automotive_design', 1998, #112 ) ;
#133 = UNCERTAINTY_MEASURE_WITH_UNIT (LENGTH_MEASURE( 1.000000000000000082E-05 ), #150, 'distance_accuracy_value', 'NONE');
#134 = AXIS2_PLACEMENT_3D ( 'NONE', #202, #168, #110 ) ;
#135 = FILL_AREA_STYLE_COLOUR ( '', #75 ) ;
#136 = DIRECTION ( 'NONE',  ( 0.000000000000000000, 0.000000000000000000, 1.000000000000000000 ) ) ;
#137 = EDGE_CURVE ( 'NONE', #277, #30, #313, .T. ) ;
#138 = LINE ( 'NONE', #107, #12 ) ;
#139 = CARTESIAN_POINT ( 'NONE',  ( 0.000000000000000000, 0.5000000000000001110, 0.000000000000000000 ) ) ;
#140 = ORIENTED_EDGE ( 'NONE', *, *, #137, .F. ) ;
#141 = AXIS2_PLACEMENT_3D ( 'NONE', #192, #246, #189 ) ;
#142 = MECHANICAL_DESIGN_GEOMETRIC_PRESENTATION_REPRESENTATION (  '', ( #250 ), #297 ) ;
#143 = EDGE_CURVE ( 'NONE', #115, #258, #138, .T. ) ;
#144 = MECHANICAL_DESIGN_GEOMETRIC_PRESENTATION_REPRESENTATION (  '', ( #155 ), #77 ) ;
#145 = DIRECTION ( 'NONE',  ( 1.360718665719285587E-17, 1.000000000000000000, -0.000000000000000000 ) ) ;
#146 = EDGE_LOOP ( 'NONE', ( #5, #203 ) ) ;
#147 = CARTESIAN_POINT ( 'NONE',  ( 0.000000000000000000, 0.000000000000000000, 0.000000000000000000 ) ) ;
#148 = ORIENTED_EDGE ( 'NONE', *, *, #255, .T. ) ;
#149 = CIRCLE ( 'NONE', #173, 0.2031250000000000000 ) ;
#150 =( CONVERSION_BASED_UNIT ( 'INCH', #345 ) LENGTH_UNIT ( ) NAMED_UNIT ( #41 ) );
#151 = ORIENTED_EDGE ( 'NONE', *, *, #253, .T. ) ;
#152 = CARTESIAN_POINT ( 'NONE',  ( 0.000000000000000000, 0.5000000000000001110, 0.000000000000000000 ) ) ;
#153 = FILL_AREA_STYLE ('',( #186 ) ) ;
#154 = DIRECTION ( 'NONE',  ( 0.000000000000000000, 0.000000000000000000, -1.000000000000000000 ) ) ;
#155 = STYLED_ITEM ( 'NONE', ( #105 ), #128 ) ;
#156 = ORIENTED_EDGE ( 'NONE', *, *, #270, .F. ) ;
#157 = CARTESIAN_POINT ( 'NONE',  ( 0.000000000000000000, 0.000000000000000000, 0.000000000000000000 ) ) ;
#158 = ORIENTED_EDGE ( 'NONE', *, *, #188, .T. ) ;
#159 =( CONVERSION_BASED_UNIT ( 'INCH', #236 ) LENGTH_UNIT ( ) NAMED_UNIT ( #167 ) );
#160 = FILL_AREA_STYLE_COLOUR ( '', #102 ) ;
#161 = VECTOR ( 'NONE', #28, 39.37007874015748143 ) ;
#162 =( LENGTH_UNIT ( ) NAMED_UNIT ( * ) SI_UNIT ( $, .METRE. ) );
#163 = FILL_AREA_STYLE_COLOUR ( '', #327 ) ;
#164 = SURFACE_SIDE_STYLE ('',( #193 ) ) ;
#165 =( LENGTH_UNIT ( ) NAMED_UNIT ( * ) SI_UNIT ( $, .METRE. ) );
#166 = PRODUCT_CONTEXT ( 'NONE', #197, 'mechanical' ) ;
#167 = DIMENSIONAL_EXPONENTS ( 1.000000000000000000, 0.000000000000000000, 0.000000000000000000, 0.000000000000000000, 0.000000000000000000, 0.000000000000000000, 0.000000000000000000 ) ;
#168 = DIRECTION ( 'NONE',  ( 1.360718665719285587E-17, 1.000000000000000000, -0.000000000000000000 ) ) ;
#169 = PRESENTATION_LAYER_ASSIGNMENT (  '', '', ( #55 ) ) ;
#170 = ORIENTED_EDGE ( 'NONE', *, *, #306, .T. ) ;
#171 = DIRECTION ( 'NONE',  ( -1.000000000000000000, 0.000000000000000000, 0.000000000000000000 ) ) ;
#172 = CARTESIAN_POINT ( 'NONE',  ( -0.2187499999999999445, 2.750000000000000000, 0.000000000000000000 ) ) ;
#173 = AXIS2_PLACEMENT_3D ( 'NONE', #288, #314, #154 ) ;
#174 = CARTESIAN_POINT ( 'NONE',  ( 2.487563810768061395E-17, 0.000000000000000000, 0.2031250000000000000 ) ) ;
#175 = PRODUCT_DEFINITION_CONTEXT ( 'detailed design', #112, 'design' ) ;
#176 = EDGE_LOOP ( 'NONE', ( #337, #120 ) ) ;
#177 = LINE ( 'NONE', #174, #191 ) ;
#178 = ORIENTED_EDGE ( 'NONE', *, *, #137, .T. ) ;
#179 = ADVANCED_FACE ( 'NONE', ( #221 ), #85, .T. ) ;
#180 = EDGE_LOOP ( 'NONE', ( #178, #199, #2, #208 ) ) ;
#181 = FACE_OUTER_BOUND ( 'NONE', #53, .T. ) ;
#182 = AXIS2_PLACEMENT_3D ( 'NONE', #222, #333, #171 ) ;
#183 = DIRECTION ( 'NONE',  ( -1.000000000000000000, 0.000000000000000000, 0.000000000000000000 ) ) ;
#184 = STYLED_ITEM ( 'NONE', ( #225 ), #304 ) ;
#185 = DIRECTION ( 'NONE',  ( 1.360718665719285587E-17, 1.000000000000000000, -0.000000000000000000 ) ) ;
#186 = FILL_AREA_STYLE_COLOUR ( '', #122 ) ;
#187 = SURFACE_STYLE_USAGE ( .BOTH. , #164 ) ;
#188 = EDGE_CURVE ( 'NONE', #39, #1, #299, .T. ) ;
#189 = DIRECTION ( 'NONE',  ( 0.000000000000000000, 0.000000000000000000, -1.000000000000000000 ) ) ;
#190 = STYLED_ITEM ( 'NONE', ( #217 ), #330 ) ;
#191 = VECTOR ( 'NONE', #6, 39.37007874015748143 ) ;
#192 = CARTESIAN_POINT ( 'NONE',  ( 0.000000000000000000, 0.000000000000000000, 0.000000000000000000 ) ) ;
#193 = SURFACE_STYLE_FILL_AREA ( #274 ) ;
#194 = SHAPE_DEFINITION_REPRESENTATION ( #94, #54 ) ;
#195 = ADVANCED_FACE ( 'NONE', ( #331 ), #81, .F. ) ;
#196 =( CONVERSION_BASED_UNIT ( 'INCH', #303 ) LENGTH_UNIT ( ) NAMED_UNIT ( #47 ) );
#197 = APPLICATION_CONTEXT ( 'automotive_design' ) ;
#198 = CARTESIAN_POINT ( 'NONE',  ( 0.2187500000000000278, 2.750000000000000000, 0.000000000000000000 ) ) ;
#199 = ORIENTED_EDGE ( 'NONE', *, *, #270, .T. ) ;
#200 = CARTESIAN_POINT ( 'NONE',  ( 3.061616997868392262E-17, 2.750000000000000000, 0.000000000000000000 ) ) ;
#201 = FACE_OUTER_BOUND ( 'NONE', #316, .T. ) ;
#202 = CARTESIAN_POINT ( 'NONE',  ( 0.000000000000000000, 0.5000000000000001110, 0.000000000000000000 ) ) ;
#203 = ORIENTED_EDGE ( 'NONE', *, *, #255, .F. ) ;
#204 = SURFACE_STYLE_FILL_AREA ( #153 ) ;
#205 = COLOUR_RGB ( '',1.000000000000000000, 0.000000000000000000, 0.000000000000000000 ) ;
#206 = COLOUR_RGB ( '',1.000000000000000000, 0.000000000000000000, 0.000000000000000000 ) ;
#207 = DIRECTION ( 'NONE',  ( -0.000000000000000000, -1.000000000000000000, -0.000000000000000000 ) ) ;
#208 = ORIENTED_EDGE ( 'NONE', *, *, #356, .F. ) ;
#209 = PRESENTATION_LAYER_ASSIGNMENT (  '', '', ( #27 ) ) ;
#210 = EDGE_CURVE ( 'NONE', #287, #258, #308, .T. ) ;
#211 = EDGE_LOOP ( 'NONE', ( #158, #25, #220, #263 ) ) ;
#212 = PRESENTATION_LAYER_ASSIGNMENT (  '', '', ( #184 ) ) ;
#213 = FACE_OUTER_BOUND ( 'NONE', #146, .T. ) ;
#214 = DIRECTION ( 'NONE',  ( 0.000000000000000000, -0.000000000000000000, 1.000000000000000000 ) ) ;
#215 = CARTESIAN_POINT ( 'NONE',  ( 0.000000000000000000, 0.000000000000000000, -0.2031250000000000000 ) ) ;
#216 = AXIS2_PLACEMENT_3D ( 'NONE', #139, #83, #336 ) ;
#217 = PRESENTATION_STYLE_ASSIGNMENT (( #294 ) ) ;
#218 = DIRECTION ( 'NONE',  ( 1.000000000000000000, 0.000000000000000000, 0.000000000000000000 ) ) ;
#219 = AXIS2_PLACEMENT_3D ( 'NONE', #147, #342, #284 ) ;
#220 = ORIENTED_EDGE ( 'NONE', *, *, #118, .F. ) ;
#221 = FACE_OUTER_BOUND ( 'NONE', #211, .T. ) ;
#222 = CARTESIAN_POINT ( 'NONE',  ( 3.061616997868392262E-17, 2.750000000000000000, 0.000000000000000000 ) ) ;
#223 = ORIENTED_EDGE ( 'NONE', *, *, #300, .T. ) ;
#224 = AXIS2_PLACEMENT_3D ( 'NONE', #353, #265, #268 ) ;
#225 = PRESENTATION_STYLE_ASSIGNMENT (( #262 ) ) ;
#226 = ORIENTED_EDGE ( 'NONE', *, *, #210, .F. ) ;
#227 =( NAMED_UNIT ( * ) SI_UNIT ( $, .STERADIAN. ) SOLID_ANGLE_UNIT ( ) );
#228 = CIRCLE ( 'NONE', #224, 0.2031250000000000000 ) ;
#229 =( GEOMETRIC_REPRESENTATION_CONTEXT ( 3 ) GLOBAL_UNCERTAINTY_ASSIGNED_CONTEXT ( ( #293 ) ) GLOBAL_UNIT_ASSIGNED_CONTEXT ( ( #26, #266, #19 ) ) REPRESENTATION_CONTEXT ( 'NONE', 'WORKASPACE' ) );
#230 =( NAMED_UNIT ( * ) PLANE_ANGLE_UNIT ( ) SI_UNIT ( $, .RADIAN. ) );
#231 = PRESENTATION_STYLE_ASSIGNMENT (( #256 ) ) ;
#232 = FILL_AREA_STYLE_COLOUR ( '', #206 ) ;
#233 = ORIENTED_EDGE ( 'NONE', *, *, #118, .T. ) ;
#234 = CARTESIAN_POINT ( 'NONE',  ( 2.487563810768061395E-17, 0.5000000000000000000, 0.2031250000000000000 ) ) ;
#235 = DIMENSIONAL_EXPONENTS ( 1.000000000000000000, 0.000000000000000000, 0.000000000000000000, 0.000000000000000000, 0.000000000000000000, 0.000000000000000000, 0.000000000000000000 ) ;
#236 = LENGTH_MEASURE_WITH_UNIT ( LENGTH_MEASURE( 0.02539999999999999897 ), #162 );
#237 = EDGE_CURVE ( 'NONE', #258, #287, #44, .T. ) ;
#238 =( LENGTH_UNIT ( ) NAMED_UNIT ( * ) SI_UNIT ( $, .METRE. ) );
#239 = SURFACE_STYLE_USAGE ( .BOTH. , #46 ) ;
#240 = EDGE_CURVE ( 'NONE', #1, #115, #114, .T. ) ;
#241 = DIRECTION ( 'NONE',  ( 0.000000000000000000, 0.000000000000000000, -1.000000000000000000 ) ) ;
#242 = CARTESIAN_POINT ( 'NONE',  ( 0.2187500000000000278, 0.5429293346789784147, 2.678914873134835372E-17 ) ) ;
#243 = DIRECTION ( 'NONE',  ( -1.000000000000000000, 1.360718665719285587E-17, 0.000000000000000000 ) ) ;
#244 = EDGE_CURVE ( 'NONE', #59, #111, #69, .T. ) ;
#245 = DIRECTION ( 'NONE',  ( 1.360718665719285587E-17, 1.000000000000000000, -0.000000000000000000 ) ) ;
#246 = DIRECTION ( 'NONE',  ( -0.000000000000000000, -1.000000000000000000, -0.000000000000000000 ) ) ;
#247 = FILL_AREA_STYLE ('',( #135 ) ) ;
#248 =( NAMED_UNIT ( * ) PLANE_ANGLE_UNIT ( ) SI_UNIT ( $, .RADIAN. ) );
#249 = VERTEX_POINT ( 'NONE', #311 ) ;
#250 = STYLED_ITEM ( 'NONE', ( #283 ), #292 ) ;
#251 = AXIS2_PLACEMENT_3D ( 'NONE', #157, #207, #91 ) ;
#252 = VECTOR ( 'NONE', #67, 39.37007874015748143 ) ;
#253 = EDGE_CURVE ( 'NONE', #39, #249, #257, .T. ) ;
#254 = ORIENTED_EDGE ( 'NONE', *, *, #320, .T. ) ;
#255 = EDGE_CURVE ( 'NONE', #1, #39, #357, .T. ) ;
#256 = SURFACE_STYLE_USAGE ( .BOTH. , #92 ) ;
#257 = LINE ( 'NONE', #344, #252 ) ;
#258 = VERTEX_POINT ( 'NONE', #95 ) ;
#259 = DIRECTION ( 'NONE',  ( -1.000000000000000000, 0.000000000000000000, 0.000000000000000000 ) ) ;
#260 = AXIS2_PLACEMENT_3D ( 'NONE', #24, #99, #298 ) ;
#261 =( CONVERSION_BASED_UNIT ( 'INCH', #33 ) LENGTH_UNIT ( ) NAMED_UNIT ( #235 ) );
#262 = SURFACE_STYLE_USAGE ( .BOTH. , #289 ) ;
#263 = ORIENTED_EDGE ( 'NONE', *, *, #253, .F. ) ;
#264 = DIRECTION ( 'NONE',  ( -1.000000000000000000, 0.000000000000000000, 0.000000000000000000 ) ) ;
#265 = DIRECTION ( 'NONE',  ( -0.000000000000000000, -1.000000000000000000, -0.000000000000000000 ) ) ;
#266 =( NAMED_UNIT ( * ) PLANE_ANGLE_UNIT ( ) SI_UNIT ( $, .RADIAN. ) );
#267 = VECTOR ( 'NONE', #245, 39.37007874015748143 ) ;
#268 = DIRECTION ( 'NONE',  ( 0.000000000000000000, 0.000000000000000000, -1.000000000000000000 ) ) ;
#269 = LINE ( 'NONE', #326, #267 ) ;
#270 = EDGE_CURVE ( 'NONE', #30, #111, #177, .T. ) ;
#271 = PRESENTATION_STYLE_ASSIGNMENT (( #187 ) ) ;
#272 = CARTESIAN_POINT ( 'NONE',  ( 0.000000000000000000, 0.000000000000000000, 0.000000000000000000 ) ) ;
#273 = DIRECTION ( 'NONE',  ( 0.000000000000000000, 1.000000000000000000, 0.000000000000000000 ) ) ;
#274 = FILL_AREA_STYLE ('',( #160 ) ) ;
#275 = CARTESIAN_POINT ( 'NONE',  ( 2.487563810768061395E-17, 0.000000000000000000, 0.2031250000000000000 ) ) ;
#276 = MECHANICAL_DESIGN_GEOMETRIC_PRESENTATION_REPRESENTATION (  '', ( #184 ), #340 ) ;
#277 = VERTEX_POINT ( 'NONE', #66 ) ;
#278 = LENGTH_MEASURE_WITH_UNIT ( LENGTH_MEASURE( 0.02539999999999999897 ), #238 );
#279 = MECHANICAL_DESIGN_GEOMETRIC_PRESENTATION_REPRESENTATION (  '', ( #55 ), #22 ) ;
#280 = ORIENTED_EDGE ( 'NONE', *, *, #70, .T. ) ;
#281 = CARTESIAN_POINT ( 'NONE',  ( 0.2031250000000000000, 0.5000000000000001110, 2.487563810768061395E-17 ) ) ;
#282 = ORIENTED_EDGE ( 'NONE', *, *, #70, .F. ) ;
#283 = PRESENTATION_STYLE_ASSIGNMENT (( #89 ) ) ;
#284 = DIRECTION ( 'NONE',  ( 0.000000000000000000, 0.000000000000000000, -1.000000000000000000 ) ) ;
#285 = CARTESIAN_POINT ( 'NONE',  ( -0.2031250000000000000, 0.5000000000000001110, 0.000000000000000000 ) ) ;
#286 =( NAMED_UNIT ( * ) SI_UNIT ( $, .STERADIAN. ) SOLID_ANGLE_UNIT ( ) );
#287 = VERTEX_POINT ( 'NONE', #172 ) ;
#288 = CARTESIAN_POINT ( 'NONE',  ( 0.000000000000000000, 0.5000000000000000000, 0.000000000000000000 ) ) ;
#289 = SURFACE_SIDE_STYLE ('',( #116 ) ) ;
#290 = ORIENTED_EDGE ( 'NONE', *, *, #143, .T. ) ;
#291 = DIRECTION ( 'NONE',  ( 1.360718665719285587E-17, 1.000000000000000000, -0.000000000000000000 ) ) ;
#292 = ADVANCED_FACE ( 'NONE', ( #181 ), #123, .T. ) ;
#293 = UNCERTAINTY_MEASURE_WITH_UNIT (LENGTH_MEASURE( 1.000000000000000082E-05 ), #26, 'distance_accuracy_value', 'NONE');
#294 = SURFACE_STYLE_USAGE ( .BOTH. , #79 ) ;
#295 = CARTESIAN_POINT ( 'NONE',  ( 1.880485838599949308E-35, 0.5000000000000000000, 0.000000000000000000 ) ) ;
#296 =( NAMED_UNIT ( * ) SI_UNIT ( $, .STERADIAN. ) SOLID_ANGLE_UNIT ( ) );
#297 =( GEOMETRIC_REPRESENTATION_CONTEXT ( 3 ) GLOBAL_UNCERTAINTY_ASSIGNED_CONTEXT ( ( #133 ) ) GLOBAL_UNIT_ASSIGNED_CONTEXT ( ( #150, #230, #286 ) ) REPRESENTATION_CONTEXT ( 'NONE', 'WORKASPACE' ) );
#298 = DIRECTION ( 'NONE',  ( -1.000000000000000000, 0.000000000000000000, 0.000000000000000000 ) ) ;
#299 = CIRCLE ( 'NONE', #216, 0.2031250000000000000 ) ;
#300 = EDGE_CURVE ( 'NONE', #30, #277, #149, .T. ) ;
#301 = SURFACE_STYLE_FILL_AREA ( #247 ) ;
#302 = FACE_OUTER_BOUND ( 'NONE', #180, .T. ) ;
#303 = LENGTH_MEASURE_WITH_UNIT ( LENGTH_MEASURE( 0.02539999999999999897 ), #354 );
#304 = ADVANCED_FACE ( 'NONE', ( #63 ), #3, .T. ) ;
#305 =( NAMED_UNIT ( * ) SI_UNIT ( $, .STERADIAN. ) SOLID_ANGLE_UNIT ( ) );
#306 = EDGE_CURVE ( 'NONE', #115, #249, #80, .T. ) ;
#307 = AXIS2_PLACEMENT_3D ( 'NONE', #295, #127, #243 ) ;
#308 = CIRCLE ( 'NONE', #334, 0.2187500000000000000 ) ;
#309 =( LENGTH_UNIT ( ) NAMED_UNIT ( * ) SI_UNIT ( $, .METRE. ) );
#310 = EDGE_LOOP ( 'NONE', ( #343, #170, #254, #64 ) ) ;
#311 = CARTESIAN_POINT ( 'NONE',  ( -0.2187500000000000278, 0.5429293346789784147, 0.000000000000000000 ) ) ;
#312 =( CONVERSION_BASED_UNIT ( 'INCH', #8 ) LENGTH_UNIT ( ) NAMED_UNIT ( #78 ) );
#313 = CIRCLE ( 'NONE', #35, 0.2031250000000000000 ) ;
#314 = DIRECTION ( 'NONE',  ( -0.000000000000000000, -1.000000000000000000, -0.000000000000000000 ) ) ;
#315 = ORIENTED_EDGE ( 'NONE', *, *, #300, .F. ) ;
#316 = EDGE_LOOP ( 'NONE', ( #117, #148, #151, #109 ) ) ;
#317 = FILL_AREA_STYLE ('',( #232 ) ) ;
#318 = FACE_OUTER_BOUND ( 'NONE', #37, .T. ) ;
#319 = AXIS2_PLACEMENT_3D ( 'NONE', #272, #136, #218 ) ;
#320 = EDGE_CURVE ( 'NONE', #249, #287, #269, .T. ) ;
#321 = CYLINDRICAL_SURFACE ( 'NONE', #62, 0.2187500000000000278 ) ;
#322 = CARTESIAN_POINT ( 'NONE',  ( 0.000000000000000000, 0.000000000000000000, 0.000000000000000000 ) ) ;
#323 =( NAMED_UNIT ( * ) PLANE_ANGLE_UNIT ( ) SI_UNIT ( $, .RADIAN. ) );
#324 = CARTESIAN_POINT ( 'NONE',  ( 0.000000000000000000, 0.5000000000000000000, 0.000000000000000000 ) ) ;
#325 =( NAMED_UNIT ( * ) PLANE_ANGLE_UNIT ( ) SI_UNIT ( $, .RADIAN. ) );
#326 = CARTESIAN_POINT ( 'NONE',  ( -0.2187500000000000000, 2.750000000000000000, 0.000000000000000000 ) ) ;
#327 = COLOUR_RGB ( '',1.000000000000000000, 0.000000000000000000, 0.000000000000000000 ) ;
#328 = PRESENTATION_LAYER_ASSIGNMENT (  '', '', ( #155 ) ) ;
#329 = CYLINDRICAL_SURFACE ( 'NONE', #141, 0.2031250000000000000 ) ;
#330 = ADVANCED_FACE ( 'NONE', ( #350 ), #126, .T. ) ;
#331 = FACE_OUTER_BOUND ( 'NONE', #176, .T. ) ;
#332 = PRODUCT_RELATED_PRODUCT_CATEGORY ( 'part', '', ( #355 ) ) ;
#333 = DIRECTION ( 'NONE',  ( 1.360718665719285587E-17, 1.000000000000000000, -0.000000000000000000 ) ) ;
#334 = AXIS2_PLACEMENT_3D ( 'NONE', #200, #86, #52 ) ;
#335 = PRESENTATION_LAYER_ASSIGNMENT (  '', '', ( #190 ) ) ;
#336 = DIRECTION ( 'NONE',  ( -1.000000000000000000, 0.000000000000000000, 0.000000000000000000 ) ) ;
#337 = ORIENTED_EDGE ( 'NONE', *, *, #210, .T. ) ;
#338 = EDGE_LOOP ( 'NONE', ( #140, #315 ) ) ;
#339 = CLOSED_SHELL ( 'NONE', ( #15, #179, #125, #359, #50, #195 ) ) ;
#340 =( GEOMETRIC_REPRESENTATION_CONTEXT ( 3 ) GLOBAL_UNCERTAINTY_ASSIGNED_CONTEXT ( ( #38 ) ) GLOBAL_UNIT_ASSIGNED_CONTEXT ( ( #261, #124, #296 ) ) REPRESENTATION_CONTEXT ( 'NONE', 'WORKASPACE' ) );
#341 = AXIS2_PLACEMENT_3D ( 'NONE', #152, #13, #259 ) ;
#342 = DIRECTION ( 'NONE',  ( -0.000000000000000000, -1.000000000000000000, -0.000000000000000000 ) ) ;
#343 = ORIENTED_EDGE ( 'NONE', *, *, #143, .F. ) ;
#344 = CARTESIAN_POINT ( 'NONE',  ( -0.2031250000000000000, 0.5000000000000001110, 0.000000000000000000 ) ) ;
#345 = LENGTH_MEASURE_WITH_UNIT ( LENGTH_MEASURE( 0.02539999999999999897 ), #309 );
#346 = FACE_OUTER_BOUND ( 'NONE', #310, .T. ) ;
#347 = AXIS2_PLACEMENT_3D ( 'NONE', #97, #185, #264 ) ;
#348 = DIRECTION ( 'NONE',  ( 1.360718665719285587E-17, 1.000000000000000000, -0.000000000000000000 ) ) ;
#349 =( NAMED_UNIT ( * ) SI_UNIT ( $, .STERADIAN. ) SOLID_ANGLE_UNIT ( ) );
#350 = FACE_OUTER_BOUND ( 'NONE', #14, .T. ) ;
#351 = CLOSED_SHELL ( 'NONE', ( #65, #304, #292, #330 ) ) ;
#352 = AXIS2_PLACEMENT_3D ( 'NONE', #322, #73, #241 ) ;
#353 = CARTESIAN_POINT ( 'NONE',  ( 0.000000000000000000, 0.000000000000000000, 0.000000000000000000 ) ) ;
#354 =( LENGTH_UNIT ( ) NAMED_UNIT ( * ) SI_UNIT ( $, .METRE. ) );
#355 = PRODUCT ( '30362', '30362', '', ( #166 ) ) ;
#356 = EDGE_CURVE ( 'NONE', #277, #59, #98, .T. ) ;
#357 = CIRCLE ( 'NONE', #341, 0.2031250000000000000 ) ;
#358 =( GEOMETRIC_REPRESENTATION_CONTEXT ( 3 ) GLOBAL_UNCERTAINTY_ASSIGNED_CONTEXT ( ( #4 ) ) GLOBAL_UNIT_ASSIGNED_CONTEXT ( ( #131, #325, #349 ) ) REPRESENTATION_CONTEXT ( 'NONE', 'WORKASPACE' ) );
#359 = ADVANCED_FACE ( 'NONE', ( #201 ), #42, .T. ) ;
ENDSEC;
END-ISO-10303-21;
