ISO-10303-21;
HEADER;
FILE_DESCRIPTION (( 'STEP AP214' ),
    '1' );
FILE_NAME ('Micro_GEMM-020-2X.STEP',
    '2021-09-01T21:17:32',
    ( '' ),
    ( '' ),
    'SwSTEP 2.0',
    'SolidWorks 2020',
    '' );
FILE_SCHEMA (( 'AUTOMOTIVE_DESIGN' ));
ENDSEC;

DATA;
#1 = DIRECTION ( 'NONE',  ( -1.224646799147352961E-16, -0.0000000000000000000, -1.000000000000000000 ) ) ;
#2 = ORIENTED_EDGE ( 'NONE', *, *, #25, .F. ) ;
#3 = DIRECTION ( 'NONE',  ( -1.224646799147352961E-16, -0.0000000000000000000, -1.000000000000000000 ) ) ;
#4 = ORIENTED_EDGE ( 'NONE', *, *, #67, .T. ) ;
#5 = COLOUR_RGB ( '',0.7921568627450980005, 0.8196078431372548767, 0.9333333333333333481 ) ;
#6 = DIRECTION ( 'NONE',  ( 1.000000000000000000, 0.0000000000000000000, 0.0000000000000000000 ) ) ;
#7 = APPLICATION_CONTEXT ( 'automotive_design' ) ;
#8 = DIRECTION ( 'NONE',  ( -1.224646799147352961E-16, -0.0000000000000000000, -1.000000000000000000 ) ) ;
#9 = ORIENTED_EDGE ( 'NONE', *, *, #241, .F. ) ;
#10 = ORIENTED_EDGE ( 'NONE', *, *, #112, .T. ) ;
#11 =( LENGTH_UNIT ( ) NAMED_UNIT ( * ) SI_UNIT ( $, .METRE. ) );
#12 = CARTESIAN_POINT ( 'NONE',  ( 0.0000000000000000000, 0.0000000000000000000, 1.496062999999999921 ) ) ;
#13 =( CONVERSION_BASED_UNIT ( 'INCH', #127 ) LENGTH_UNIT ( ) NAMED_UNIT ( #43 ) );
#14 = CIRCLE ( 'NONE', #286, 0.05905499999999998251 ) ;
#15 = DIRECTION ( 'NONE',  ( -1.224646799147352961E-16, -0.0000000000000000000, -1.000000000000000000 ) ) ;
#16 = DIRECTION ( 'NONE',  ( -1.000000000000000000, 0.0000000000000000000, 0.0000000000000000000 ) ) ;
#17 = LINE ( 'NONE', #181, #168 ) ;
#18 = DIRECTION ( 'NONE',  ( 1.224646799147352961E-16, 0.0000000000000000000, 1.000000000000000000 ) ) ;
#19 = STYLED_ITEM ( 'NONE', ( #173 ), #288 ) ;
#20 = ORIENTED_EDGE ( 'NONE', *, *, #247, .T. ) ;
#21 = ADVANCED_FACE ( 'NONE', ( #172 ), #240, .T. ) ;
#22 = FACE_OUTER_BOUND ( 'NONE', #222, .T. ) ;
#23 = ORIENTED_EDGE ( 'NONE', *, *, #67, .F. ) ;
#24 = ORIENTED_EDGE ( 'NONE', *, *, #252, .F. ) ;
#25 = EDGE_CURVE ( 'NONE', #73, #260, #138, .T. ) ;
#26 = CARTESIAN_POINT ( 'NONE',  ( 0.0000000000000000000, 0.0000000000000000000, 1.496062999999999921 ) ) ;
#27 = CARTESIAN_POINT ( 'NONE',  ( -0.04405500000000001082, 0.0000000000000000000, 1.496062999999999921 ) ) ;
#28 = PRESENTATION_LAYER_ASSIGNMENT (  '', '', ( #19 ) ) ;
#29 = PRODUCT_DEFINITION_SHAPE ( 'NONE', 'NONE',  #270 ) ;
#30 = CARTESIAN_POINT ( 'NONE',  ( 0.05905500000000002414, 7.232151672364696963E-18, 0.3480824609844122564 ) ) ;
#31 = EDGE_LOOP ( 'NONE', ( #209, #211 ) ) ;
#32 = ADVANCED_FACE ( 'NONE', ( #130 ), #200, .T. ) ;
#33 = VERTEX_POINT ( 'NONE', #34 ) ;
#34 = CARTESIAN_POINT ( 'NONE',  ( -0.03933062999999997755, 6.024382343079789657E-18, 0.2362200000000000133 ) ) ;
#35 = CARTESIAN_POINT ( 'NONE',  ( 2.892860668945877553E-17, 0.0000000000000000000, 0.2362200000000000133 ) ) ;
#36 = CARTESIAN_POINT ( 'NONE',  ( 4.262780716838938468E-17, 0.0000000000000000000, 0.3480824609844122564 ) ) ;
#37 = EDGE_CURVE ( 'NONE', #33, #73, #249, .T. ) ;
#38 = CONICAL_SURFACE ( 'NONE', #101, 0.03933063000000000531, 0.1745329251994338360 ) ;
#39 = DIRECTION ( 'NONE',  ( -1.000000000000000000, 0.0000000000000000000, 1.224646799147352714E-16 ) ) ;
#40 = FACE_OUTER_BOUND ( 'NONE', #185, .T. ) ;
#41 = DIRECTION ( 'NONE',  ( 1.000000000000000000, 0.0000000000000000000, -0.0000000000000000000 ) ) ;
#42 = STYLED_ITEM ( 'NONE', ( #203 ), #164 ) ;
#43 = DIMENSIONAL_EXPONENTS ( 1.000000000000000000, 0.0000000000000000000, 0.0000000000000000000, 0.0000000000000000000, 0.0000000000000000000, 0.0000000000000000000, 0.0000000000000000000 ) ;
#44 = AXIS2_PLACEMENT_3D ( 'NONE', #36, #228, #265 ) ;
#45 = ORIENTED_EDGE ( 'NONE', *, *, #176, .F. ) ;
#46 = VECTOR ( 'NONE', #100, 39.37007874015748854 ) ;
#47 =( NAMED_UNIT ( * ) PLANE_ANGLE_UNIT ( ) SI_UNIT ( $, .RADIAN. ) );
#48 = CARTESIAN_POINT ( 'NONE',  ( -0.05905499999999993394, 0.0000000000000000000, 0.3480824609844122564 ) ) ;
#49 = EDGE_LOOP ( 'NONE', ( #221, #233, #126, #167 ) ) ;
#50 = DIRECTION ( 'NONE',  ( -1.224646799147352961E-16, -0.0000000000000000000, -1.000000000000000000 ) ) ;
#51 = EDGE_CURVE ( 'NONE', #166, #78, #256, .T. ) ;
#52 = CARTESIAN_POINT ( 'NONE',  ( 5.898649710075390321E-34, 0.0000000000000000000, 4.816613013794884661E-18 ) ) ;
#53 = EDGE_LOOP ( 'NONE', ( #254, #146, #10, #45 ) ) ;
#54 = FACE_OUTER_BOUND ( 'NONE', #49, .T. ) ;
#55 = LINE ( 'NONE', #125, #198 ) ;
#56 = CIRCLE ( 'NONE', #64, 0.03933062999999999837 ) ;
#57 = VECTOR ( 'NONE', #95, 39.37007874015748143 ) ;
#58 = DIRECTION ( 'NONE',  ( -1.000000000000000000, 0.0000000000000000000, 0.0000000000000000000 ) ) ;
#59 = VERTEX_POINT ( 'NONE', #66 ) ;
#60 = ORIENTED_EDGE ( 'NONE', *, *, #184, .T. ) ;
#61 = CARTESIAN_POINT ( 'NONE',  ( 0.0000000000000000000, 0.0000000000000000000, 1.496062999999999921 ) ) ;
#62 = SURFACE_STYLE_USAGE ( .BOTH. , #82 ) ;
#63 = DIRECTION ( 'NONE',  ( -0.1736481776669311639, 2.126576849575782392E-17, 0.9848077530122080203 ) ) ;
#64 = AXIS2_PLACEMENT_3D ( 'NONE', #297, #50, #217 ) ;
#65 = DIRECTION ( 'NONE',  ( 1.000000000000000000, 0.0000000000000000000, 0.0000000000000000000 ) ) ;
#66 = CARTESIAN_POINT ( 'NONE',  ( 0.05905499999999998251, 7.232151672364692341E-18, 1.481063000000000240 ) ) ;
#67 = EDGE_CURVE ( 'NONE', #59, #260, #162, .T. ) ;
#68 = DIRECTION ( 'NONE',  ( -1.224646799147352961E-16, -0.0000000000000000000, -1.000000000000000000 ) ) ;
#69 = MECHANICAL_DESIGN_GEOMETRIC_PRESENTATION_REPRESENTATION (  '', ( #19 ), #142 ) ;
#70 = ORIENTED_EDGE ( 'NONE', *, *, #37, .T. ) ;
#71 = ORIENTED_EDGE ( 'NONE', *, *, #141, .F. ) ;
#72 =( NAMED_UNIT ( * ) SI_UNIT ( $, .STERADIAN. ) SOLID_ANGLE_UNIT ( ) );
#73 = VERTEX_POINT ( 'NONE', #244 ) ;
#74 = DIRECTION ( 'NONE',  ( 0.0000000000000000000, 0.0000000000000000000, 1.000000000000000000 ) ) ;
#75 = APPLICATION_PROTOCOL_DEFINITION ( 'draft international standard', 'automotive_design', 1998, #7 ) ;
#76 = ADVANCED_FACE ( 'NONE', ( #292 ), #277, .T. ) ;
#77 = DIRECTION ( 'NONE',  ( -1.000000000000000000, 0.0000000000000000000, 0.0000000000000000000 ) ) ;
#78 = VERTEX_POINT ( 'NONE', #226 ) ;
#79 = UNCERTAINTY_MEASURE_WITH_UNIT (LENGTH_MEASURE( 1.000000000000000082E-05 ), #13, 'distance_accuracy_value', 'NONE');
#80 = CLOSED_SHELL ( 'NONE', ( #160, #294, #105, #21, #219, #32, #76, #193, #155, #275 ) ) ;
#81 = EDGE_LOOP ( 'NONE', ( #116, #195, #9, #71 ) ) ;
#82 = SURFACE_SIDE_STYLE ('',( #284 ) ) ;
#83 = CONICAL_SURFACE ( 'NONE', #261, 0.03933063000000000531, 0.1745329251994338360 ) ;
#84 = CARTESIAN_POINT ( 'NONE',  ( 0.0000000000000000000, 0.0000000000000000000, 0.0000000000000000000 ) ) ;
#85 = CARTESIAN_POINT ( 'NONE',  ( -0.03933062999999997755, 4.816613013794886973E-18, 0.2362200000000000133 ) ) ;
#86 =( LENGTH_UNIT ( ) NAMED_UNIT ( * ) SI_UNIT ( $, .METRE. ) );
#87 = DIRECTION ( 'NONE',  ( 0.0000000000000000000, 0.0000000000000000000, 1.000000000000000000 ) ) ;
#88 =( NAMED_UNIT ( * ) SI_UNIT ( $, .STERADIAN. ) SOLID_ANGLE_UNIT ( ) );
#89 = VECTOR ( 'NONE', #158, 39.37007874015748854 ) ;
#90 = CARTESIAN_POINT ( 'NONE',  ( -0.04405500000000001082, 0.0000000000000000000, 1.496062999999999921 ) ) ;
#91 = FILL_AREA_STYLE ('',( #268 ) ) ;
#92 = DIRECTION ( 'NONE',  ( 1.000000000000000000, 0.0000000000000000000, 0.0000000000000000000 ) ) ;
#93 = ORIENTED_EDGE ( 'NONE', *, *, #99, .F. ) ;
#94 = VECTOR ( 'NONE', #132, 39.37007874015748143 ) ;
#95 = DIRECTION ( 'NONE',  ( -1.224646799147352961E-16, -0.0000000000000000000, -1.000000000000000000 ) ) ;
#96 = VERTEX_POINT ( 'NONE', #287 ) ;
#97 = CARTESIAN_POINT ( 'NONE',  ( -0.05905499999999998251, 0.0000000000000000000, 1.481063000000000240 ) ) ;
#98 = FACE_OUTER_BOUND ( 'NONE', #273, .T. ) ;
#99 = EDGE_CURVE ( 'NONE', #260, #232, #271, .T. ) ;
#100 = DIRECTION ( 'NONE',  ( 0.7071067811865536790, 8.659560562355008046E-17, -0.7071067811865412445 ) ) ;
#101 = AXIS2_PLACEMENT_3D ( 'NONE', #35, #18, #113 ) ;
#102 = ORIENTED_EDGE ( 'NONE', *, *, #237, .F. ) ;
#103 = ORIENTED_EDGE ( 'NONE', *, *, #37, .F. ) ;
#104 = CARTESIAN_POINT ( 'NONE',  ( 0.0000000000000000000, 0.0000000000000000000, 0.0000000000000000000 ) ) ;
#105 = ADVANCED_FACE ( 'NONE', ( #223 ), #133, .T. ) ;
#106 = DIRECTION ( 'NONE',  ( -1.224646799147352961E-16, -0.0000000000000000000, -1.000000000000000000 ) ) ;
#107 = DIRECTION ( 'NONE',  ( 1.000000000000000000, 0.0000000000000000000, 0.0000000000000000000 ) ) ;
#108 = LINE ( 'NONE', #85, #128 ) ;
#109 = CARTESIAN_POINT ( 'NONE',  ( 0.0000000000000000000, 0.0000000000000000000, 0.0000000000000000000 ) ) ;
#110 = AXIS2_PLACEMENT_3D ( 'NONE', #61, #293, #41 ) ;
#111 = CARTESIAN_POINT ( 'NONE',  ( 0.03933063000000002613, 0.0000000000000000000, 0.2362200000000000133 ) ) ;
#112 = EDGE_CURVE ( 'NONE', #33, #283, #17, .T. ) ;
#113 = DIRECTION ( 'NONE',  ( 1.000000000000000000, 0.0000000000000000000, 0.0000000000000000000 ) ) ;
#114 = AXIS2_PLACEMENT_3D ( 'NONE', #227, #15, #243 ) ;
#115 = CIRCLE ( 'NONE', #134, 0.05905499999999998251 ) ;
#116 = ORIENTED_EDGE ( 'NONE', *, *, #290, .F. ) ;
#117 = LINE ( 'NONE', #274, #57 ) ;
#118 = ORIENTED_EDGE ( 'NONE', *, *, #176, .T. ) ;
#119 = LENGTH_MEASURE_WITH_UNIT ( LENGTH_MEASURE( 0.02539999999999999897 ), #165 );
#120 = ORIENTED_EDGE ( 'NONE', *, *, #266, .T. ) ;
#121 = PLANE ( 'NONE',  #183 ) ;
#122 = COLOUR_RGB ( '',0.7921568627450980005, 0.8196078431372548767, 0.9333333333333333481 ) ;
#123 =( NAMED_UNIT ( * ) PLANE_ANGLE_UNIT ( ) SI_UNIT ( $, .RADIAN. ) );
#124 = CARTESIAN_POINT ( 'NONE',  ( 4.262780716838938468E-17, 0.0000000000000000000, 0.3480824609844122564 ) ) ;
#125 = CARTESIAN_POINT ( 'NONE',  ( -0.05905499999999998251, 0.0000000000000000000, 1.496062999999999921 ) ) ;
#126 = ORIENTED_EDGE ( 'NONE', *, *, #25, .T. ) ;
#127 = LENGTH_MEASURE_WITH_UNIT ( LENGTH_MEASURE( 0.02539999999999999897 ), #11 );
#128 = VECTOR ( 'NONE', #63, 39.37007874015747433 ) ;
#129 =( GEOMETRIC_REPRESENTATION_CONTEXT ( 3 ) GLOBAL_UNCERTAINTY_ASSIGNED_CONTEXT ( ( #282 ) ) GLOBAL_UNIT_ASSIGNED_CONTEXT ( ( #212, #123, #72 ) ) REPRESENTATION_CONTEXT ( 'NONE', 'WORKASPACE' ) );
#130 = FACE_OUTER_BOUND ( 'NONE', #31, .T. ) ;
#131 = APPLICATION_PROTOCOL_DEFINITION ( 'draft international standard', 'automotive_design', 1998, #298 ) ;
#132 = DIRECTION ( 'NONE',  ( 0.1736481776669313304, 0.0000000000000000000, 0.9848077530122077983 ) ) ;
#133 = CONICAL_SURFACE ( 'NONE', #153, 0.04405500000000001082, 0.7853981633974570498 ) ;
#134 = AXIS2_PLACEMENT_3D ( 'NONE', #124, #3, #140 ) ;
#135 = DIRECTION ( 'NONE',  ( -1.000000000000000000, 0.0000000000000000000, 0.0000000000000000000 ) ) ;
#136 =( NAMED_UNIT ( * ) PLANE_ANGLE_UNIT ( ) SI_UNIT ( $, .RADIAN. ) );
#137 = CYLINDRICAL_SURFACE ( 'NONE', #174, 0.03933063000000000531 ) ;
#138 = LINE ( 'NONE', #111, #94 ) ;
#139 = AXIS2_PLACEMENT_3D ( 'NONE', #84, #291, #39 ) ;
#140 = DIRECTION ( 'NONE',  ( 1.000000000000000000, 0.0000000000000000000, 0.0000000000000000000 ) ) ;
#141 = EDGE_CURVE ( 'NONE', #166, #276, #196, .T. ) ;
#142 =( GEOMETRIC_REPRESENTATION_CONTEXT ( 3 ) GLOBAL_UNCERTAINTY_ASSIGNED_CONTEXT ( ( #79 ) ) GLOBAL_UNIT_ASSIGNED_CONTEXT ( ( #13, #136, #197 ) ) REPRESENTATION_CONTEXT ( 'NONE', 'WORKASPACE' ) );
#143 = EDGE_LOOP ( 'NONE', ( #156, #4, #248, #152 ) ) ;
#144 = EDGE_CURVE ( 'NONE', #33, #232, #108, .T. ) ;
#145 = DIRECTION ( 'NONE',  ( 1.224646799147352961E-16, 0.0000000000000000000, 1.000000000000000000 ) ) ;
#146 = ORIENTED_EDGE ( 'NONE', *, *, #204, .T. ) ;
#147 = CARTESIAN_POINT ( 'NONE',  ( 0.04405500000000001082, 5.395181473643666598E-18, 1.496062999999999921 ) ) ;
#148 =( GEOMETRIC_REPRESENTATION_CONTEXT ( 3 ) GLOBAL_UNCERTAINTY_ASSIGNED_CONTEXT ( ( #194 ) ) GLOBAL_UNIT_ASSIGNED_CONTEXT ( ( #205, #47, #88 ) ) REPRESENTATION_CONTEXT ( 'NONE', 'WORKASPACE' ) );
#149 = DIRECTION ( 'NONE',  ( 1.000000000000000000, 0.0000000000000000000, 0.0000000000000000000 ) ) ;
#150 = FILL_AREA_STYLE_COLOUR ( '', #122 ) ;
#151 = ORIENTED_EDGE ( 'NONE', *, *, #141, .T. ) ;
#152 = ORIENTED_EDGE ( 'NONE', *, *, #266, .F. ) ;
#153 = AXIS2_PLACEMENT_3D ( 'NONE', #12, #245, #179 ) ;
#154 = CIRCLE ( 'NONE', #267, 0.05905499999999998251 ) ;
#155 = ADVANCED_FACE ( 'NONE', ( #177 ), #264, .T. ) ;
#156 = ORIENTED_EDGE ( 'NONE', *, *, #241, .T. ) ;
#157 = CARTESIAN_POINT ( 'NONE',  ( 0.0000000000000000000, 0.0000000000000000000, 1.496062999999999921 ) ) ;
#158 = DIRECTION ( 'NONE',  ( -0.7071067811865536790, 0.0000000000000000000, -0.7071067811865412445 ) ) ;
#159 = PRODUCT_CONTEXT ( 'NONE', #7, 'mechanical' ) ;
#160 = ADVANCED_FACE ( 'NONE', ( #40 ), #137, .T. ) ;
#161 = CARTESIAN_POINT ( 'NONE',  ( 0.05905499999999998251, 7.232151672364692341E-18, 1.496062999999999921 ) ) ;
#162 = LINE ( 'NONE', #161, #187 ) ;
#163 = ORIENTED_EDGE ( 'NONE', *, *, #112, .F. ) ;
#164 = MANIFOLD_SOLID_BREP ( 'Cut-Revolve1', #80 ) ;
#165 =( LENGTH_UNIT ( ) NAMED_UNIT ( * ) SI_UNIT ( $, .METRE. ) );
#166 = VERTEX_POINT ( 'NONE', #27 ) ;
#167 = ORIENTED_EDGE ( 'NONE', *, *, #99, .T. ) ;
#168 = VECTOR ( 'NONE', #106, 39.37007874015748143 ) ;
#169 = CYLINDRICAL_SURFACE ( 'NONE', #278, 0.05905499999999998251 ) ;
#170 = CARTESIAN_POINT ( 'NONE',  ( 0.0000000000000000000, 0.0000000000000000000, 1.481063000000000240 ) ) ;
#171 = DIRECTION ( 'NONE',  ( -0.0000000000000000000, -0.0000000000000000000, -1.000000000000000000 ) ) ;
#172 = FACE_OUTER_BOUND ( 'NONE', #143, .T. ) ;
#173 = PRESENTATION_STYLE_ASSIGNMENT (( #62 ) ) ;
#174 = AXIS2_PLACEMENT_3D ( 'NONE', #109, #68, #225 ) ;
#175 = SURFACE_STYLE_FILL_AREA ( #91 ) ;
#176 = EDGE_CURVE ( 'NONE', #96, #283, #56, .T. ) ;
#177 = FACE_OUTER_BOUND ( 'NONE', #53, .T. ) ;
#178 = AXIS2_PLACEMENT_3D ( 'NONE', #296, #171, #135 ) ;
#179 = DIRECTION ( 'NONE',  ( -1.000000000000000000, 0.0000000000000000000, 0.0000000000000000000 ) ) ;
#180 = PRODUCT_DEFINITION_CONTEXT ( 'detailed design', #298, 'design' ) ;
#181 = CARTESIAN_POINT ( 'NONE',  ( -0.03933063000000000531, 0.0000000000000000000, 4.816613013794885432E-18 ) ) ;
#182 = AXIS2_PLACEMENT_3D ( 'NONE', #157, #289, #65 ) ;
#183 = AXIS2_PLACEMENT_3D ( 'NONE', #250, #234, #218 ) ;
#184 = EDGE_CURVE ( 'NONE', #232, #260, #115, .T. ) ;
#185 = EDGE_LOOP ( 'NONE', ( #70, #259, #24, #163 ) ) ;
#186 = DIRECTION ( 'NONE',  ( -0.0000000000000000000, -0.0000000000000000000, -1.000000000000000000 ) ) ;
#187 = VECTOR ( 'NONE', #242, 39.37007874015748143 ) ;
#188 = AXIS2_PLACEMENT_3D ( 'NONE', #281, #8, #77 ) ;
#189 = LINE ( 'NONE', #147, #46 ) ;
#190 = FACE_OUTER_BOUND ( 'NONE', #251, .T. ) ;
#191 = AXIS2_PLACEMENT_3D ( 'NONE', #26, #74, #92 ) ;
#192 = ORIENTED_EDGE ( 'NONE', *, *, #252, .T. ) ;
#193 = ADVANCED_FACE ( 'NONE', ( #54 ), #38, .T. ) ;
#194 = UNCERTAINTY_MEASURE_WITH_UNIT (LENGTH_MEASURE( 1.000000000000000082E-05 ), #205, 'distance_accuracy_value', 'NONE');
#195 = ORIENTED_EDGE ( 'NONE', *, *, #237, .T. ) ;
#196 = LINE ( 'NONE', #90, #89 ) ;
#197 =( NAMED_UNIT ( * ) SI_UNIT ( $, .STERADIAN. ) SOLID_ANGLE_UNIT ( ) );
#198 = VECTOR ( 'NONE', #186, 39.37007874015748143 ) ;
#199 = DIRECTION ( 'NONE',  ( 0.0000000000000000000, 0.0000000000000000000, -1.000000000000000000 ) ) ;
#200 = PLANE ( 'NONE',  #110 ) ;
#201 = SHAPE_DEFINITION_REPRESENTATION ( #29, #288 ) ;
#202 = SURFACE_SIDE_STYLE ('',( #175 ) ) ;
#203 = PRESENTATION_STYLE_ASSIGNMENT (( #262 ) ) ;
#204 = EDGE_CURVE ( 'NONE', #73, #33, #257, .T. ) ;
#205 =( CONVERSION_BASED_UNIT ( 'INCH', #229 ) LENGTH_UNIT ( ) NAMED_UNIT ( #208 ) );
#206 = PRESENTATION_LAYER_ASSIGNMENT (  '', '', ( #42 ) ) ;
#207 = AXIS2_PLACEMENT_3D ( 'NONE', #104, #87, #107 ) ;
#208 = DIMENSIONAL_EXPONENTS ( 1.000000000000000000, 0.0000000000000000000, 0.0000000000000000000, 0.0000000000000000000, 0.0000000000000000000, 0.0000000000000000000, 0.0000000000000000000 ) ;
#209 = ORIENTED_EDGE ( 'NONE', *, *, #51, .T. ) ;
#210 = DIRECTION ( 'NONE',  ( -1.000000000000000000, 0.0000000000000000000, 1.224646799147352714E-16 ) ) ;
#211 = ORIENTED_EDGE ( 'NONE', *, *, #290, .T. ) ;
#212 =( CONVERSION_BASED_UNIT ( 'INCH', #119 ) LENGTH_UNIT ( ) NAMED_UNIT ( #230 ) );
#213 = EDGE_LOOP ( 'NONE', ( #102, #285, #151, #279 ) ) ;
#214 = MECHANICAL_DESIGN_GEOMETRIC_PRESENTATION_REPRESENTATION (  '', ( #42 ), #148 ) ;
#215 = PRODUCT_DEFINITION_FORMATION_WITH_SPECIFIED_SOURCE ( 'ANY', '', #263, .NOT_KNOWN. ) ;
#216 = DIRECTION ( 'NONE',  ( -0.0000000000000000000, -0.0000000000000000000, -1.000000000000000000 ) ) ;
#217 = DIRECTION ( 'NONE',  ( -1.000000000000000000, 0.0000000000000000000, 1.224646799147352714E-16 ) ) ;
#218 = DIRECTION ( 'NONE',  ( 1.000000000000000000, 0.0000000000000000000, -0.0000000000000000000 ) ) ;
#219 = ADVANCED_FACE ( 'NONE', ( #22 ), #169, .T. ) ;
#220 = AXIS2_PLACEMENT_3D ( 'NONE', #269, #199, #16 ) ;
#221 = ORIENTED_EDGE ( 'NONE', *, *, #144, .F. ) ;
#222 = EDGE_LOOP ( 'NONE', ( #23, #20, #120, #93 ) ) ;
#223 = FACE_OUTER_BOUND ( 'NONE', #81, .T. ) ;
#224 = PRODUCT_RELATED_PRODUCT_CATEGORY ( 'part', '', ( #263 ) ) ;
#225 = DIRECTION ( 'NONE',  ( -1.000000000000000000, 0.0000000000000000000, 1.224646799147352714E-16 ) ) ;
#226 = CARTESIAN_POINT ( 'NONE',  ( 0.04405500000000001082, 6.313666573004179469E-18, 1.496062999999999921 ) ) ;
#227 = CARTESIAN_POINT ( 'NONE',  ( 2.892860668945877553E-17, 0.0000000000000000000, 0.2362200000000000133 ) ) ;
#228 = DIRECTION ( 'NONE',  ( -1.224646799147352961E-16, -0.0000000000000000000, -1.000000000000000000 ) ) ;
#229 = LENGTH_MEASURE_WITH_UNIT ( LENGTH_MEASURE( 0.02539999999999999897 ), #86 );
#230 = DIMENSIONAL_EXPONENTS ( 1.000000000000000000, 0.0000000000000000000, 0.0000000000000000000, 0.0000000000000000000, 0.0000000000000000000, 0.0000000000000000000, 0.0000000000000000000 ) ;
#231 = DIRECTION ( 'NONE',  ( 0.0000000000000000000, 0.0000000000000000000, -1.000000000000000000 ) ) ;
#232 = VERTEX_POINT ( 'NONE', #48 ) ;
#233 = ORIENTED_EDGE ( 'NONE', *, *, #204, .F. ) ;
#234 = DIRECTION ( 'NONE',  ( 0.0000000000000000000, 0.0000000000000000000, 1.000000000000000000 ) ) ;
#235 = DIRECTION ( 'NONE',  ( 1.000000000000000000, 0.0000000000000000000, 0.0000000000000000000 ) ) ;
#236 = CARTESIAN_POINT ( 'NONE',  ( 0.0000000000000000000, 0.0000000000000000000, 1.496062999999999921 ) ) ;
#237 = EDGE_CURVE ( 'NONE', #78, #59, #189, .T. ) ;
#238 = ORIENTED_EDGE ( 'NONE', *, *, #144, .T. ) ;
#239 = FILL_AREA_STYLE ('',( #150 ) ) ;
#240 = CYLINDRICAL_SURFACE ( 'NONE', #178, 0.05905499999999998251 ) ;
#241 = EDGE_CURVE ( 'NONE', #276, #59, #154, .T. ) ;
#242 = DIRECTION ( 'NONE',  ( -0.0000000000000000000, -0.0000000000000000000, -1.000000000000000000 ) ) ;
#243 = DIRECTION ( 'NONE',  ( -1.000000000000000000, 0.0000000000000000000, 0.0000000000000000000 ) ) ;
#244 = CARTESIAN_POINT ( 'NONE',  ( 0.03933063000000002613, 0.0000000000000000000, 0.2362200000000000133 ) ) ;
#245 = DIRECTION ( 'NONE',  ( 0.0000000000000000000, 0.0000000000000000000, -1.000000000000000000 ) ) ;
#246 = AXIS2_PLACEMENT_3D ( 'NONE', #52, #1, #210 ) ;
#247 = EDGE_CURVE ( 'NONE', #59, #276, #14, .T. ) ;
#248 = ORIENTED_EDGE ( 'NONE', *, *, #184, .F. ) ;
#249 = CIRCLE ( 'NONE', #114, 0.03933063000000000531 ) ;
#250 = CARTESIAN_POINT ( 'NONE',  ( 0.0000000000000000000, 0.0000000000000000000, 0.0000000000000000000 ) ) ;
#251 = EDGE_LOOP ( 'NONE', ( #103, #238, #60, #2 ) ) ;
#252 = EDGE_CURVE ( 'NONE', #283, #96, #295, .T. ) ;
#253 = CARTESIAN_POINT ( 'NONE',  ( -0.03933062999999999837, 0.0000000000000000000, 9.633226027589769323E-18 ) ) ;
#254 = ORIENTED_EDGE ( 'NONE', *, *, #299, .F. ) ;
#255 = CARTESIAN_POINT ( 'NONE',  ( 0.0000000000000000000, 0.0000000000000000000, 1.481063000000000240 ) ) ;
#256 = CIRCLE ( 'NONE', #182, 0.04405500000000001082 ) ;
#257 = CIRCLE ( 'NONE', #188, 0.03933063000000000531 ) ;
#258 = CARTESIAN_POINT ( 'NONE',  ( 2.892860668945877553E-17, 0.0000000000000000000, 0.2362200000000000133 ) ) ;
#259 = ORIENTED_EDGE ( 'NONE', *, *, #299, .T. ) ;
#260 = VERTEX_POINT ( 'NONE', #30 ) ;
#261 = AXIS2_PLACEMENT_3D ( 'NONE', #258, #145, #235 ) ;
#262 = SURFACE_STYLE_USAGE ( .BOTH. , #202 ) ;
#263 = PRODUCT ( 'Micro_GEMM-020-2X', 'Micro_GEMM-020-2X', '', ( #159 ) ) ;
#264 = CYLINDRICAL_SURFACE ( 'NONE', #139, 0.03933063000000000531 ) ;
#265 = DIRECTION ( 'NONE',  ( 1.000000000000000000, 0.0000000000000000000, 0.0000000000000000000 ) ) ;
#266 = EDGE_CURVE ( 'NONE', #276, #232, #55, .T. ) ;
#267 = AXIS2_PLACEMENT_3D ( 'NONE', #255, #231, #6 ) ;
#268 = FILL_AREA_STYLE_COLOUR ( '', #5 ) ;
#269 = CARTESIAN_POINT ( 'NONE',  ( 0.0000000000000000000, 0.0000000000000000000, 1.496062999999999921 ) ) ;
#270 = PRODUCT_DEFINITION ( 'UNKNOWN', '', #215, #180 ) ;
#271 = CIRCLE ( 'NONE', #44, 0.05905499999999998251 ) ;
#272 = CIRCLE ( 'NONE', #191, 0.04405500000000001082 ) ;
#273 = EDGE_LOOP ( 'NONE', ( #192, #118 ) ) ;
#274 = CARTESIAN_POINT ( 'NONE',  ( 0.03933063000000000531, 4.816613013794886973E-18, -4.816613013794885432E-18 ) ) ;
#275 = ADVANCED_FACE ( 'NONE', ( #98 ), #121, .F. ) ;
#276 = VERTEX_POINT ( 'NONE', #97 ) ;
#277 = CONICAL_SURFACE ( 'NONE', #220, 0.04405500000000001082, 0.7853981633974570498 ) ;
#278 = AXIS2_PLACEMENT_3D ( 'NONE', #236, #216, #58 ) ;
#279 = ORIENTED_EDGE ( 'NONE', *, *, #247, .F. ) ;
#280 = DIRECTION ( 'NONE',  ( 0.0000000000000000000, 0.0000000000000000000, -1.000000000000000000 ) ) ;
#281 = CARTESIAN_POINT ( 'NONE',  ( 2.892860668945877553E-17, 0.0000000000000000000, 0.2362200000000000133 ) ) ;
#282 = UNCERTAINTY_MEASURE_WITH_UNIT (LENGTH_MEASURE( 1.000000000000000082E-05 ), #212, 'distance_accuracy_value', 'NONE');
#283 = VERTEX_POINT ( 'NONE', #253 ) ;
#284 = SURFACE_STYLE_FILL_AREA ( #239 ) ;
#285 = ORIENTED_EDGE ( 'NONE', *, *, #51, .F. ) ;
#286 = AXIS2_PLACEMENT_3D ( 'NONE', #170, #280, #149 ) ;
#287 = CARTESIAN_POINT ( 'NONE',  ( 0.03933062999999999837, 4.816613013794885432E-18, 9.478001694819074349E-34 ) ) ;
#288 = ADVANCED_BREP_SHAPE_REPRESENTATION ( 'Micro_GEMM-020-2X', ( #164, #207 ), #129 ) ;
#289 = DIRECTION ( 'NONE',  ( 0.0000000000000000000, 0.0000000000000000000, 1.000000000000000000 ) ) ;
#290 = EDGE_CURVE ( 'NONE', #78, #166, #272, .T. ) ;
#291 = DIRECTION ( 'NONE',  ( -1.224646799147352961E-16, -0.0000000000000000000, -1.000000000000000000 ) ) ;
#292 = FACE_OUTER_BOUND ( 'NONE', #213, .T. ) ;
#293 = DIRECTION ( 'NONE',  ( 0.0000000000000000000, 0.0000000000000000000, 1.000000000000000000 ) ) ;
#294 = ADVANCED_FACE ( 'NONE', ( #190 ), #83, .T. ) ;
#295 = CIRCLE ( 'NONE', #246, 0.03933062999999999837 ) ;
#296 = CARTESIAN_POINT ( 'NONE',  ( 0.0000000000000000000, 0.0000000000000000000, 1.496062999999999921 ) ) ;
#297 = CARTESIAN_POINT ( 'NONE',  ( 5.898649710075390321E-34, 0.0000000000000000000, 4.816613013794884661E-18 ) ) ;
#298 = APPLICATION_CONTEXT ( 'automotive_design' ) ;
#299 = EDGE_CURVE ( 'NONE', #73, #96, #117, .T. ) ;
ENDSEC;
END-ISO-10303-21;
