ISO-10303-21;
HEADER;
FILE_DESCRIPTION (( 'STEP AP214' ),
    '1' );
FILE_NAME ('Micro_SFL-187-35.STEP',
    '2021-09-02T04:48:45',
    ( '' ),
    ( '' ),
    'SwSTEP 2.0',
    'SolidWorks 2020',
    '' );
FILE_SCHEMA (( 'AUTOMOTIVE_DESIGN' ));
ENDSEC;

DATA;
#1 = CARTESIAN_POINT ( 'NONE',  ( 0.0000000000000000000, 0.0000000000000000000, 2.000000000000000000 ) ) ;
#2 = CONICAL_SURFACE ( 'NONE', #124, 0.07874999999999980627, 0.7853981633974466137 ) ;
#3 = CARTESIAN_POINT ( 'NONE',  ( 0.09375000000000006939, 1.148106374200644633E-17, 0.6255316826705892286 ) ) ;
#4 = VECTOR ( 'NONE', #117, 39.37007874015748143 ) ;
#5 = DIRECTION ( 'NONE',  ( 1.000000000000000000, 0.0000000000000000000, 0.0000000000000000000 ) ) ;
#6 = VERTEX_POINT ( 'NONE', #3 ) ;
#7 = DIRECTION ( 'NONE',  ( -1.224646799147353207E-16, -0.0000000000000000000, -1.000000000000000000 ) ) ;
#8 = EDGE_LOOP ( 'NONE', ( #241, #137, #157, #101 ) ) ;
#9 = CARTESIAN_POINT ( 'NONE',  ( 0.0000000000000000000, 0.0000000000000000000, 2.000000000000000000 ) ) ;
#10 = ORIENTED_EDGE ( 'NONE', *, *, #195, .F. ) ;
#11 = AXIS2_PLACEMENT_3D ( 'NONE', #140, #227, #166 ) ;
#12 = ORIENTED_EDGE ( 'NONE', *, *, #220, .T. ) ;
#13 = DIRECTION ( 'NONE',  ( 1.000000000000000000, 0.0000000000000000000, 0.0000000000000000000 ) ) ;
#14 = LINE ( 'NONE', #109, #170 ) ;
#15 = CARTESIAN_POINT ( 'NONE',  ( 0.07874999999999980627, 9.644093543285380530E-18, 2.000000000000000000 ) ) ;
#16 = AXIS2_PLACEMENT_3D ( 'NONE', #147, #125, #215 ) ;
#17 = EDGE_CURVE ( 'NONE', #128, #197, #34, .T. ) ;
#18 = DIRECTION ( 'NONE',  ( -0.0000000000000000000, -0.0000000000000000000, -1.000000000000000000 ) ) ;
#19 = PRESENTATION_STYLE_ASSIGNMENT (( #22 ) ) ;
#20 = SURFACE_SIDE_STYLE ('',( #163 ) ) ;
#21 = CARTESIAN_POINT ( 'NONE',  ( 0.0000000000000000000, 0.0000000000000000000, 2.000000000000000000 ) ) ;
#22 = SURFACE_STYLE_USAGE ( .BOTH. , #234 ) ;
#23 = DIRECTION ( 'NONE',  ( 0.0000000000000000000, 0.0000000000000000000, 1.000000000000000000 ) ) ;
#24 = CARTESIAN_POINT ( 'NONE',  ( 0.09375000000000001388, 1.148106374200643863E-17, 2.000000000000000000 ) ) ;
#25 = FACE_OUTER_BOUND ( 'NONE', #178, .T. ) ;
#26 = CIRCLE ( 'NONE', #48, 0.07874999999999980627 ) ;
#27 = ORIENTED_EDGE ( 'NONE', *, *, #119, .T. ) ;
#28 = EDGE_CURVE ( 'NONE', #102, #172, #36, .T. ) ;
#29 = AXIS2_PLACEMENT_3D ( 'NONE', #32, #95, #237 ) ;
#30 = ADVANCED_FACE ( 'NONE', ( #144 ), #120, .T. ) ;
#31 = EDGE_LOOP ( 'NONE', ( #286, #12, #134, #132 ) ) ;
#32 = CARTESIAN_POINT ( 'NONE',  ( 7.654042494670957853E-17, 0.0000000000000000000, 0.6250000000000000000 ) ) ;
#33 = DIMENSIONAL_EXPONENTS ( 1.000000000000000000, 0.0000000000000000000, 0.0000000000000000000, 0.0000000000000000000, 0.0000000000000000000, 0.0000000000000000000, 0.0000000000000000000 ) ;
#34 = CIRCLE ( 'NONE', #91, 0.09365624999999999645 ) ;
#35 = ORIENTED_EDGE ( 'NONE', *, *, #143, .T. ) ;
#36 = LINE ( 'NONE', #15, #97 ) ;
#37 = CARTESIAN_POINT ( 'NONE',  ( 0.09365624999999999645, 1.146958267826442798E-17, -1.146958267826442798E-17 ) ) ;
#38 = UNCERTAINTY_MEASURE_WITH_UNIT (LENGTH_MEASURE( 1.000000000000000082E-05 ), #298, 'distance_accuracy_value', 'NONE');
#39 = ADVANCED_FACE ( 'NONE', ( #25 ), #2, .T. ) ;
#40 = CYLINDRICAL_SURFACE ( 'NONE', #11, 0.09365624999999999645 ) ;
#41 = CIRCLE ( 'NONE', #251, 0.09375000000000001388 ) ;
#42 = DIRECTION ( 'NONE',  ( 1.000000000000000000, 0.0000000000000000000, 0.0000000000000000000 ) ) ;
#43 = EDGE_CURVE ( 'NONE', #224, #102, #269, .T. ) ;
#44 = CONICAL_SURFACE ( 'NONE', #149, 0.09365624999999999645, 0.1745329251994338360 ) ;
#45 = CARTESIAN_POINT ( 'NONE',  ( -0.07874999999999980627, 0.0000000000000000000, 2.000000000000000000 ) ) ;
#46 = APPLICATION_CONTEXT ( 'automotive_design' ) ;
#47 = CARTESIAN_POINT ( 'NONE',  ( -0.09365624999999999645, 0.0000000000000000000, 2.293916535652885596E-17 ) ) ;
#48 = AXIS2_PLACEMENT_3D ( 'NONE', #112, #260, #152 ) ;
#49 = LINE ( 'NONE', #180, #297 ) ;
#50 = ORIENTED_EDGE ( 'NONE', *, *, #43, .F. ) ;
#51 =( NAMED_UNIT ( * ) SI_UNIT ( $, .STERADIAN. ) SOLID_ANGLE_UNIT ( ) );
#52 = ORIENTED_EDGE ( 'NONE', *, *, #103, .T. ) ;
#53 = ORIENTED_EDGE ( 'NONE', *, *, #226, .T. ) ;
#54 = EDGE_LOOP ( 'NONE', ( #243, #267 ) ) ;
#55 = FACE_OUTER_BOUND ( 'NONE', #104, .T. ) ;
#56 = CARTESIAN_POINT ( 'NONE',  ( 0.07874999999999980627, 1.056257864264590573E-17, 2.000000000000000000 ) ) ;
#57 = DIRECTION ( 'NONE',  ( 1.224646799147353207E-16, 0.0000000000000000000, 1.000000000000000000 ) ) ;
#58 = VECTOR ( 'NONE', #272, 39.37007874015748143 ) ;
#59 = FACE_OUTER_BOUND ( 'NONE', #150, .T. ) ;
#60 = CARTESIAN_POINT ( 'NONE',  ( 0.09365625000000006584, 0.0000000000000000000, 0.6250000000000000000 ) ) ;
#61 = CYLINDRICAL_SURFACE ( 'NONE', #217, 0.09375000000000001388 ) ;
#62 = CIRCLE ( 'NONE', #68, 0.09365624999999999645 ) ;
#63 = CARTESIAN_POINT ( 'NONE',  ( 0.09375000000000001388, 1.148106374200643863E-17, 1.984999999999999654 ) ) ;
#64 =( CONVERSION_BASED_UNIT ( 'INCH', #236 ) LENGTH_UNIT ( ) NAMED_UNIT ( #33 ) );
#65 = DIRECTION ( 'NONE',  ( 0.0000000000000000000, 0.0000000000000000000, -1.000000000000000000 ) ) ;
#66 = COLOUR_RGB ( '',0.7921568627450980005, 0.8196078431372548767, 0.9333333333333333481 ) ;
#67 = ADVANCED_FACE ( 'NONE', ( #296 ), #245, .T. ) ;
#68 = AXIS2_PLACEMENT_3D ( 'NONE', #94, #192, #207 ) ;
#69 = EDGE_CURVE ( 'NONE', #102, #224, #26, .T. ) ;
#70 = CARTESIAN_POINT ( 'NONE',  ( 7.660553729477949085E-17, 0.0000000000000000000, 0.6255316826705892286 ) ) ;
#71 = ORIENTED_EDGE ( 'NONE', *, *, #279, .F. ) ;
#72 = CARTESIAN_POINT ( 'NONE',  ( 7.654042494670957853E-17, 0.0000000000000000000, 0.6250000000000000000 ) ) ;
#73 = EDGE_LOOP ( 'NONE', ( #107, #196, #53, #202 ) ) ;
#74 = ORIENTED_EDGE ( 'NONE', *, *, #43, .T. ) ;
#75 = CIRCLE ( 'NONE', #190, 0.09365624999999999645 ) ;
#76 = ORIENTED_EDGE ( 'NONE', *, *, #131, .T. ) ;
#77 = ADVANCED_BREP_SHAPE_REPRESENTATION ( 'Micro_SFL-187-35', ( #244, #16 ), #194 ) ;
#78 = CARTESIAN_POINT ( 'NONE',  ( 0.0000000000000000000, 0.0000000000000000000, 0.0000000000000000000 ) ) ;
#79 = EDGE_CURVE ( 'NONE', #197, #128, #75, .T. ) ;
#80 = CARTESIAN_POINT ( 'NONE',  ( 0.09365625000000006584, 0.0000000000000000000, 0.6250000000000000000 ) ) ;
#81 = PRODUCT ( 'Micro_SFL-187-35', 'Micro_SFL-187-35', '', ( #100 ) ) ;
#82 =( NAMED_UNIT ( * ) SI_UNIT ( $, .STERADIAN. ) SOLID_ANGLE_UNIT ( ) );
#83 = EDGE_CURVE ( 'NONE', #6, #200, #258, .T. ) ;
#84 = DIRECTION ( 'NONE',  ( 0.0000000000000000000, 0.0000000000000000000, 1.000000000000000000 ) ) ;
#85 = PRESENTATION_LAYER_ASSIGNMENT (  '', '', ( #110 ) ) ;
#86 = DIRECTION ( 'NONE',  ( 1.000000000000000000, 0.0000000000000000000, 0.0000000000000000000 ) ) ;
#87 =( NAMED_UNIT ( * ) PLANE_ANGLE_UNIT ( ) SI_UNIT ( $, .RADIAN. ) );
#88 = DIRECTION ( 'NONE',  ( -1.224646799147353207E-16, -0.0000000000000000000, -1.000000000000000000 ) ) ;
#89 = CARTESIAN_POINT ( 'NONE',  ( 0.0000000000000000000, 0.0000000000000000000, 2.000000000000000000 ) ) ;
#90 = ORIENTED_EDGE ( 'NONE', *, *, #17, .T. ) ;
#91 = AXIS2_PLACEMENT_3D ( 'NONE', #99, #171, #239 ) ;
#92 = AXIS2_PLACEMENT_3D ( 'NONE', #274, #182, #206 ) ;
#93 = CARTESIAN_POINT ( 'NONE',  ( 0.0000000000000000000, 0.0000000000000000000, 0.0000000000000000000 ) ) ;
#94 = CARTESIAN_POINT ( 'NONE',  ( 1.404618771449245766E-33, 0.0000000000000000000, 1.146958267826442798E-17 ) ) ;
#95 = DIRECTION ( 'NONE',  ( 1.224646799147353207E-16, 0.0000000000000000000, 1.000000000000000000 ) ) ;
#96 = ADVANCED_FACE ( 'NONE', ( #55 ), #179, .T. ) ;
#97 = VECTOR ( 'NONE', #111, 39.37007874015748143 ) ;
#98 = PRESENTATION_LAYER_ASSIGNMENT (  '', '', ( #232 ) ) ;
#99 = CARTESIAN_POINT ( 'NONE',  ( 7.654042494670957853E-17, 0.0000000000000000000, 0.6250000000000000000 ) ) ;
#100 = PRODUCT_CONTEXT ( 'NONE', #154, 'mechanical' ) ;
#101 = ORIENTED_EDGE ( 'NONE', *, *, #103, .F. ) ;
#102 = VERTEX_POINT ( 'NONE', #56 ) ;
#103 = EDGE_CURVE ( 'NONE', #197, #219, #49, .T. ) ;
#104 = EDGE_LOOP ( 'NONE', ( #122, #284, #35, #238 ) ) ;
#105 = CIRCLE ( 'NONE', #285, 0.09375000000000001388 ) ;
#106 = PRODUCT_DEFINITION_CONTEXT ( 'detailed design', #46, 'design' ) ;
#107 = ORIENTED_EDGE ( 'NONE', *, *, #79, .F. ) ;
#108 = CARTESIAN_POINT ( 'NONE',  ( -0.09365624999999992706, 1.147532321013543253E-17, 0.6250000000000000000 ) ) ;
#109 = CARTESIAN_POINT ( 'NONE',  ( -0.09365624999999992706, 1.146958267826442798E-17, 0.6250000000000000000 ) ) ;
#110 = STYLED_ITEM ( 'NONE', ( #19 ), #244 ) ;
#111 = DIRECTION ( 'NONE',  ( 0.7071067811865463515, 8.659560562354916834E-17, -0.7071067811865486830 ) ) ;
#112 = CARTESIAN_POINT ( 'NONE',  ( 0.0000000000000000000, 0.0000000000000000000, 2.000000000000000000 ) ) ;
#113 = LINE ( 'NONE', #80, #58 ) ;
#114 = EDGE_CURVE ( 'NONE', #261, #219, #213, .T. ) ;
#115 = DIRECTION ( 'NONE',  ( -1.000000000000000000, 0.0000000000000000000, 1.224646799147352961E-16 ) ) ;
#116 = AXIS2_PLACEMENT_3D ( 'NONE', #278, #168, #5 ) ;
#117 = DIRECTION ( 'NONE',  ( -0.0000000000000000000, -0.0000000000000000000, -1.000000000000000000 ) ) ;
#118 = CARTESIAN_POINT ( 'NONE',  ( 0.09365624999999999645, 1.146958267826442798E-17, 0.0000000000000000000 ) ) ;
#119 = EDGE_CURVE ( 'NONE', #216, #200, #249, .T. ) ;
#120 = CYLINDRICAL_SURFACE ( 'NONE', #231, 0.09365624999999999645 ) ;
#121 = LENGTH_MEASURE_WITH_UNIT ( LENGTH_MEASURE( 0.02539999999999999897 ), #250 );
#122 = ORIENTED_EDGE ( 'NONE', *, *, #204, .F. ) ;
#123 = DIRECTION ( 'NONE',  ( -1.000000000000000000, 0.0000000000000000000, 0.0000000000000000000 ) ) ;
#124 = AXIS2_PLACEMENT_3D ( 'NONE', #233, #65, #123 ) ;
#125 = DIRECTION ( 'NONE',  ( 0.0000000000000000000, 0.0000000000000000000, 1.000000000000000000 ) ) ;
#126 = ORIENTED_EDGE ( 'NONE', *, *, #114, .F. ) ;
#127 = VECTOR ( 'NONE', #18, 39.37007874015748143 ) ;
#128 = VERTEX_POINT ( 'NONE', #60 ) ;
#129 = DIRECTION ( 'NONE',  ( -1.000000000000000000, 0.0000000000000000000, 0.0000000000000000000 ) ) ;
#130 = DIRECTION ( 'NONE',  ( -1.000000000000000000, 0.0000000000000000000, 0.0000000000000000000 ) ) ;
#131 = EDGE_CURVE ( 'NONE', #224, #216, #293, .T. ) ;
#132 = ORIENTED_EDGE ( 'NONE', *, *, #119, .F. ) ;
#133 = DIMENSIONAL_EXPONENTS ( 1.000000000000000000, 0.0000000000000000000, 0.0000000000000000000, 0.0000000000000000000, 0.0000000000000000000, 0.0000000000000000000, 0.0000000000000000000 ) ;
#134 = ORIENTED_EDGE ( 'NONE', *, *, #226, .F. ) ;
#135 = PRODUCT_DEFINITION_SHAPE ( 'NONE', 'NONE',  #229 ) ;
#136 = AXIS2_PLACEMENT_3D ( 'NONE', #295, #84, #287 ) ;
#137 = ORIENTED_EDGE ( 'NONE', *, *, #198, .T. ) ;
#138 = CARTESIAN_POINT ( 'NONE',  ( 0.0000000000000000000, 0.0000000000000000000, 1.984999999999999654 ) ) ;
#139 = CARTESIAN_POINT ( 'NONE',  ( -0.09374999999999994449, 0.0000000000000000000, 0.6255316826705892286 ) ) ;
#140 = CARTESIAN_POINT ( 'NONE',  ( 0.0000000000000000000, 0.0000000000000000000, 0.0000000000000000000 ) ) ;
#141 = VECTOR ( 'NONE', #271, 39.37007874015748143 ) ;
#142 = DIRECTION ( 'NONE',  ( -0.7071067811865463515, 0.0000000000000000000, -0.7071067811865486830 ) ) ;
#143 = EDGE_CURVE ( 'NONE', #128, #6, #113, .T. ) ;
#144 = FACE_OUTER_BOUND ( 'NONE', #8, .T. ) ;
#145 = FACE_OUTER_BOUND ( 'NONE', #54, .T. ) ;
#146 = FILL_AREA_STYLE ('',( #254 ) ) ;
#147 = CARTESIAN_POINT ( 'NONE',  ( 0.0000000000000000000, 0.0000000000000000000, 0.0000000000000000000 ) ) ;
#148 = CLOSED_SHELL ( 'NONE', ( #30, #162, #39, #283, #67, #169, #256, #96, #212, #181 ) ) ;
#149 = AXIS2_PLACEMENT_3D ( 'NONE', #230, #57, #184 ) ;
#150 = EDGE_LOOP ( 'NONE', ( #151, #90, #52, #126 ) ) ;
#151 = ORIENTED_EDGE ( 'NONE', *, *, #198, .F. ) ;
#152 = DIRECTION ( 'NONE',  ( 1.000000000000000000, 0.0000000000000000000, 0.0000000000000000000 ) ) ;
#153 = DIRECTION ( 'NONE',  ( -0.0000000000000000000, -0.0000000000000000000, -1.000000000000000000 ) ) ;
#154 = APPLICATION_CONTEXT ( 'automotive_design' ) ;
#155 =( GEOMETRIC_REPRESENTATION_CONTEXT ( 3 ) GLOBAL_UNCERTAINTY_ASSIGNED_CONTEXT ( ( #222 ) ) GLOBAL_UNIT_ASSIGNED_CONTEXT ( ( #273, #193, #51 ) ) REPRESENTATION_CONTEXT ( 'NONE', 'WORKASPACE' ) );
#156 =( LENGTH_UNIT ( ) NAMED_UNIT ( * ) SI_UNIT ( $, .METRE. ) );
#157 = ORIENTED_EDGE ( 'NONE', *, *, #262, .F. ) ;
#158 = ORIENTED_EDGE ( 'NONE', *, *, #28, .F. ) ;
#159 = EDGE_LOOP ( 'NONE', ( #281, #288, #27, #218 ) ) ;
#160 = FACE_OUTER_BOUND ( 'NONE', #280, .T. ) ;
#161 = LINE ( 'NONE', #37, #141 ) ;
#162 = ADVANCED_FACE ( 'NONE', ( #201 ), #44, .T. ) ;
#163 = SURFACE_STYLE_FILL_AREA ( #255 ) ;
#164 = AXIS2_PLACEMENT_3D ( 'NONE', #1, #188, #276 ) ;
#165 = DIRECTION ( 'NONE',  ( -0.0000000000000000000, -0.0000000000000000000, -1.000000000000000000 ) ) ;
#166 = DIRECTION ( 'NONE',  ( -1.000000000000000000, 0.0000000000000000000, 1.224646799147352961E-16 ) ) ;
#167 = LINE ( 'NONE', #24, #4 ) ;
#168 = DIRECTION ( 'NONE',  ( 0.0000000000000000000, 0.0000000000000000000, -1.000000000000000000 ) ) ;
#169 = ADVANCED_FACE ( 'NONE', ( #160 ), #248, .T. ) ;
#170 = VECTOR ( 'NONE', #292, 39.37007874015747433 ) ;
#171 = DIRECTION ( 'NONE',  ( -1.224646799147353207E-16, -0.0000000000000000000, -1.000000000000000000 ) ) ;
#172 = VERTEX_POINT ( 'NONE', #63 ) ;
#173 = CONICAL_SURFACE ( 'NONE', #164, 0.07874999999999980627, 0.7853981633974466137 ) ;
#174 = LENGTH_MEASURE_WITH_UNIT ( LENGTH_MEASURE( 0.02539999999999999897 ), #156 );
#175 = ORIENTED_EDGE ( 'NONE', *, *, #69, .T. ) ;
#176 = EDGE_LOOP ( 'NONE', ( #158, #50, #76, #10 ) ) ;
#177 = CARTESIAN_POINT ( 'NONE',  ( -0.09375000000000001388, 0.0000000000000000000, 2.000000000000000000 ) ) ;
#178 = EDGE_LOOP ( 'NONE', ( #264, #259, #71, #209 ) ) ;
#179 = CONICAL_SURFACE ( 'NONE', #29, 0.09365624999999999645, 0.1745329251994338360 ) ;
#180 = CARTESIAN_POINT ( 'NONE',  ( -0.09365624999999999645, 0.0000000000000000000, 1.146958267826442798E-17 ) ) ;
#181 = ADVANCED_FACE ( 'NONE', ( #145 ), #289, .F. ) ;
#182 = DIRECTION ( 'NONE',  ( -1.224646799147353207E-16, -0.0000000000000000000, -1.000000000000000000 ) ) ;
#183 = APPLICATION_PROTOCOL_DEFINITION ( 'draft international standard', 'automotive_design', 1998, #154 ) ;
#184 = DIRECTION ( 'NONE',  ( 1.000000000000000000, 0.0000000000000000000, 0.0000000000000000000 ) ) ;
#185 = UNCERTAINTY_MEASURE_WITH_UNIT (LENGTH_MEASURE( 1.000000000000000082E-05 ), #64, 'distance_accuracy_value', 'NONE');
#186 = MECHANICAL_DESIGN_GEOMETRIC_PRESENTATION_REPRESENTATION (  '', ( #110 ), #223 ) ;
#187 = SURFACE_STYLE_FILL_AREA ( #146 ) ;
#188 = DIRECTION ( 'NONE',  ( 0.0000000000000000000, 0.0000000000000000000, -1.000000000000000000 ) ) ;
#189 = DIRECTION ( 'NONE',  ( -1.224646799147353207E-16, -0.0000000000000000000, -1.000000000000000000 ) ) ;
#190 = AXIS2_PLACEMENT_3D ( 'NONE', #72, #265, #129 ) ;
#191 = CARTESIAN_POINT ( 'NONE',  ( 7.660553729477949085E-17, 0.0000000000000000000, 0.6255316826705892286 ) ) ;
#192 = DIRECTION ( 'NONE',  ( -1.224646799147353207E-16, -0.0000000000000000000, -1.000000000000000000 ) ) ;
#193 =( NAMED_UNIT ( * ) PLANE_ANGLE_UNIT ( ) SI_UNIT ( $, .RADIAN. ) );
#194 =( GEOMETRIC_REPRESENTATION_CONTEXT ( 3 ) GLOBAL_UNCERTAINTY_ASSIGNED_CONTEXT ( ( #38 ) ) GLOBAL_UNIT_ASSIGNED_CONTEXT ( ( #298, #87, #82 ) ) REPRESENTATION_CONTEXT ( 'NONE', 'WORKASPACE' ) );
#195 = EDGE_CURVE ( 'NONE', #172, #216, #41, .T. ) ;
#196 = ORIENTED_EDGE ( 'NONE', *, *, #204, .T. ) ;
#197 = VERTEX_POINT ( 'NONE', #108 ) ;
#198 = EDGE_CURVE ( 'NONE', #128, #261, #161, .T. ) ;
#199 = COLOUR_RGB ( '',0.7921568627450980005, 0.8196078431372548767, 0.9333333333333333481 ) ;
#200 = VERTEX_POINT ( 'NONE', #139 ) ;
#201 = FACE_OUTER_BOUND ( 'NONE', #73, .T. ) ;
#202 = ORIENTED_EDGE ( 'NONE', *, *, #143, .F. ) ;
#203 = AXIS2_PLACEMENT_3D ( 'NONE', #70, #7, #282 ) ;
#204 = EDGE_CURVE ( 'NONE', #197, #200, #14, .T. ) ;
#205 = DIRECTION ( 'NONE',  ( -1.224646799147353207E-16, -0.0000000000000000000, -1.000000000000000000 ) ) ;
#206 = DIRECTION ( 'NONE',  ( -1.000000000000000000, 0.0000000000000000000, 1.224646799147352961E-16 ) ) ;
#207 = DIRECTION ( 'NONE',  ( -1.000000000000000000, 0.0000000000000000000, 1.224646799147352961E-16 ) ) ;
#208 = DIRECTION ( 'NONE',  ( -1.000000000000000000, 0.0000000000000000000, 0.0000000000000000000 ) ) ;
#209 = ORIENTED_EDGE ( 'NONE', *, *, #131, .F. ) ;
#210 =( LENGTH_UNIT ( ) NAMED_UNIT ( * ) SI_UNIT ( $, .METRE. ) );
#211 = PRESENTATION_STYLE_ASSIGNMENT (( #228 ) ) ;
#212 = ADVANCED_FACE ( 'NONE', ( #59 ), #40, .T. ) ;
#213 = CIRCLE ( 'NONE', #92, 0.09365624999999999645 ) ;
#214 = FACE_OUTER_BOUND ( 'NONE', #176, .T. ) ;
#215 = DIRECTION ( 'NONE',  ( 1.000000000000000000, 0.0000000000000000000, 0.0000000000000000000 ) ) ;
#216 = VERTEX_POINT ( 'NONE', #257 ) ;
#217 = AXIS2_PLACEMENT_3D ( 'NONE', #89, #165, #208 ) ;
#218 = ORIENTED_EDGE ( 'NONE', *, *, #83, .F. ) ;
#219 = VERTEX_POINT ( 'NONE', #47 ) ;
#220 = EDGE_CURVE ( 'NONE', #172, #6, #167, .T. ) ;
#221 = AXIS2_PLACEMENT_3D ( 'NONE', #78, #268, #247 ) ;
#222 = UNCERTAINTY_MEASURE_WITH_UNIT (LENGTH_MEASURE( 1.000000000000000082E-05 ), #273, 'distance_accuracy_value', 'NONE');
#223 =( GEOMETRIC_REPRESENTATION_CONTEXT ( 3 ) GLOBAL_UNCERTAINTY_ASSIGNED_CONTEXT ( ( #185 ) ) GLOBAL_UNIT_ASSIGNED_CONTEXT ( ( #64, #277, #299 ) ) REPRESENTATION_CONTEXT ( 'NONE', 'WORKASPACE' ) );
#224 = VERTEX_POINT ( 'NONE', #45 ) ;
#225 = DIRECTION ( 'NONE',  ( 0.0000000000000000000, 0.0000000000000000000, -1.000000000000000000 ) ) ;
#226 = EDGE_CURVE ( 'NONE', #200, #6, #105, .T. ) ;
#227 = DIRECTION ( 'NONE',  ( -1.224646799147353207E-16, -0.0000000000000000000, -1.000000000000000000 ) ) ;
#228 = SURFACE_STYLE_USAGE ( .BOTH. , #20 ) ;
#229 = PRODUCT_DEFINITION ( 'UNKNOWN', '', #240, #106 ) ;
#230 = CARTESIAN_POINT ( 'NONE',  ( 7.654042494670957853E-17, 0.0000000000000000000, 0.6250000000000000000 ) ) ;
#231 = AXIS2_PLACEMENT_3D ( 'NONE', #93, #189, #115 ) ;
#232 = STYLED_ITEM ( 'NONE', ( #211 ), #77 ) ;
#233 = CARTESIAN_POINT ( 'NONE',  ( 0.0000000000000000000, 0.0000000000000000000, 2.000000000000000000 ) ) ;
#234 = SURFACE_SIDE_STYLE ('',( #187 ) ) ;
#235 = AXIS2_PLACEMENT_3D ( 'NONE', #9, #153, #130 ) ;
#236 = LENGTH_MEASURE_WITH_UNIT ( LENGTH_MEASURE( 0.02539999999999999897 ), #210 );
#237 = DIRECTION ( 'NONE',  ( 1.000000000000000000, 0.0000000000000000000, 0.0000000000000000000 ) ) ;
#238 = ORIENTED_EDGE ( 'NONE', *, *, #83, .T. ) ;
#239 = DIRECTION ( 'NONE',  ( -1.000000000000000000, 0.0000000000000000000, 0.0000000000000000000 ) ) ;
#240 = PRODUCT_DEFINITION_FORMATION_WITH_SPECIFIED_SOURCE ( 'ANY', '', #81, .NOT_KNOWN. ) ;
#241 = ORIENTED_EDGE ( 'NONE', *, *, #79, .T. ) ;
#242 = SHAPE_DEFINITION_REPRESENTATION ( #135, #77 ) ;
#243 = ORIENTED_EDGE ( 'NONE', *, *, #262, .T. ) ;
#244 = MANIFOLD_SOLID_BREP ( 'Cut-Revolve1', #148 ) ;
#245 = CYLINDRICAL_SURFACE ( 'NONE', #235, 0.09375000000000001388 ) ;
#246 = CIRCLE ( 'NONE', #116, 0.09375000000000001388 ) ;
#247 = DIRECTION ( 'NONE',  ( 1.000000000000000000, 0.0000000000000000000, -0.0000000000000000000 ) ) ;
#248 = PLANE ( 'NONE',  #136 ) ;
#249 = LINE ( 'NONE', #177, #127 ) ;
#250 =( LENGTH_UNIT ( ) NAMED_UNIT ( * ) SI_UNIT ( $, .METRE. ) );
#251 = AXIS2_PLACEMENT_3D ( 'NONE', #138, #225, #13 ) ;
#252 = CARTESIAN_POINT ( 'NONE',  ( -0.07874999999999980627, 0.0000000000000000000, 2.000000000000000000 ) ) ;
#253 = FILL_AREA_STYLE_COLOUR ( '', #66 ) ;
#254 = FILL_AREA_STYLE_COLOUR ( '', #199 ) ;
#255 = FILL_AREA_STYLE ('',( #253 ) ) ;
#256 = ADVANCED_FACE ( 'NONE', ( #214 ), #173, .T. ) ;
#257 = CARTESIAN_POINT ( 'NONE',  ( -0.09375000000000001388, 0.0000000000000000000, 1.984999999999999654 ) ) ;
#258 = CIRCLE ( 'NONE', #203, 0.09375000000000001388 ) ;
#259 = ORIENTED_EDGE ( 'NONE', *, *, #28, .T. ) ;
#260 = DIRECTION ( 'NONE',  ( 0.0000000000000000000, 0.0000000000000000000, 1.000000000000000000 ) ) ;
#261 = VERTEX_POINT ( 'NONE', #118 ) ;
#262 = EDGE_CURVE ( 'NONE', #219, #261, #62, .T. ) ;
#263 = APPLICATION_PROTOCOL_DEFINITION ( 'draft international standard', 'automotive_design', 1998, #46 ) ;
#264 = ORIENTED_EDGE ( 'NONE', *, *, #69, .F. ) ;
#265 = DIRECTION ( 'NONE',  ( -1.224646799147353207E-16, -0.0000000000000000000, -1.000000000000000000 ) ) ;
#266 = FACE_OUTER_BOUND ( 'NONE', #31, .T. ) ;
#267 = ORIENTED_EDGE ( 'NONE', *, *, #114, .T. ) ;
#268 = DIRECTION ( 'NONE',  ( 0.0000000000000000000, 0.0000000000000000000, 1.000000000000000000 ) ) ;
#269 = CIRCLE ( 'NONE', #275, 0.07874999999999980627 ) ;
#270 = MECHANICAL_DESIGN_GEOMETRIC_PRESENTATION_REPRESENTATION (  '', ( #232 ), #155 ) ;
#271 = DIRECTION ( 'NONE',  ( -1.224646799147353207E-16, -0.0000000000000000000, -1.000000000000000000 ) ) ;
#272 = DIRECTION ( 'NONE',  ( 0.1736481776669313304, 0.0000000000000000000, 0.9848077530122077983 ) ) ;
#273 =( CONVERSION_BASED_UNIT ( 'INCH', #174 ) LENGTH_UNIT ( ) NAMED_UNIT ( #133 ) );
#274 = CARTESIAN_POINT ( 'NONE',  ( 1.404618771449245766E-33, 0.0000000000000000000, 1.146958267826442798E-17 ) ) ;
#275 = AXIS2_PLACEMENT_3D ( 'NONE', #21, #23, #42 ) ;
#276 = DIRECTION ( 'NONE',  ( -1.000000000000000000, 0.0000000000000000000, 0.0000000000000000000 ) ) ;
#277 =( NAMED_UNIT ( * ) PLANE_ANGLE_UNIT ( ) SI_UNIT ( $, .RADIAN. ) );
#278 = CARTESIAN_POINT ( 'NONE',  ( 0.0000000000000000000, 0.0000000000000000000, 1.984999999999999654 ) ) ;
#279 = EDGE_CURVE ( 'NONE', #216, #172, #246, .T. ) ;
#280 = EDGE_LOOP ( 'NONE', ( #74, #175 ) ) ;
#281 = ORIENTED_EDGE ( 'NONE', *, *, #220, .F. ) ;
#282 = DIRECTION ( 'NONE',  ( 1.000000000000000000, 0.0000000000000000000, 0.0000000000000000000 ) ) ;
#283 = ADVANCED_FACE ( 'NONE', ( #266 ), #61, .T. ) ;
#284 = ORIENTED_EDGE ( 'NONE', *, *, #17, .F. ) ;
#285 = AXIS2_PLACEMENT_3D ( 'NONE', #191, #88, #86 ) ;
#286 = ORIENTED_EDGE ( 'NONE', *, *, #279, .T. ) ;
#287 = DIRECTION ( 'NONE',  ( 1.000000000000000000, 0.0000000000000000000, -0.0000000000000000000 ) ) ;
#288 = ORIENTED_EDGE ( 'NONE', *, *, #195, .T. ) ;
#289 = PLANE ( 'NONE',  #221 ) ;
#290 = DIMENSIONAL_EXPONENTS ( 1.000000000000000000, 0.0000000000000000000, 0.0000000000000000000, 0.0000000000000000000, 0.0000000000000000000, 0.0000000000000000000, 0.0000000000000000000 ) ;
#291 = VECTOR ( 'NONE', #142, 39.37007874015748143 ) ;
#292 = DIRECTION ( 'NONE',  ( -0.1736481776669311639, 2.126576849575782392E-17, 0.9848077530122080203 ) ) ;
#293 = LINE ( 'NONE', #252, #291 ) ;
#294 = PRODUCT_RELATED_PRODUCT_CATEGORY ( 'part', '', ( #81 ) ) ;
#295 = CARTESIAN_POINT ( 'NONE',  ( 0.0000000000000000000, 0.0000000000000000000, 2.000000000000000000 ) ) ;
#296 = FACE_OUTER_BOUND ( 'NONE', #159, .T. ) ;
#297 = VECTOR ( 'NONE', #205, 39.37007874015748143 ) ;
#298 =( CONVERSION_BASED_UNIT ( 'INCH', #121 ) LENGTH_UNIT ( ) NAMED_UNIT ( #290 ) );
#299 =( NAMED_UNIT ( * ) SI_UNIT ( $, .STERADIAN. ) SOLID_ANGLE_UNIT ( ) );
ENDSEC;
END-ISO-10303-21;
