ISO-10303-21;
HEADER;
FILE_DESCRIPTION (( 'STEP AP214' ),
    '1' );
FILE_NAME ('59583.STEP',
    '2023-07-24T15:49:35',
    ( '' ),
    ( '' ),
    'SwSTEP 2.0',
    'SolidWorks 2023',
    '' );
FILE_SCHEMA (( 'AUTOMOTIVE_DESIGN' ));
ENDSEC;

DATA;
#1 = ORIENTED_EDGE ( 'NONE', *, *, #2, .F. ) ;
#2 = EDGE_CURVE ( 'NONE', #59, #139, #245, .T. ) ;
#3 = STYLED_ITEM ( 'NONE', ( #23 ), #145 ) ;
#4 =( NAMED_UNIT ( * ) PLANE_ANGLE_UNIT ( ) SI_UNIT ( $, .RADIAN. ) );
#5 = EDGE_LOOP ( 'NONE', ( #239, #179 ) ) ;
#6 = CARTESIAN_POINT ( 'NONE',  ( 5.999999999999999112, 75.00000000000000000, 7.347880794884120722E-16 ) ) ;
#7 = CARTESIAN_POINT ( 'NONE',  ( 0.000000000000000000, 18.00000000000000000, 0.000000000000000000 ) ) ;
#8 =( NAMED_UNIT ( * ) PLANE_ANGLE_UNIT ( ) SI_UNIT ( $, .RADIAN. ) );
#9 = SURFACE_STYLE_USAGE ( .BOTH. , #93 ) ;
#10 = PRODUCT ( '59583', '59583', '', ( #106 ) ) ;
#11 = EDGE_LOOP ( 'NONE', ( #134, #187, #24, #90 ) ) ;
#12 =( GEOMETRIC_REPRESENTATION_CONTEXT ( 3 ) GLOBAL_UNCERTAINTY_ASSIGNED_CONTEXT ( ( #167 ) ) GLOBAL_UNIT_ASSIGNED_CONTEXT ( ( #230, #8, #241 ) ) REPRESENTATION_CONTEXT ( 'NONE', 'WORKASPACE' ) );
#13 = CARTESIAN_POINT ( 'NONE',  ( -1.469576158976823750E-15, 75.00000000000000000, 0.000000000000000000 ) ) ;
#14 = CARTESIAN_POINT ( 'NONE',  ( 0.000000000000000000, 18.00000000000000000, 0.000000000000000000 ) ) ;
#15 = PLANE ( 'NONE',  #212 ) ;
#16 = CARTESIAN_POINT ( 'NONE',  ( -1.469576158976823750E-15, 75.00000000000000000, 0.000000000000000000 ) ) ;
#17 = EDGE_CURVE ( 'NONE', #138, #59, #272, .T. ) ;
#18 = CARTESIAN_POINT ( 'NONE',  ( 0.000000000000000000, 18.00000000000000000, -6.000000000000000000 ) ) ;
#19 = SHAPE_DEFINITION_REPRESENTATION ( #32, #109 ) ;
#20 = VECTOR ( 'NONE', #122, 1000.000000000000000 ) ;
#21 = MECHANICAL_DESIGN_GEOMETRIC_PRESENTATION_REPRESENTATION (  '', ( #249 ), #182 ) ;
#22 = FILL_AREA_STYLE ('',( #266 ) ) ;
#23 = PRESENTATION_STYLE_ASSIGNMENT (( #89 ) ) ;
#24 = ORIENTED_EDGE ( 'NONE', *, *, #37, .T. ) ;
#25 = PRESENTATION_STYLE_ASSIGNMENT (( #185 ) ) ;
#26 = AXIS2_PLACEMENT_3D ( 'NONE', #202, #100, #68 ) ;
#27 = DIRECTION ( 'NONE',  ( -1.000000000000000000, 0.000000000000000000, 0.000000000000000000 ) ) ;
#28 = ORIENTED_EDGE ( 'NONE', *, *, #244, .T. ) ;
#29 = LINE ( 'NONE', #280, #194 ) ;
#30 = CARTESIAN_POINT ( 'NONE',  ( 0.000000000000000000, 18.00000000000000355, 0.000000000000000000 ) ) ;
#31 = CARTESIAN_POINT ( 'NONE',  ( 6.000000000000000000, 75.00000000000000000, 7.347880794884120722E-16 ) ) ;
#32 = PRODUCT_DEFINITION_SHAPE ( 'NONE', 'NONE',  #129 ) ;
#33 = ORIENTED_EDGE ( 'NONE', *, *, #196, .F. ) ;
#34 = FACE_OUTER_BOUND ( 'NONE', #259, .T. ) ;
#35 = CIRCLE ( 'NONE', #64, 6.000000000000000000 ) ;
#36 = DIRECTION ( 'NONE',  ( -2.578203787678638266E-17, 1.000000000000000000, -0.000000000000000000 ) ) ;
#37 = EDGE_CURVE ( 'NONE', #250, #274, #71, .T. ) ;
#38 = DIRECTION ( 'NONE',  ( -2.578203787678638266E-17, 1.000000000000000000, -0.000000000000000000 ) ) ;
#39 = AXIS2_PLACEMENT_3D ( 'NONE', #243, #131, #173 ) ;
#40 = APPLICATION_PROTOCOL_DEFINITION ( 'draft international standard', 'automotive_design', 1998, #264 ) ;
#41 = FILL_AREA_STYLE ('',( #62 ) ) ;
#42 = EDGE_CURVE ( 'NONE', #208, #139, #232, .T. ) ;
#43 = EDGE_LOOP ( 'NONE', ( #119, #146, #177, #1 ) ) ;
#44 =( NAMED_UNIT ( * ) SI_UNIT ( $, .STERADIAN. ) SOLID_ANGLE_UNIT ( ) );
#45 = COLOUR_RGB ( '',1.000000000000000000, 0.000000000000000000, 0.000000000000000000 ) ;
#46 = ORIENTED_EDGE ( 'NONE', *, *, #191, .T. ) ;
#47 = DIRECTION ( 'NONE',  ( -0.000000000000000000, -1.000000000000000000, -0.000000000000000000 ) ) ;
#48 = ORIENTED_EDGE ( 'NONE', *, *, #196, .T. ) ;
#49 =( LENGTH_UNIT ( ) NAMED_UNIT ( * ) SI_UNIT ( .MILLI., .METRE. ) );
#50 = FACE_OUTER_BOUND ( 'NONE', #225, .T. ) ;
#51 = DIRECTION ( 'NONE',  ( 0.000000000000000000, 0.000000000000000000, -1.000000000000000000 ) ) ;
#52 = ADVANCED_FACE ( 'NONE', ( #50 ), #102, .F. ) ;
#53 = DIRECTION ( 'NONE',  ( 0.000000000000000000, 0.000000000000000000, -1.000000000000000000 ) ) ;
#54 = DIRECTION ( 'NONE',  ( -0.000000000000000000, -1.000000000000000000, -0.000000000000000000 ) ) ;
#55 = CARTESIAN_POINT ( 'NONE',  ( 6.000000000000000000, 75.00000000000000000, 0.000000000000000000 ) ) ;
#56 = DIRECTION ( 'NONE',  ( -2.578203787678638266E-17, 1.000000000000000000, -0.000000000000000000 ) ) ;
#57 =( NAMED_UNIT ( * ) SI_UNIT ( $, .STERADIAN. ) SOLID_ANGLE_UNIT ( ) );
#58 = SURFACE_SIDE_STYLE ('',( #164 ) ) ;
#59 = VERTEX_POINT ( 'NONE', #31 ) ;
#60 = DIRECTION ( 'NONE',  ( -1.000000000000000000, 0.000000000000000000, 0.000000000000000000 ) ) ;
#61 = CIRCLE ( 'NONE', #26, 6.000000000000000000 ) ;
#62 = FILL_AREA_STYLE_COLOUR ( '', #288 ) ;
#63 = SURFACE_STYLE_FILL_AREA ( #22 ) ;
#64 = AXIS2_PLACEMENT_3D ( 'NONE', #151, #283, #233 ) ;
#65 = CARTESIAN_POINT ( 'NONE',  ( 0.000000000000000000, 18.00000000000000000, 0.000000000000000000 ) ) ;
#66 = AXIS2_PLACEMENT_3D ( 'NONE', #117, #215, #229 ) ;
#67 = AXIS2_PLACEMENT_3D ( 'NONE', #235, #47, #53 ) ;
#68 = DIRECTION ( 'NONE',  ( 0.000000000000000000, 0.000000000000000000, -1.000000000000000000 ) ) ;
#69 = ORIENTED_EDGE ( 'NONE', *, *, #37, .F. ) ;
#70 = FILL_AREA_STYLE_COLOUR ( '', #257 ) ;
#71 = LINE ( 'NONE', #256, #110 ) ;
#72 = PRODUCT_RELATED_PRODUCT_CATEGORY ( 'part', '', ( #10 ) ) ;
#73 =( NAMED_UNIT ( * ) PLANE_ANGLE_UNIT ( ) SI_UNIT ( $, .RADIAN. ) );
#74 = ORIENTED_EDGE ( 'NONE', *, *, #205, .F. ) ;
#75 = CLOSED_SHELL ( 'NONE', ( #220, #52, #186, #168 ) ) ;
#76 = MECHANICAL_DESIGN_GEOMETRIC_PRESENTATION_REPRESENTATION (  '', ( #92 ), #263 ) ;
#77 =( NAMED_UNIT ( * ) PLANE_ANGLE_UNIT ( ) SI_UNIT ( $, .RADIAN. ) );
#78 = FACE_OUTER_BOUND ( 'NONE', #236, .T. ) ;
#79 = FILL_AREA_STYLE ('',( #189 ) ) ;
#80 = VERTEX_POINT ( 'NONE', #206 ) ;
#81 = AXIS2_PLACEMENT_3D ( 'NONE', #7, #54, #96 ) ;
#82 = CARTESIAN_POINT ( 'NONE',  ( -6.000000000000000000, 18.00000000000000355, 0.000000000000000000 ) ) ;
#83 =( GEOMETRIC_REPRESENTATION_CONTEXT ( 3 ) GLOBAL_UNCERTAINTY_ASSIGNED_CONTEXT ( ( #172 ) ) GLOBAL_UNIT_ASSIGNED_CONTEXT ( ( #157, #73, #161 ) ) REPRESENTATION_CONTEXT ( 'NONE', 'WORKASPACE' ) );
#84 = PRESENTATION_LAYER_ASSIGNMENT (  '', '', ( #3 ) ) ;
#85 = FACE_OUTER_BOUND ( 'NONE', #5, .T. ) ;
#86 = SURFACE_STYLE_USAGE ( .BOTH. , #282 ) ;
#87 = ORIENTED_EDGE ( 'NONE', *, *, #201, .T. ) ;
#88 = CLOSED_SHELL ( 'NONE', ( #246, #133, #145, #180 ) ) ;
#89 = SURFACE_STYLE_USAGE ( .BOTH. , #197 ) ;
#90 = ORIENTED_EDGE ( 'NONE', *, *, #191, .F. ) ;
#91 = FACE_OUTER_BOUND ( 'NONE', #43, .T. ) ;
#92 = STYLED_ITEM ( 'NONE', ( #216 ), #246 ) ;
#93 = SURFACE_SIDE_STYLE ('',( #141 ) ) ;
#94 = EDGE_CURVE ( 'NONE', #250, #190, #222, .T. ) ;
#95 = CARTESIAN_POINT ( 'NONE',  ( 7.347880794884119736E-16, 18.00000000000000000, 6.000000000000000000 ) ) ;
#96 = DIRECTION ( 'NONE',  ( 0.000000000000000000, 0.000000000000000000, -1.000000000000000000 ) ) ;
#97 = FACE_OUTER_BOUND ( 'NONE', #198, .T. ) ;
#98 = VECTOR ( 'NONE', #36, 1000.000000000000000 ) ;
#99 = DIRECTION ( 'NONE',  ( -1.000000000000000000, 0.000000000000000000, 0.000000000000000000 ) ) ;
#100 = DIRECTION ( 'NONE',  ( -0.000000000000000000, -1.000000000000000000, -0.000000000000000000 ) ) ;
#101 = CARTESIAN_POINT ( 'NONE',  ( 0.000000000000000000, 0.000000000000000000, 0.000000000000000000 ) ) ;
#102 = PLANE ( 'NONE',  #66 ) ;
#103 = FILL_AREA_STYLE ('',( #104 ) ) ;
#104 = FILL_AREA_STYLE_COLOUR ( '', #45 ) ;
#105 = AXIS2_PLACEMENT_3D ( 'NONE', #55, #253, #237 ) ;
#106 = PRODUCT_CONTEXT ( 'NONE', #120, 'mechanical' ) ;
#107 = MANIFOLD_SOLID_BREP ( 'Revolve - Cutting Edge', #88 ) ;
#108 = PRODUCT_DEFINITION_FORMATION_WITH_SPECIFIED_SOURCE ( 'ANY', '', #10, .NOT_KNOWN. ) ;
#109 = ADVANCED_BREP_SHAPE_REPRESENTATION ( '59583', ( #107, #200, #39 ), #12 ) ;
#110 = VECTOR ( 'NONE', #126, 1000.000000000000000 ) ;
#111 = PRESENTATION_STYLE_ASSIGNMENT (( #9 ) ) ;
#112 = ORIENTED_EDGE ( 'NONE', *, *, #269, .F. ) ;
#113 = MECHANICAL_DESIGN_GEOMETRIC_PRESENTATION_REPRESENTATION (  '', ( #174 ), #123 ) ;
#114 = AXIS2_PLACEMENT_3D ( 'NONE', #14, #166, #127 ) ;
#115 = PRESENTATION_LAYER_ASSIGNMENT (  '', '', ( #228 ) ) ;
#116 = DIRECTION ( 'NONE',  ( -1.000000000000000000, 0.000000000000000000, 0.000000000000000000 ) ) ;
#117 = CARTESIAN_POINT ( 'NONE',  ( 1.994140431240143121E-33, 18.00000000000000000, 0.000000000000000000 ) ) ;
#118 =( NAMED_UNIT ( * ) SI_UNIT ( $, .STERADIAN. ) SOLID_ANGLE_UNIT ( ) );
#119 = ORIENTED_EDGE ( 'NONE', *, *, #17, .F. ) ;
#120 = APPLICATION_CONTEXT ( 'automotive_design' ) ;
#121 = CYLINDRICAL_SURFACE ( 'NONE', #159, 6.000000000000000888 ) ;
#122 = DIRECTION ( 'NONE',  ( -2.578203787678638266E-17, 1.000000000000000000, -0.000000000000000000 ) ) ;
#123 =( GEOMETRIC_REPRESENTATION_CONTEXT ( 3 ) GLOBAL_UNCERTAINTY_ASSIGNED_CONTEXT ( ( #286 ) ) GLOBAL_UNIT_ASSIGNED_CONTEXT ( ( #211, #142, #162 ) ) REPRESENTATION_CONTEXT ( 'NONE', 'WORKASPACE' ) );
#124 = AXIS2_PLACEMENT_3D ( 'NONE', #30, #207, #27 ) ;
#125 =( LENGTH_UNIT ( ) NAMED_UNIT ( * ) SI_UNIT ( .MILLI., .METRE. ) );
#126 = DIRECTION ( 'NONE',  ( -0.000000000000000000, -1.000000000000000000, -0.000000000000000000 ) ) ;
#127 = DIRECTION ( 'NONE',  ( 0.000000000000000000, 0.000000000000000000, -1.000000000000000000 ) ) ;
#128 = CYLINDRICAL_SURFACE ( 'NONE', #219, 6.000000000000000888 ) ;
#129 = PRODUCT_DEFINITION ( 'UNKNOWN', '', #108, #234 ) ;
#130 = AXIS2_PLACEMENT_3D ( 'NONE', #254, #56, #279 ) ;
#131 = DIRECTION ( 'NONE',  ( 0.000000000000000000, 0.000000000000000000, 1.000000000000000000 ) ) ;
#132 = CIRCLE ( 'NONE', #124, 6.000000000000000000 ) ;
#133 = ADVANCED_FACE ( 'NONE', ( #85 ), #15, .T. ) ;
#134 = ORIENTED_EDGE ( 'NONE', *, *, #201, .F. ) ;
#135 = CYLINDRICAL_SURFACE ( 'NONE', #67, 6.000000000000000000 ) ;
#136 = FACE_OUTER_BOUND ( 'NONE', #11, .T. ) ;
#137 = ORIENTED_EDGE ( 'NONE', *, *, #94, .T. ) ;
#138 = VERTEX_POINT ( 'NONE', #178 ) ;
#139 = VERTEX_POINT ( 'NONE', #252 ) ;
#140 = MECHANICAL_DESIGN_GEOMETRIC_PRESENTATION_REPRESENTATION (  '', ( #228 ), #199 ) ;
#141 = SURFACE_STYLE_FILL_AREA ( #276 ) ;
#142 =( NAMED_UNIT ( * ) PLANE_ANGLE_UNIT ( ) SI_UNIT ( $, .RADIAN. ) );
#143 = DIRECTION ( 'NONE',  ( -0.000000000000000000, -1.000000000000000000, -0.000000000000000000 ) ) ;
#144 = PLANE ( 'NONE',  #105 ) ;
#145 = ADVANCED_FACE ( 'NONE', ( #136 ), #135, .T. ) ;
#146 = ORIENTED_EDGE ( 'NONE', *, *, #205, .T. ) ;
#147 = DIRECTION ( 'NONE',  ( -0.000000000000000000, -1.000000000000000000, -0.000000000000000000 ) ) ;
#148 = PRESENTATION_STYLE_ASSIGNMENT (( #181 ) ) ;
#149 = MECHANICAL_DESIGN_GEOMETRIC_PRESENTATION_REPRESENTATION (  '', ( #238 ), #152 ) ;
#150 = PRESENTATION_LAYER_ASSIGNMENT (  '', '', ( #92 ) ) ;
#151 = CARTESIAN_POINT ( 'NONE',  ( 0.000000000000000000, 18.00000000000000355, 0.000000000000000000 ) ) ;
#152 =( GEOMETRIC_REPRESENTATION_CONTEXT ( 3 ) GLOBAL_UNCERTAINTY_ASSIGNED_CONTEXT ( ( #214 ) ) GLOBAL_UNIT_ASSIGNED_CONTEXT ( ( #251, #4, #44 ) ) REPRESENTATION_CONTEXT ( 'NONE', 'WORKASPACE' ) );
#153 = DIRECTION ( 'NONE',  ( 0.000000000000000000, -0.000000000000000000, 1.000000000000000000 ) ) ;
#154 = SURFACE_STYLE_FILL_AREA ( #192 ) ;
#155 = ORIENTED_EDGE ( 'NONE', *, *, #17, .T. ) ;
#156 = DIRECTION ( 'NONE',  ( 0.000000000000000000, 0.000000000000000000, -1.000000000000000000 ) ) ;
#157 =( LENGTH_UNIT ( ) NAMED_UNIT ( * ) SI_UNIT ( .MILLI., .METRE. ) );
#158 = CARTESIAN_POINT ( 'NONE',  ( -6.000000000000002665, 75.00000000000000000, 0.000000000000000000 ) ) ;
#159 = AXIS2_PLACEMENT_3D ( 'NONE', #13, #184, #116 ) ;
#160 = CARTESIAN_POINT ( 'NONE',  ( 0.000000000000000000, 0.000000000000000000, 0.000000000000000000 ) ) ;
#161 =( NAMED_UNIT ( * ) SI_UNIT ( $, .STERADIAN. ) SOLID_ANGLE_UNIT ( ) );
#162 =( NAMED_UNIT ( * ) SI_UNIT ( $, .STERADIAN. ) SOLID_ANGLE_UNIT ( ) );
#163 = SURFACE_SIDE_STYLE ('',( #170 ) ) ;
#164 = SURFACE_STYLE_FILL_AREA ( #79 ) ;
#165 = ORIENTED_EDGE ( 'NONE', *, *, #42, .F. ) ;
#166 = DIRECTION ( 'NONE',  ( -0.000000000000000000, -1.000000000000000000, -0.000000000000000000 ) ) ;
#167 = UNCERTAINTY_MEASURE_WITH_UNIT (LENGTH_MEASURE( 1.000000000000000082E-05 ), #230, 'distance_accuracy_value', 'NONE');
#168 = ADVANCED_FACE ( 'NONE', ( #97 ), #144, .F. ) ;
#169 = AXIS2_PLACEMENT_3D ( 'NONE', #101, #143, #51 ) ;
#170 = SURFACE_STYLE_FILL_AREA ( #103 ) ;
#171 = SURFACE_STYLE_FILL_AREA ( #41 ) ;
#172 = UNCERTAINTY_MEASURE_WITH_UNIT (LENGTH_MEASURE( 1.000000000000000082E-05 ), #157, 'distance_accuracy_value', 'NONE');
#173 = DIRECTION ( 'NONE',  ( 1.000000000000000000, 0.000000000000000000, 0.000000000000000000 ) ) ;
#174 = STYLED_ITEM ( 'NONE', ( #25 ), #107 ) ;
#175 = EDGE_LOOP ( 'NONE', ( #28, #46 ) ) ;
#176 = CIRCLE ( 'NONE', #114, 6.000000000000000000 ) ;
#177 = ORIENTED_EDGE ( 'NONE', *, *, #42, .T. ) ;
#178 = CARTESIAN_POINT ( 'NONE',  ( 6.000000000000000000, 18.00000000000000355, 7.347880794884120722E-16 ) ) ;
#179 = ORIENTED_EDGE ( 'NONE', *, *, #277, .F. ) ;
#180 = ADVANCED_FACE ( 'NONE', ( #273 ), #255, .T. ) ;
#181 = SURFACE_STYLE_USAGE ( .BOTH. , #58 ) ;
#182 =( GEOMETRIC_REPRESENTATION_CONTEXT ( 3 ) GLOBAL_UNCERTAINTY_ASSIGNED_CONTEXT ( ( #281 ) ) GLOBAL_UNIT_ASSIGNED_CONTEXT ( ( #209, #278, #118 ) ) REPRESENTATION_CONTEXT ( 'NONE', 'WORKASPACE' ) );
#183 = ORIENTED_EDGE ( 'NONE', *, *, #244, .F. ) ;
#184 = DIRECTION ( 'NONE',  ( -2.578203787678638266E-17, 1.000000000000000000, -0.000000000000000000 ) ) ;
#185 = SURFACE_STYLE_USAGE ( .BOTH. , #227 ) ;
#186 = ADVANCED_FACE ( 'NONE', ( #91 ), #121, .T. ) ;
#187 = ORIENTED_EDGE ( 'NONE', *, *, #277, .T. ) ;
#188 = DIRECTION ( 'NONE',  ( -0.000000000000000000, -1.000000000000000000, -0.000000000000000000 ) ) ;
#189 = FILL_AREA_STYLE_COLOUR ( '', #284 ) ;
#190 = VERTEX_POINT ( 'NONE', #95 ) ;
#191 = EDGE_CURVE ( 'NONE', #80, #274, #61, .T. ) ;
#192 = FILL_AREA_STYLE ('',( #204 ) ) ;
#193 = DIRECTION ( 'NONE',  ( -2.578203787678638266E-17, 1.000000000000000000, -0.000000000000000000 ) ) ;
#194 = VECTOR ( 'NONE', #188, 1000.000000000000000 ) ;
#195 = UNCERTAINTY_MEASURE_WITH_UNIT (LENGTH_MEASURE( 1.000000000000000082E-05 ), #49, 'distance_accuracy_value', 'NONE');
#196 = EDGE_CURVE ( 'NONE', #208, #138, #132, .T. ) ;
#197 = SURFACE_SIDE_STYLE ('',( #63 ) ) ;
#198 = EDGE_LOOP ( 'NONE', ( #270, #260 ) ) ;
#199 =( GEOMETRIC_REPRESENTATION_CONTEXT ( 3 ) GLOBAL_UNCERTAINTY_ASSIGNED_CONTEXT ( ( #195 ) ) GLOBAL_UNIT_ASSIGNED_CONTEXT ( ( #49, #77, #275 ) ) REPRESENTATION_CONTEXT ( 'NONE', 'WORKASPACE' ) );
#200 = MANIFOLD_SOLID_BREP ( 'Revolve - Tool Body (Straight Shanked)', #75 ) ;
#201 = EDGE_CURVE ( 'NONE', #190, #80, #29, .T. ) ;
#202 = CARTESIAN_POINT ( 'NONE',  ( 0.000000000000000000, 0.000000000000000000, 0.000000000000000000 ) ) ;
#203 = MECHANICAL_DESIGN_GEOMETRIC_PRESENTATION_REPRESENTATION (  '', ( #3 ), #83 ) ;
#204 = FILL_AREA_STYLE_COLOUR ( '', #247 ) ;
#205 = EDGE_CURVE ( 'NONE', #138, #208, #35, .T. ) ;
#206 = CARTESIAN_POINT ( 'NONE',  ( 7.347880794884119736E-16, 0.000000000000000000, 6.000000000000000000 ) ) ;
#207 = DIRECTION ( 'NONE',  ( -2.578203787678638266E-17, 1.000000000000000000, -0.000000000000000000 ) ) ;
#208 = VERTEX_POINT ( 'NONE', #82 ) ;
#209 =( LENGTH_UNIT ( ) NAMED_UNIT ( * ) SI_UNIT ( .MILLI., .METRE. ) );
#210 = PRESENTATION_LAYER_ASSIGNMENT (  '', '', ( #174 ) ) ;
#211 =( LENGTH_UNIT ( ) NAMED_UNIT ( * ) SI_UNIT ( .MILLI., .METRE. ) );
#212 = AXIS2_PLACEMENT_3D ( 'NONE', #65, #221, #153 ) ;
#213 = CYLINDRICAL_SURFACE ( 'NONE', #169, 6.000000000000000000 ) ;
#214 = UNCERTAINTY_MEASURE_WITH_UNIT (LENGTH_MEASURE( 1.000000000000000082E-05 ), #251, 'distance_accuracy_value', 'NONE');
#215 = DIRECTION ( 'NONE',  ( -2.578203787678638266E-17, 1.000000000000000000, 0.000000000000000000 ) ) ;
#216 = PRESENTATION_STYLE_ASSIGNMENT (( #258 ) ) ;
#217 = AXIS2_PLACEMENT_3D ( 'NONE', #226, #231, #271 ) ;
#218 = APPLICATION_PROTOCOL_DEFINITION ( 'draft international standard', 'automotive_design', 1998, #120 ) ;
#219 = AXIS2_PLACEMENT_3D ( 'NONE', #16, #193, #99 ) ;
#220 = ADVANCED_FACE ( 'NONE', ( #34 ), #128, .T. ) ;
#221 = DIRECTION ( 'NONE',  ( 0.000000000000000000, 1.000000000000000000, 0.000000000000000000 ) ) ;
#222 = CIRCLE ( 'NONE', #81, 6.000000000000000000 ) ;
#223 = AXIS2_PLACEMENT_3D ( 'NONE', #160, #147, #156 ) ;
#224 = PRESENTATION_STYLE_ASSIGNMENT (( #86 ) ) ;
#225 = EDGE_LOOP ( 'NONE', ( #33, #74 ) ) ;
#226 = CARTESIAN_POINT ( 'NONE',  ( 0.000000000000000000, 0.000000000000000000, 0.000000000000000000 ) ) ;
#227 = SURFACE_SIDE_STYLE ('',( #154 ) ) ;
#228 = STYLED_ITEM ( 'NONE', ( #148 ), #200 ) ;
#229 = DIRECTION ( 'NONE',  ( -1.000000000000000000, -2.578203787678638266E-17, 0.000000000000000000 ) ) ;
#230 =( LENGTH_UNIT ( ) NAMED_UNIT ( * ) SI_UNIT ( .MILLI., .METRE. ) );
#231 = DIRECTION ( 'NONE',  ( 0.000000000000000000, -1.000000000000000000, -0.000000000000000000 ) ) ;
#232 = LINE ( 'NONE', #158, #20 ) ;
#233 = DIRECTION ( 'NONE',  ( -1.000000000000000000, 0.000000000000000000, 0.000000000000000000 ) ) ;
#234 = PRODUCT_DEFINITION_CONTEXT ( 'detailed design', #264, 'design' ) ;
#235 = CARTESIAN_POINT ( 'NONE',  ( 0.000000000000000000, 0.000000000000000000, 0.000000000000000000 ) ) ;
#236 = EDGE_LOOP ( 'NONE', ( #137, #87, #183, #69 ) ) ;
#237 = DIRECTION ( 'NONE',  ( 1.000000000000000000, 2.578203787678638266E-17, 0.000000000000000000 ) ) ;
#238 = STYLED_ITEM ( 'NONE', ( #224 ), #133 ) ;
#239 = ORIENTED_EDGE ( 'NONE', *, *, #94, .F. ) ;
#240 = CIRCLE ( 'NONE', #248, 6.000000000000001776 ) ;
#241 =( NAMED_UNIT ( * ) SI_UNIT ( $, .STERADIAN. ) SOLID_ANGLE_UNIT ( ) );
#242 = CARTESIAN_POINT ( 'NONE',  ( -1.469576158976823750E-15, 75.00000000000000000, 0.000000000000000000 ) ) ;
#243 = CARTESIAN_POINT ( 'NONE',  ( 0.000000000000000000, 0.000000000000000000, 0.000000000000000000 ) ) ;
#244 = EDGE_CURVE ( 'NONE', #274, #80, #268, .T. ) ;
#245 = CIRCLE ( 'NONE', #130, 6.000000000000001776 ) ;
#246 = ADVANCED_FACE ( 'NONE', ( #78 ), #213, .T. ) ;
#247 = COLOUR_RGB ( '',0.7921568627450980005, 0.8196078431372548767, 0.9333333333333333481 ) ;
#248 = AXIS2_PLACEMENT_3D ( 'NONE', #242, #38, #60 ) ;
#249 = STYLED_ITEM ( 'NONE', ( #111 ), #180 ) ;
#250 = VERTEX_POINT ( 'NONE', #18 ) ;
#251 =( LENGTH_UNIT ( ) NAMED_UNIT ( * ) SI_UNIT ( .MILLI., .METRE. ) );
#252 = CARTESIAN_POINT ( 'NONE',  ( -6.000000000000003553, 75.00000000000000000, 0.000000000000000000 ) ) ;
#253 = DIRECTION ( 'NONE',  ( 2.578203787678638266E-17, -1.000000000000000000, 0.000000000000000000 ) ) ;
#254 = CARTESIAN_POINT ( 'NONE',  ( -1.469576158976823750E-15, 75.00000000000000000, 0.000000000000000000 ) ) ;
#255 = PLANE ( 'NONE',  #217 ) ;
#256 = CARTESIAN_POINT ( 'NONE',  ( 0.000000000000000000, 0.000000000000000000, -6.000000000000000000 ) ) ;
#257 = COLOUR_RGB ( '',1.000000000000000000, 0.000000000000000000, 0.000000000000000000 ) ;
#258 = SURFACE_STYLE_USAGE ( .BOTH. , #163 ) ;
#259 = EDGE_LOOP ( 'NONE', ( #48, #155, #112, #165 ) ) ;
#260 = ORIENTED_EDGE ( 'NONE', *, *, #2, .T. ) ;
#261 = PRESENTATION_LAYER_ASSIGNMENT (  '', '', ( #249 ) ) ;
#262 =( NAMED_UNIT ( * ) PLANE_ANGLE_UNIT ( ) SI_UNIT ( $, .RADIAN. ) );
#263 =( GEOMETRIC_REPRESENTATION_CONTEXT ( 3 ) GLOBAL_UNCERTAINTY_ASSIGNED_CONTEXT ( ( #287 ) ) GLOBAL_UNIT_ASSIGNED_CONTEXT ( ( #125, #262, #57 ) ) REPRESENTATION_CONTEXT ( 'NONE', 'WORKASPACE' ) );
#264 = APPLICATION_CONTEXT ( 'automotive_design' ) ;
#265 = COLOUR_RGB ( '',1.000000000000000000, 0.000000000000000000, 0.000000000000000000 ) ;
#266 = FILL_AREA_STYLE_COLOUR ( '', #265 ) ;
#267 = PRESENTATION_LAYER_ASSIGNMENT (  '', '', ( #238 ) ) ;
#268 = CIRCLE ( 'NONE', #223, 6.000000000000000000 ) ;
#269 = EDGE_CURVE ( 'NONE', #139, #59, #240, .T. ) ;
#270 = ORIENTED_EDGE ( 'NONE', *, *, #269, .T. ) ;
#271 = DIRECTION ( 'NONE',  ( 0.000000000000000000, 0.000000000000000000, -1.000000000000000000 ) ) ;
#272 = LINE ( 'NONE', #6, #98 ) ;
#273 = FACE_OUTER_BOUND ( 'NONE', #175, .T. ) ;
#274 = VERTEX_POINT ( 'NONE', #285 ) ;
#275 =( NAMED_UNIT ( * ) SI_UNIT ( $, .STERADIAN. ) SOLID_ANGLE_UNIT ( ) );
#276 = FILL_AREA_STYLE ('',( #70 ) ) ;
#277 = EDGE_CURVE ( 'NONE', #190, #250, #176, .T. ) ;
#278 =( NAMED_UNIT ( * ) PLANE_ANGLE_UNIT ( ) SI_UNIT ( $, .RADIAN. ) );
#279 = DIRECTION ( 'NONE',  ( -1.000000000000000000, 0.000000000000000000, 0.000000000000000000 ) ) ;
#280 = CARTESIAN_POINT ( 'NONE',  ( 7.347880794884119736E-16, 0.000000000000000000, 6.000000000000000000 ) ) ;
#281 = UNCERTAINTY_MEASURE_WITH_UNIT (LENGTH_MEASURE( 1.000000000000000082E-05 ), #209, 'distance_accuracy_value', 'NONE');
#282 = SURFACE_SIDE_STYLE ('',( #171 ) ) ;
#283 = DIRECTION ( 'NONE',  ( -2.578203787678638266E-17, 1.000000000000000000, -0.000000000000000000 ) ) ;
#284 = COLOUR_RGB ( '',0.7921568627450980005, 0.8196078431372548767, 0.9333333333333333481 ) ;
#285 = CARTESIAN_POINT ( 'NONE',  ( 0.000000000000000000, 0.000000000000000000, -6.000000000000000000 ) ) ;
#286 = UNCERTAINTY_MEASURE_WITH_UNIT (LENGTH_MEASURE( 1.000000000000000082E-05 ), #211, 'distance_accuracy_value', 'NONE');
#287 = UNCERTAINTY_MEASURE_WITH_UNIT (LENGTH_MEASURE( 1.000000000000000082E-05 ), #125, 'distance_accuracy_value', 'NONE');
#288 = COLOUR_RGB ( '',1.000000000000000000, 0.000000000000000000, 0.000000000000000000 ) ;
ENDSEC;
END-ISO-10303-21;
