ISO-10303-21;
HEADER;
FILE_DESCRIPTION (( 'STEP AP214' ),
    '1' );
FILE_NAME ('Micro_DM-187-4120X.STEP',
    '2021-09-02T16:00:07',
    ( '' ),
    ( '' ),
    'SwSTEP 2.0',
    'SolidWorks 2020',
    '' );
FILE_SCHEMA (( 'AUTOMOTIVE_DESIGN' ));
ENDSEC;

DATA;
#1 = DIRECTION ( 'NONE',  ( -1.000000000000000000, 0.0000000000000000000, 0.0000000000000000000 ) ) ;
#2 = AXIS2_PLACEMENT_3D ( 'NONE', #145, #242, #23 ) ;
#3 = DIMENSIONAL_EXPONENTS ( 1.000000000000000000, 0.0000000000000000000, 0.0000000000000000000, 0.0000000000000000000, 0.0000000000000000000, 0.0000000000000000000, 0.0000000000000000000 ) ;
#4 = DIRECTION ( 'NONE',  ( 1.000000000000000000, 0.0000000000000000000, -0.0000000000000000000 ) ) ;
#5 = CARTESIAN_POINT ( 'NONE',  ( 0.0000000000000000000, 0.0000000000000000000, 0.0000000000000000000 ) ) ;
#6 = ORIENTED_EDGE ( 'NONE', *, *, #35, .T. ) ;
#7 = VECTOR ( 'NONE', #256, 39.37007874015748143 ) ;
#8 = CARTESIAN_POINT ( 'NONE',  ( 0.0000000000000000000, 0.0000000000000000000, 0.0000000000000000000 ) ) ;
#9 =( LENGTH_UNIT ( ) NAMED_UNIT ( * ) SI_UNIT ( $, .METRE. ) );
#10 = EDGE_CURVE ( 'NONE', #322, #42, #142, .T. ) ;
#11 = ADVANCED_FACE ( 'NONE', ( #119, #68 ), #233, .T. ) ;
#12 = DIRECTION ( 'NONE',  ( 1.000000000000000000, 0.0000000000000000000, 0.0000000000000000000 ) ) ;
#13 = CIRCLE ( 'NONE', #193, 0.09370000000000001938 ) ;
#14 = ADVANCED_FACE ( 'NONE', ( #243 ), #25, .T. ) ;
#15 = CARTESIAN_POINT ( 'NONE',  ( 0.0000000000000000000, 0.0000000000000000000, 1.984999999999999654 ) ) ;
#16 = DIRECTION ( 'NONE',  ( 1.000000000000000000, 0.0000000000000000000, 0.0000000000000000000 ) ) ;
#17 = EDGE_LOOP ( 'NONE', ( #195, #65, #48, #137 ) ) ;
#18 = CARTESIAN_POINT ( 'NONE',  ( -0.07874999999999980627, 0.0000000000000000000, 2.000000000000000000 ) ) ;
#19 = ORIENTED_EDGE ( 'NONE', *, *, #71, .F. ) ;
#20 = PRODUCT_DEFINITION_FORMATION_WITH_SPECIFIED_SOURCE ( 'ANY', '', #198, .NOT_KNOWN. ) ;
#21 = DIRECTION ( 'NONE',  ( -1.000000000000000000, 0.0000000000000000000, 0.0000000000000000000 ) ) ;
#22 = CARTESIAN_POINT ( 'NONE',  ( -0.007499999999999999722, 9.184850993605147975E-19, 1.707404996040164512E-17 ) ) ;
#23 = DIRECTION ( 'NONE',  ( -1.000000000000000000, 0.0000000000000000000, 0.0000000000000000000 ) ) ;
#24 = DIRECTION ( 'NONE',  ( 0.0000000000000000000, 0.0000000000000000000, -1.000000000000000000 ) ) ;
#25 = CONICAL_SURFACE ( 'NONE', #150, 0.07874999999999980627, 0.7853981633974466137 ) ;
#26 = DIMENSIONAL_EXPONENTS ( 1.000000000000000000, 0.0000000000000000000, 0.0000000000000000000, 0.0000000000000000000, 0.0000000000000000000, 0.0000000000000000000, 0.0000000000000000000 ) ;
#27 = AXIS2_PLACEMENT_3D ( 'NONE', #154, #125, #46 ) ;
#28 = CARTESIAN_POINT ( 'NONE',  ( 0.0000000000000000000, 0.0000000000000000000, 0.6250000000000000000 ) ) ;
#29 = CIRCLE ( 'NONE', #132, 0.09370000000000001938 ) ;
#30 = AXIS2_PLACEMENT_3D ( 'NONE', #301, #78, #106 ) ;
#31 = SURFACE_STYLE_FILL_AREA ( #85 ) ;
#32 = EDGE_CURVE ( 'NONE', #166, #104, #268, .T. ) ;
#33 = CONICAL_SURFACE ( 'NONE', #53, 0.007499999999999999722, 1.047197551196600518 ) ;
#34 = LINE ( 'NONE', #319, #7 ) ;
#35 = EDGE_CURVE ( 'NONE', #270, #42, #29, .T. ) ;
#36 = ORIENTED_EDGE ( 'NONE', *, *, #10, .T. ) ;
#37 = DIRECTION ( 'NONE',  ( 1.000000000000000000, 0.0000000000000000000, 0.0000000000000000000 ) ) ;
#38 = VERTEX_POINT ( 'NONE', #90 ) ;
#39 = DIRECTION ( 'NONE',  ( -0.0000000000000000000, -0.0000000000000000000, -1.000000000000000000 ) ) ;
#40 = VERTEX_POINT ( 'NONE', #167 ) ;
#41 =( CONVERSION_BASED_UNIT ( 'INCH', #171 ) LENGTH_UNIT ( ) NAMED_UNIT ( #26 ) );
#42 = VERTEX_POINT ( 'NONE', #288 ) ;
#43 = EDGE_CURVE ( 'NONE', #300, #166, #148, .T. ) ;
#44 = FACE_OUTER_BOUND ( 'NONE', #17, .T. ) ;
#45 = ADVANCED_FACE ( 'NONE', ( #44 ), #98, .T. ) ;
#46 = DIRECTION ( 'NONE',  ( -1.000000000000000000, 0.0000000000000000000, 0.0000000000000000000 ) ) ;
#47 = AXIS2_PLACEMENT_3D ( 'NONE', #8, #183, #60 ) ;
#48 = ORIENTED_EDGE ( 'NONE', *, *, #203, .F. ) ;
#49 = CYLINDRICAL_SURFACE ( 'NONE', #27, 0.09375000000000001388 ) ;
#50 = ADVANCED_BREP_SHAPE_REPRESENTATION ( 'Micro_DM-187-4120X', ( #103, #228 ), #152 ) ;
#51 = DIRECTION ( 'NONE',  ( 0.0000000000000000000, 0.0000000000000000000, 1.000000000000000000 ) ) ;
#52 =( GEOMETRIC_REPRESENTATION_CONTEXT ( 3 ) GLOBAL_UNCERTAINTY_ASSIGNED_CONTEXT ( ( #54 ) ) GLOBAL_UNIT_ASSIGNED_CONTEXT ( ( #41, #247, #92 ) ) REPRESENTATION_CONTEXT ( 'NONE', 'WORKASPACE' ) );
#53 = AXIS2_PLACEMENT_3D ( 'NONE', #280, #231, #83 ) ;
#54 = UNCERTAINTY_MEASURE_WITH_UNIT (LENGTH_MEASURE( 1.000000000000000082E-05 ), #41, 'distance_accuracy_value', 'NONE');
#55 = APPLICATION_PROTOCOL_DEFINITION ( 'draft international standard', 'automotive_design', 1998, #290 ) ;
#56 = FILL_AREA_STYLE_COLOUR ( '', #210 ) ;
#57 = CARTESIAN_POINT ( 'NONE',  ( 0.07874999999999980627, 1.056257864264590573E-17, 2.000000000000000000 ) ) ;
#58 = DIRECTION ( 'NONE',  ( -0.7071067811865463515, 0.0000000000000000000, -0.7071067811865486830 ) ) ;
#59 = PRODUCT_RELATED_PRODUCT_CATEGORY ( 'part', '', ( #198 ) ) ;
#60 = DIRECTION ( 'NONE',  ( -1.000000000000000000, 0.0000000000000000000, 0.0000000000000000000 ) ) ;
#61 = ORIENTED_EDGE ( 'NONE', *, *, #329, .F. ) ;
#62 = FACE_OUTER_BOUND ( 'NONE', #192, .T. ) ;
#63 = EDGE_LOOP ( 'NONE', ( #324, #75, #102, #326 ) ) ;
#64 = CARTESIAN_POINT ( 'NONE',  ( 0.07874999999999980627, 9.644093543285380530E-18, 2.000000000000000000 ) ) ;
#65 = ORIENTED_EDGE ( 'NONE', *, *, #329, .T. ) ;
#66 = PRODUCT_DEFINITION ( 'UNKNOWN', '', #20, #312 ) ;
#67 = CARTESIAN_POINT ( 'NONE',  ( 0.0000000000000000000, 0.0000000000000000000, 0.04976759320414544940 ) ) ;
#68 = FACE_OUTER_BOUND ( 'NONE', #252, .T. ) ;
#69 = DIRECTION ( 'NONE',  ( -0.0000000000000000000, -0.0000000000000000000, -1.000000000000000000 ) ) ;
#70 = ORIENTED_EDGE ( 'NONE', *, *, #251, .F. ) ;
#71 = EDGE_CURVE ( 'NONE', #40, #270, #245, .T. ) ;
#72 = CARTESIAN_POINT ( 'NONE',  ( 0.007499999999999999722, 0.0000000000000000000, 1.707404996040164512E-17 ) ) ;
#73 = PRESENTATION_LAYER_ASSIGNMENT (  '', '', ( #297 ) ) ;
#74 = CARTESIAN_POINT ( 'NONE',  ( -0.09370000000000008877, 0.0000000000000000000, 0.6250000000000000000 ) ) ;
#75 = ORIENTED_EDGE ( 'NONE', *, *, #105, .T. ) ;
#76 = DIMENSIONAL_EXPONENTS ( 1.000000000000000000, 0.0000000000000000000, 0.0000000000000000000, 0.0000000000000000000, 0.0000000000000000000, 0.0000000000000000000, 0.0000000000000000000 ) ;
#77 = DIRECTION ( 'NONE',  ( 0.0000000000000000000, 0.0000000000000000000, 1.000000000000000000 ) ) ;
#78 = DIRECTION ( 'NONE',  ( 0.0000000000000000000, 0.0000000000000000000, 1.000000000000000000 ) ) ;
#79 = EDGE_LOOP ( 'NONE', ( #202, #109, #318, #170 ) ) ;
#80 = COLOUR_RGB ( '',0.7921568627450980005, 0.8196078431372548767, 0.9333333333333333481 ) ;
#81 = FACE_OUTER_BOUND ( 'NONE', #261, .T. ) ;
#82 = LENGTH_MEASURE_WITH_UNIT ( LENGTH_MEASURE( 0.02539999999999999897 ), #9 );
#83 = DIRECTION ( 'NONE',  ( 1.000000000000000000, 0.0000000000000000000, 0.0000000000000000000 ) ) ;
#84 = CARTESIAN_POINT ( 'NONE',  ( 0.0000000000000000000, 0.0000000000000000000, 0.04976759320414544940 ) ) ;
#85 = FILL_AREA_STYLE ('',( #56 ) ) ;
#86 = DIRECTION ( 'NONE',  ( 0.0000000000000000000, 0.0000000000000000000, 1.000000000000000000 ) ) ;
#87 = VERTEX_POINT ( 'NONE', #196 ) ;
#88 = AXIS2_PLACEMENT_3D ( 'NONE', #182, #281, #208 ) ;
#89 = CIRCLE ( 'NONE', #129, 0.007499999999999999722 ) ;
#90 = CARTESIAN_POINT ( 'NONE',  ( -0.07874999999999980627, 0.0000000000000000000, 2.000000000000000000 ) ) ;
#91 = ORIENTED_EDGE ( 'NONE', *, *, #43, .T. ) ;
#92 =( NAMED_UNIT ( * ) SI_UNIT ( $, .STERADIAN. ) SOLID_ANGLE_UNIT ( ) );
#93 = VERTEX_POINT ( 'NONE', #191 ) ;
#94 = EDGE_CURVE ( 'NONE', #322, #40, #89, .T. ) ;
#95 = CARTESIAN_POINT ( 'NONE',  ( 0.0000000000000000000, 0.0000000000000000000, 2.000000000000000000 ) ) ;
#96 = EDGE_LOOP ( 'NONE', ( #272, #236, #259, #205 ) ) ;
#97 = CONICAL_SURFACE ( 'NONE', #172, 0.007499999999999999722, 1.047197551196600518 ) ;
#98 = CYLINDRICAL_SURFACE ( 'NONE', #320, 0.09375000000000001388 ) ;
#99 = DIRECTION ( 'NONE',  ( -0.0000000000000000000, -0.0000000000000000000, -1.000000000000000000 ) ) ;
#100 = PLANE ( 'NONE',  #130 ) ;
#101 = VECTOR ( 'NONE', #307, 39.37007874015748143 ) ;
#102 = ORIENTED_EDGE ( 'NONE', *, *, #179, .T. ) ;
#103 = MANIFOLD_SOLID_BREP ( 'Cut-Revolve4', #144 ) ;
#104 = VERTEX_POINT ( 'NONE', #289 ) ;
#105 = EDGE_CURVE ( 'NONE', #111, #163, #321, .T. ) ;
#106 = DIRECTION ( 'NONE',  ( 1.000000000000000000, 0.0000000000000000000, 0.0000000000000000000 ) ) ;
#107 =( CONVERSION_BASED_UNIT ( 'INCH', #82 ) LENGTH_UNIT ( ) NAMED_UNIT ( #76 ) );
#108 = CARTESIAN_POINT ( 'NONE',  ( -0.007499999999999999722, 6.196712803685608298E-18, 1.707404996040164512E-17 ) ) ;
#109 = ORIENTED_EDGE ( 'NONE', *, *, #147, .F. ) ;
#110 = LENGTH_MEASURE_WITH_UNIT ( LENGTH_MEASURE( 0.02539999999999999897 ), #257 );
#111 = VERTEX_POINT ( 'NONE', #295 ) ;
#112 = DIRECTION ( 'NONE',  ( -0.0000000000000000000, -0.0000000000000000000, -1.000000000000000000 ) ) ;
#113 = MECHANICAL_DESIGN_GEOMETRIC_PRESENTATION_REPRESENTATION (  '', ( #297 ), #52 ) ;
#114 = ORIENTED_EDGE ( 'NONE', *, *, #248, .F. ) ;
#115 = STYLED_ITEM ( 'NONE', ( #282 ), #50 ) ;
#116 = AXIS2_PLACEMENT_3D ( 'NONE', #250, #128, #227 ) ;
#117 = UNCERTAINTY_MEASURE_WITH_UNIT (LENGTH_MEASURE( 1.000000000000000082E-05 ), #107, 'distance_accuracy_value', 'NONE');
#118 = DIRECTION ( 'NONE',  ( 0.8660254037844400399, 0.0000000000000000000, 0.4999999999999976685 ) ) ;
#119 = FACE_BOUND ( 'NONE', #238, .T. ) ;
#120 = ORIENTED_EDGE ( 'NONE', *, *, #10, .F. ) ;
#121 = CONICAL_SURFACE ( 'NONE', #292, 0.07874999999999980627, 0.7853981633974466137 ) ;
#122 = CIRCLE ( 'NONE', #30, 0.07874999999999980627 ) ;
#123 = LINE ( 'NONE', #240, #239 ) ;
#124 = DIRECTION ( 'NONE',  ( 1.000000000000000000, 0.0000000000000000000, 0.0000000000000000000 ) ) ;
#125 = DIRECTION ( 'NONE',  ( -0.0000000000000000000, -0.0000000000000000000, -1.000000000000000000 ) ) ;
#126 = PLANE ( 'NONE',  #269 ) ;
#127 = EDGE_CURVE ( 'NONE', #104, #93, #123, .T. ) ;
#128 = DIRECTION ( 'NONE',  ( -0.0000000000000000000, -0.0000000000000000000, -1.000000000000000000 ) ) ;
#129 = AXIS2_PLACEMENT_3D ( 'NONE', #223, #69, #267 ) ;
#130 = AXIS2_PLACEMENT_3D ( 'NONE', #200, #226, #4 ) ;
#131 = FACE_OUTER_BOUND ( 'NONE', #63, .T. ) ;
#132 = AXIS2_PLACEMENT_3D ( 'NONE', #67, #197, #325 ) ;
#133 = VECTOR ( 'NONE', #58, 39.37007874015748143 ) ;
#134 = ORIENTED_EDGE ( 'NONE', *, *, #136, .T. ) ;
#135 = CARTESIAN_POINT ( 'NONE',  ( 0.0000000000000000000, 0.0000000000000000000, 1.984999999999999654 ) ) ;
#136 = EDGE_CURVE ( 'NONE', #87, #93, #140, .T. ) ;
#137 = ORIENTED_EDGE ( 'NONE', *, *, #127, .F. ) ;
#138 = DIRECTION ( 'NONE',  ( -0.0000000000000000000, -0.0000000000000000000, -1.000000000000000000 ) ) ;
#139 = EDGE_LOOP ( 'NONE', ( #284, #91, #114, #70 ) ) ;
#140 = CIRCLE ( 'NONE', #2, 0.09375000000000001388 ) ;
#141 = DIRECTION ( 'NONE',  ( -1.000000000000000000, 0.0000000000000000000, 0.0000000000000000000 ) ) ;
#142 = LINE ( 'NONE', #22, #162 ) ;
#143 = CIRCLE ( 'NONE', #263, 0.09375000000000001388 ) ;
#144 = CLOSED_SHELL ( 'NONE', ( #244, #315, #160, #45, #206, #207, #14, #11, #253, #311, #158 ) ) ;
#145 = CARTESIAN_POINT ( 'NONE',  ( 0.0000000000000000000, 0.0000000000000000000, 0.6250000000000000000 ) ) ;
#146 = DIRECTION ( 'NONE',  ( -1.000000000000000000, 0.0000000000000000000, 0.0000000000000000000 ) ) ;
#147 = EDGE_CURVE ( 'NONE', #38, #300, #122, .T. ) ;
#148 = LINE ( 'NONE', #64, #187 ) ;
#149 = AXIS2_PLACEMENT_3D ( 'NONE', #214, #112, #185 ) ;
#150 = AXIS2_PLACEMENT_3D ( 'NONE', #213, #24, #294 ) ;
#151 = FACE_OUTER_BOUND ( 'NONE', #218, .T. ) ;
#152 =( GEOMETRIC_REPRESENTATION_CONTEXT ( 3 ) GLOBAL_UNCERTAINTY_ASSIGNED_CONTEXT ( ( #117 ) ) GLOBAL_UNIT_ASSIGNED_CONTEXT ( ( #107, #181, #209 ) ) REPRESENTATION_CONTEXT ( 'NONE', 'WORKASPACE' ) );
#153 = ORIENTED_EDGE ( 'NONE', *, *, #276, .T. ) ;
#154 = CARTESIAN_POINT ( 'NONE',  ( 0.0000000000000000000, 0.0000000000000000000, 2.000000000000000000 ) ) ;
#155 = AXIS2_PLACEMENT_3D ( 'NONE', #168, #265, #146 ) ;
#156 = CARTESIAN_POINT ( 'NONE',  ( 0.0000000000000000000, 0.0000000000000000000, 0.0000000000000000000 ) ) ;
#157 = EDGE_CURVE ( 'NONE', #163, #111, #306, .T. ) ;
#158 = ADVANCED_FACE ( 'NONE', ( #81 ), #126, .F. ) ;
#159 = FACE_OUTER_BOUND ( 'NONE', #96, .T. ) ;
#160 = ADVANCED_FACE ( 'NONE', ( #224 ), #121, .T. ) ;
#161 = APPLICATION_CONTEXT ( 'automotive_design' ) ;
#162 = VECTOR ( 'NONE', #291, 39.37007874015748143 ) ;
#163 = VERTEX_POINT ( 'NONE', #74 ) ;
#164 = CYLINDRICAL_SURFACE ( 'NONE', #149, 0.09370000000000004714 ) ;
#165 = ORIENTED_EDGE ( 'NONE', *, *, #235, .T. ) ;
#166 = VERTEX_POINT ( 'NONE', #271 ) ;
#167 = CARTESIAN_POINT ( 'NONE',  ( 0.007499999999999999722, 0.0000000000000000000, 1.707404996040164512E-17 ) ) ;
#168 = CARTESIAN_POINT ( 'NONE',  ( 0.09370000000000008877, 0.0000000000000000000, 0.6250000000000000000 ) ) ;
#169 = PRESENTATION_STYLE_ASSIGNMENT (( #293 ) ) ;
#170 = ORIENTED_EDGE ( 'NONE', *, *, #32, .F. ) ;
#171 = LENGTH_MEASURE_WITH_UNIT ( LENGTH_MEASURE( 0.02539999999999999897 ), #222 );
#172 = AXIS2_PLACEMENT_3D ( 'NONE', #260, #234, #37 ) ;
#173 = AXIS2_PLACEMENT_3D ( 'NONE', #189, #99, #141 ) ;
#174 = DIRECTION ( 'NONE',  ( -0.0000000000000000000, -0.0000000000000000000, -1.000000000000000000 ) ) ;
#175 = ORIENTED_EDGE ( 'NONE', *, *, #203, .T. ) ;
#176 = DIRECTION ( 'NONE',  ( 0.0000000000000000000, 0.0000000000000000000, -1.000000000000000000 ) ) ;
#177 = ORIENTED_EDGE ( 'NONE', *, *, #94, .F. ) ;
#178 = DIRECTION ( 'NONE',  ( -1.000000000000000000, 0.0000000000000000000, 0.0000000000000000000 ) ) ;
#179 = EDGE_CURVE ( 'NONE', #163, #42, #275, .T. ) ;
#180 = PRODUCT_DEFINITION_SHAPE ( 'NONE', 'NONE',  #66 ) ;
#181 =( NAMED_UNIT ( * ) PLANE_ANGLE_UNIT ( ) SI_UNIT ( $, .RADIAN. ) );
#182 = CARTESIAN_POINT ( 'NONE',  ( 0.0000000000000000000, 0.0000000000000000000, 1.707404996040164512E-17 ) ) ;
#183 = DIRECTION ( 'NONE',  ( -0.0000000000000000000, -0.0000000000000000000, -1.000000000000000000 ) ) ;
#184 = ORIENTED_EDGE ( 'NONE', *, *, #147, .T. ) ;
#185 = DIRECTION ( 'NONE',  ( -1.000000000000000000, 0.0000000000000000000, 0.0000000000000000000 ) ) ;
#186 = PRESENTATION_LAYER_ASSIGNMENT (  '', '', ( #115 ) ) ;
#187 = VECTOR ( 'NONE', #220, 39.37007874015748143 ) ;
#188 = ORIENTED_EDGE ( 'NONE', *, *, #276, .F. ) ;
#189 = CARTESIAN_POINT ( 'NONE',  ( 0.0000000000000000000, 0.0000000000000000000, 0.6250000000000000000 ) ) ;
#190 = ORIENTED_EDGE ( 'NONE', *, *, #32, .T. ) ;
#191 = CARTESIAN_POINT ( 'NONE',  ( -0.09375000000000001388, 0.0000000000000000000, 0.6250000000000000000 ) ) ;
#192 = EDGE_LOOP ( 'NONE', ( #120, #188, #302, #6 ) ) ;
#193 = AXIS2_PLACEMENT_3D ( 'NONE', #84, #138, #237 ) ;
#194 = FILL_AREA_STYLE ('',( #264 ) ) ;
#195 = ORIENTED_EDGE ( 'NONE', *, *, #248, .T. ) ;
#196 = CARTESIAN_POINT ( 'NONE',  ( 0.09375000000000001388, 1.148106374200643863E-17, 0.6250000000000000000 ) ) ;
#197 = DIRECTION ( 'NONE',  ( -0.0000000000000000000, -0.0000000000000000000, -1.000000000000000000 ) ) ;
#198 = PRODUCT ( 'Micro_DM-187-4120X', 'Micro_DM-187-4120X', '', ( #304 ) ) ;
#199 = CIRCLE ( 'NONE', #232, 0.09375000000000001388 ) ;
#200 = CARTESIAN_POINT ( 'NONE',  ( 0.0000000000000000000, 0.0000000000000000000, 2.000000000000000000 ) ) ;
#201 = SHAPE_DEFINITION_REPRESENTATION ( #180, #50 ) ;
#202 = ORIENTED_EDGE ( 'NONE', *, *, #43, .F. ) ;
#203 = EDGE_CURVE ( 'NONE', #93, #87, #143, .T. ) ;
#204 = CARTESIAN_POINT ( 'NONE',  ( 0.0000000000000000000, 0.0000000000000000000, 2.000000000000000000 ) ) ;
#205 = ORIENTED_EDGE ( 'NONE', *, *, #179, .F. ) ;
#206 = ADVANCED_FACE ( 'NONE', ( #305 ), #49, .T. ) ;
#207 = ADVANCED_FACE ( 'NONE', ( #151 ), #100, .T. ) ;
#208 = DIRECTION ( 'NONE',  ( -1.000000000000000000, 0.0000000000000000000, 0.0000000000000000000 ) ) ;
#209 =( NAMED_UNIT ( * ) SI_UNIT ( $, .STERADIAN. ) SOLID_ANGLE_UNIT ( ) );
#210 = COLOUR_RGB ( '',0.7921568627450980005, 0.8196078431372548767, 0.9333333333333333481 ) ;
#211 = CARTESIAN_POINT ( 'NONE',  ( 0.09375000000000001388, 1.148106374200643863E-17, 2.000000000000000000 ) ) ;
#212 = SURFACE_STYLE_USAGE ( .BOTH. , #314 ) ;
#213 = CARTESIAN_POINT ( 'NONE',  ( 0.0000000000000000000, 0.0000000000000000000, 2.000000000000000000 ) ) ;
#214 = CARTESIAN_POINT ( 'NONE',  ( 0.0000000000000000000, 0.0000000000000000000, 0.0000000000000000000 ) ) ;
#215 =( CONVERSION_BASED_UNIT ( 'INCH', #110 ) LENGTH_UNIT ( ) NAMED_UNIT ( #3 ) );
#216 = ORIENTED_EDGE ( 'NONE', *, *, #127, .T. ) ;
#217 = CARTESIAN_POINT ( 'NONE',  ( 0.09370000000000003326, 0.0000000000000000000, 0.04976759320414544940 ) ) ;
#218 = EDGE_LOOP ( 'NONE', ( #184, #165 ) ) ;
#219 = ORIENTED_EDGE ( 'NONE', *, *, #258, .T. ) ;
#220 = DIRECTION ( 'NONE',  ( 0.7071067811865463515, 8.659560562354916834E-17, -0.7071067811865486830 ) ) ;
#221 = EDGE_LOOP ( 'NONE', ( #177, #36, #219, #19 ) ) ;
#222 =( LENGTH_UNIT ( ) NAMED_UNIT ( * ) SI_UNIT ( $, .METRE. ) );
#223 = CARTESIAN_POINT ( 'NONE',  ( 0.0000000000000000000, 0.0000000000000000000, 1.707404996040164512E-17 ) ) ;
#224 = FACE_OUTER_BOUND ( 'NONE', #139, .T. ) ;
#225 =( GEOMETRIC_REPRESENTATION_CONTEXT ( 3 ) GLOBAL_UNCERTAINTY_ASSIGNED_CONTEXT ( ( #279 ) ) GLOBAL_UNIT_ASSIGNED_CONTEXT ( ( #215, #310, #277 ) ) REPRESENTATION_CONTEXT ( 'NONE', 'WORKASPACE' ) );
#226 = DIRECTION ( 'NONE',  ( 0.0000000000000000000, 0.0000000000000000000, 1.000000000000000000 ) ) ;
#227 = DIRECTION ( 'NONE',  ( -1.000000000000000000, 0.0000000000000000000, 0.0000000000000000000 ) ) ;
#228 = AXIS2_PLACEMENT_3D ( 'NONE', #156, #51, #12 ) ;
#229 = VECTOR ( 'NONE', #118, 39.37007874015748143 ) ;
#230 = FACE_OUTER_BOUND ( 'NONE', #221, .T. ) ;
#231 = DIRECTION ( 'NONE',  ( 0.0000000000000000000, 0.0000000000000000000, 1.000000000000000000 ) ) ;
#232 = AXIS2_PLACEMENT_3D ( 'NONE', #135, #285, #16 ) ;
#233 = PLANE ( 'NONE',  #155 ) ;
#234 = DIRECTION ( 'NONE',  ( 0.0000000000000000000, 0.0000000000000000000, 1.000000000000000000 ) ) ;
#235 = EDGE_CURVE ( 'NONE', #300, #38, #286, .T. ) ;
#236 = ORIENTED_EDGE ( 'NONE', *, *, #246, .T. ) ;
#237 = DIRECTION ( 'NONE',  ( -1.000000000000000000, 0.0000000000000000000, 0.0000000000000000000 ) ) ;
#238 = EDGE_LOOP ( 'NONE', ( #266, #241 ) ) ;
#239 = VECTOR ( 'NONE', #323, 39.37007874015748143 ) ;
#240 = CARTESIAN_POINT ( 'NONE',  ( -0.09375000000000001388, 0.0000000000000000000, 2.000000000000000000 ) ) ;
#241 = ORIENTED_EDGE ( 'NONE', *, *, #105, .F. ) ;
#242 = DIRECTION ( 'NONE',  ( -0.0000000000000000000, -0.0000000000000000000, -1.000000000000000000 ) ) ;
#243 = FACE_OUTER_BOUND ( 'NONE', #79, .T. ) ;
#244 = ADVANCED_FACE ( 'NONE', ( #159 ), #164, .T. ) ;
#245 = LINE ( 'NONE', #72, #229 ) ;
#246 = EDGE_CURVE ( 'NONE', #111, #270, #34, .T. ) ;
#247 =( NAMED_UNIT ( * ) PLANE_ANGLE_UNIT ( ) SI_UNIT ( $, .RADIAN. ) );
#248 = EDGE_CURVE ( 'NONE', #104, #166, #199, .T. ) ;
#249 = DIRECTION ( 'NONE',  ( -0.0000000000000000000, -0.0000000000000000000, -1.000000000000000000 ) ) ;
#250 = CARTESIAN_POINT ( 'NONE',  ( 0.0000000000000000000, 0.0000000000000000000, 0.6250000000000000000 ) ) ;
#251 = EDGE_CURVE ( 'NONE', #38, #104, #313, .T. ) ;
#252 = EDGE_LOOP ( 'NONE', ( #175, #134 ) ) ;
#253 = ADVANCED_FACE ( 'NONE', ( #62 ), #97, .T. ) ;
#254 = CARTESIAN_POINT ( 'NONE',  ( -0.09370000000000004714, 0.0000000000000000000, 0.0000000000000000000 ) ) ;
#255 = APPLICATION_PROTOCOL_DEFINITION ( 'draft international standard', 'automotive_design', 1998, #161 ) ;
#256 = DIRECTION ( 'NONE',  ( -0.0000000000000000000, -0.0000000000000000000, -1.000000000000000000 ) ) ;
#257 =( LENGTH_UNIT ( ) NAMED_UNIT ( * ) SI_UNIT ( $, .METRE. ) );
#258 = EDGE_CURVE ( 'NONE', #42, #270, #13, .T. ) ;
#259 = ORIENTED_EDGE ( 'NONE', *, *, #258, .F. ) ;
#260 = CARTESIAN_POINT ( 'NONE',  ( 0.0000000000000000000, 0.0000000000000000000, 1.707404996040164512E-17 ) ) ;
#261 = EDGE_LOOP ( 'NONE', ( #153, #262 ) ) ;
#262 = ORIENTED_EDGE ( 'NONE', *, *, #94, .T. ) ;
#263 = AXIS2_PLACEMENT_3D ( 'NONE', #28, #249, #1 ) ;
#264 = FILL_AREA_STYLE_COLOUR ( '', #80 ) ;
#265 = DIRECTION ( 'NONE',  ( -0.0000000000000000000, 0.0000000000000000000, -1.000000000000000000 ) ) ;
#266 = ORIENTED_EDGE ( 'NONE', *, *, #157, .F. ) ;
#267 = DIRECTION ( 'NONE',  ( -1.000000000000000000, 0.0000000000000000000, 0.0000000000000000000 ) ) ;
#268 = CIRCLE ( 'NONE', #278, 0.09375000000000001388 ) ;
#269 = AXIS2_PLACEMENT_3D ( 'NONE', #5, #77, #298 ) ;
#270 = VERTEX_POINT ( 'NONE', #217 ) ;
#271 = CARTESIAN_POINT ( 'NONE',  ( 0.09375000000000001388, 1.148106374200643863E-17, 1.984999999999999654 ) ) ;
#272 = ORIENTED_EDGE ( 'NONE', *, *, #157, .T. ) ;
#273 = MECHANICAL_DESIGN_GEOMETRIC_PRESENTATION_REPRESENTATION (  '', ( #115 ), #225 ) ;
#274 = ORIENTED_EDGE ( 'NONE', *, *, #136, .F. ) ;
#275 = LINE ( 'NONE', #254, #327 ) ;
#276 = EDGE_CURVE ( 'NONE', #40, #322, #309, .T. ) ;
#277 =( NAMED_UNIT ( * ) SI_UNIT ( $, .STERADIAN. ) SOLID_ANGLE_UNIT ( ) );
#278 = AXIS2_PLACEMENT_3D ( 'NONE', #15, #316, #124 ) ;
#279 = UNCERTAINTY_MEASURE_WITH_UNIT (LENGTH_MEASURE( 1.000000000000000082E-05 ), #215, 'distance_accuracy_value', 'NONE');
#280 = CARTESIAN_POINT ( 'NONE',  ( 0.0000000000000000000, 0.0000000000000000000, 1.707404996040164512E-17 ) ) ;
#281 = DIRECTION ( 'NONE',  ( -0.0000000000000000000, -0.0000000000000000000, -1.000000000000000000 ) ) ;
#282 = PRESENTATION_STYLE_ASSIGNMENT (( #212 ) ) ;
#283 = LINE ( 'NONE', #211, #101 ) ;
#284 = ORIENTED_EDGE ( 'NONE', *, *, #235, .F. ) ;
#285 = DIRECTION ( 'NONE',  ( 0.0000000000000000000, 0.0000000000000000000, -1.000000000000000000 ) ) ;
#286 = CIRCLE ( 'NONE', #303, 0.07874999999999980627 ) ;
#287 = EDGE_LOOP ( 'NONE', ( #61, #190, #216, #274 ) ) ;
#288 = CARTESIAN_POINT ( 'NONE',  ( -0.09370000000000003326, 1.147494050801070064E-17, 0.04976759320414544940 ) ) ;
#289 = CARTESIAN_POINT ( 'NONE',  ( -0.09375000000000001388, 0.0000000000000000000, 1.984999999999999654 ) ) ;
#290 = APPLICATION_CONTEXT ( 'automotive_design' ) ;
#291 = DIRECTION ( 'NONE',  ( -0.8660254037844400399, 1.060575238724908640E-16, 0.4999999999999976685 ) ) ;
#292 = AXIS2_PLACEMENT_3D ( 'NONE', #204, #176, #178 ) ;
#293 = SURFACE_STYLE_USAGE ( .BOTH. , #328 ) ;
#294 = DIRECTION ( 'NONE',  ( -1.000000000000000000, 0.0000000000000000000, 0.0000000000000000000 ) ) ;
#295 = CARTESIAN_POINT ( 'NONE',  ( 0.09370000000000008877, 1.147494050801071143E-17, 0.6250000000000000000 ) ) ;
#296 = SURFACE_STYLE_FILL_AREA ( #194 ) ;
#297 = STYLED_ITEM ( 'NONE', ( #169 ), #103 ) ;
#298 = DIRECTION ( 'NONE',  ( 1.000000000000000000, 0.0000000000000000000, -0.0000000000000000000 ) ) ;
#299 = CARTESIAN_POINT ( 'NONE',  ( 0.0000000000000000000, 0.0000000000000000000, 2.000000000000000000 ) ) ;
#300 = VERTEX_POINT ( 'NONE', #57 ) ;
#301 = CARTESIAN_POINT ( 'NONE',  ( 0.0000000000000000000, 0.0000000000000000000, 2.000000000000000000 ) ) ;
#302 = ORIENTED_EDGE ( 'NONE', *, *, #71, .T. ) ;
#303 = AXIS2_PLACEMENT_3D ( 'NONE', #299, #86, #317 ) ;
#304 = PRODUCT_CONTEXT ( 'NONE', #161, 'mechanical' ) ;
#305 = FACE_OUTER_BOUND ( 'NONE', #287, .T. ) ;
#306 = CIRCLE ( 'NONE', #116, 0.09370000000000008877 ) ;
#307 = DIRECTION ( 'NONE',  ( -0.0000000000000000000, -0.0000000000000000000, -1.000000000000000000 ) ) ;
#308 = CYLINDRICAL_SURFACE ( 'NONE', #47, 0.09370000000000004714 ) ;
#309 = CIRCLE ( 'NONE', #88, 0.007499999999999999722 ) ;
#310 =( NAMED_UNIT ( * ) PLANE_ANGLE_UNIT ( ) SI_UNIT ( $, .RADIAN. ) );
#311 = ADVANCED_FACE ( 'NONE', ( #131 ), #308, .T. ) ;
#312 = PRODUCT_DEFINITION_CONTEXT ( 'detailed design', #290, 'design' ) ;
#313 = LINE ( 'NONE', #18, #133 ) ;
#314 = SURFACE_SIDE_STYLE ('',( #31 ) ) ;
#315 = ADVANCED_FACE ( 'NONE', ( #230 ), #33, .T. ) ;
#316 = DIRECTION ( 'NONE',  ( 0.0000000000000000000, 0.0000000000000000000, -1.000000000000000000 ) ) ;
#317 = DIRECTION ( 'NONE',  ( 1.000000000000000000, 0.0000000000000000000, 0.0000000000000000000 ) ) ;
#318 = ORIENTED_EDGE ( 'NONE', *, *, #251, .T. ) ;
#319 = CARTESIAN_POINT ( 'NONE',  ( 0.09370000000000004714, 1.147494050801070527E-17, 0.0000000000000000000 ) ) ;
#320 = AXIS2_PLACEMENT_3D ( 'NONE', #95, #39, #21 ) ;
#321 = CIRCLE ( 'NONE', #173, 0.09370000000000008877 ) ;
#322 = VERTEX_POINT ( 'NONE', #108 ) ;
#323 = DIRECTION ( 'NONE',  ( -0.0000000000000000000, -0.0000000000000000000, -1.000000000000000000 ) ) ;
#324 = ORIENTED_EDGE ( 'NONE', *, *, #246, .F. ) ;
#325 = DIRECTION ( 'NONE',  ( -1.000000000000000000, 0.0000000000000000000, 0.0000000000000000000 ) ) ;
#326 = ORIENTED_EDGE ( 'NONE', *, *, #35, .F. ) ;
#327 = VECTOR ( 'NONE', #174, 39.37007874015748143 ) ;
#328 = SURFACE_SIDE_STYLE ('',( #296 ) ) ;
#329 = EDGE_CURVE ( 'NONE', #166, #87, #283, .T. ) ;
ENDSEC;
END-ISO-10303-21;
