ISO-10303-21;
HEADER;
FILE_DESCRIPTION (( 'STEP AP214' ),
    '1' );
FILE_NAME ('Micro_SEM-171-04X.STEP',
    '2021-09-02T02:01:51',
    ( '' ),
    ( '' ),
    'SwSTEP 2.0',
    'SolidWorks 2020',
    '' );
FILE_SCHEMA (( 'AUTOMOTIVE_DESIGN' ));
ENDSEC;

DATA;
#1 = CARTESIAN_POINT ( 'NONE',  ( -0.09375000000000001388, 0.0000000000000000000, 1.500000000000000222 ) ) ;
#2 = FILL_AREA_STYLE ('',( #271 ) ) ;
#3 = DIRECTION ( 'NONE',  ( -1.000000000000000000, 0.0000000000000000000, 1.224646799147353454E-16 ) ) ;
#4 = PRESENTATION_STYLE_ASSIGNMENT (( #167 ) ) ;
#5 = CARTESIAN_POINT ( 'NONE',  ( 4.380848717343942177E-17, 0.0000000000000000000, 0.3577234448654141308 ) ) ;
#6 = CARTESIAN_POINT ( 'NONE',  ( -0.08586404999999995569, 1.099818857071963371E-17, 0.3130000000000000004 ) ) ;
#7 =( NAMED_UNIT ( * ) PLANE_ANGLE_UNIT ( ) SI_UNIT ( $, .RADIAN. ) );
#8 = DIRECTION ( 'NONE',  ( -0.7071067811865531239, 0.0000000000000000000, -0.7071067811865419106 ) ) ;
#9 = DIRECTION ( 'NONE',  ( 1.000000000000000000, 0.0000000000000000000, 0.0000000000000000000 ) ) ;
#10 = CARTESIAN_POINT ( 'NONE',  ( 3.833144481331216295E-17, 0.0000000000000000000, 0.3130000000000000004 ) ) ;
#11 = MECHANICAL_DESIGN_GEOMETRIC_PRESENTATION_REPRESENTATION (  '', ( #278 ), #46 ) ;
#12 = MANIFOLD_SOLID_BREP ( 'Cut-Revolve1', #26 ) ;
#13 = EDGE_CURVE ( 'NONE', #224, #117, #252, .T. ) ;
#14 = ORIENTED_EDGE ( 'NONE', *, *, #54, .T. ) ;
#15 = DIRECTION ( 'NONE',  ( -1.224646799147353454E-16, -0.0000000000000000000, -1.000000000000000000 ) ) ;
#16 = AXIS2_PLACEMENT_3D ( 'NONE', #89, #231, #163 ) ;
#17 = VERTEX_POINT ( 'NONE', #180 ) ;
#18 = DIRECTION ( 'NONE',  ( -1.224646799147353454E-16, -0.0000000000000000000, -1.000000000000000000 ) ) ;
#19 = ORIENTED_EDGE ( 'NONE', *, *, #210, .F. ) ;
#20 = PLANE ( 'NONE',  #102 ) ;
#21 = ORIENTED_EDGE ( 'NONE', *, *, #214, .T. ) ;
#22 = DIRECTION ( 'NONE',  ( 1.000000000000000000, 0.0000000000000000000, 0.0000000000000000000 ) ) ;
#23 = PRODUCT_DEFINITION_CONTEXT ( 'detailed design', #262, 'design' ) ;
#24 = VECTOR ( 'NONE', #69, 39.37007874015748143 ) ;
#25 = ORIENTED_EDGE ( 'NONE', *, *, #116, .F. ) ;
#26 = CLOSED_SHELL ( 'NONE', ( #280, #259, #182, #122, #159, #40, #266, #289, #282, #253 ) ) ;
#27 = AXIS2_PLACEMENT_3D ( 'NONE', #73, #168, #283 ) ;
#28 = CARTESIAN_POINT ( 'NONE',  ( 0.0000000000000000000, 0.0000000000000000000, 0.0000000000000000000 ) ) ;
#29 = DIRECTION ( 'NONE',  ( -1.224646799147353454E-16, -0.0000000000000000000, -1.000000000000000000 ) ) ;
#30 = EDGE_CURVE ( 'NONE', #117, #36, #211, .T. ) ;
#31 = AXIS2_PLACEMENT_3D ( 'NONE', #10, #286, #77 ) ;
#32 = ORIENTED_EDGE ( 'NONE', *, *, #214, .F. ) ;
#33 = DIRECTION ( 'NONE',  ( -1.224646799147353454E-16, -0.0000000000000000000, -1.000000000000000000 ) ) ;
#34 = FILL_AREA_STYLE_COLOUR ( '', #258 ) ;
#35 = EDGE_CURVE ( 'NONE', #244, #17, #49, .T. ) ;
#36 = VERTEX_POINT ( 'NONE', #100 ) ;
#37 = CARTESIAN_POINT ( 'NONE',  ( -0.09374999999999995837, 0.0000000000000000000, 0.3577234448654141308 ) ) ;
#38 =( GEOMETRIC_REPRESENTATION_CONTEXT ( 3 ) GLOBAL_UNCERTAINTY_ASSIGNED_CONTEXT ( ( #137 ) ) GLOBAL_UNIT_ASSIGNED_CONTEXT ( ( #85, #196, #232 ) ) REPRESENTATION_CONTEXT ( 'NONE', 'WORKASPACE' ) );
#39 = ORIENTED_EDGE ( 'NONE', *, *, #104, .F. ) ;
#40 = ADVANCED_FACE ( 'NONE', ( #143 ), #281, .T. ) ;
#41 = FACE_OUTER_BOUND ( 'NONE', #109, .T. ) ;
#42 = ORIENTED_EDGE ( 'NONE', *, *, #80, .T. ) ;
#43 = DIRECTION ( 'NONE',  ( 1.000000000000000000, 0.0000000000000000000, 0.0000000000000000000 ) ) ;
#44 = ORIENTED_EDGE ( 'NONE', *, *, #125, .T. ) ;
#45 = CARTESIAN_POINT ( 'NONE',  ( 4.380848717343942177E-17, 0.0000000000000000000, 0.3577234448654141308 ) ) ;
#46 =( GEOMETRIC_REPRESENTATION_CONTEXT ( 3 ) GLOBAL_UNCERTAINTY_ASSIGNED_CONTEXT ( ( #207 ) ) GLOBAL_UNIT_ASSIGNED_CONTEXT ( ( #146, #7, #52 ) ) REPRESENTATION_CONTEXT ( 'NONE', 'WORKASPACE' ) );
#47 = EDGE_CURVE ( 'NONE', #224, #160, #287, .T. ) ;
#48 = LINE ( 'NONE', #234, #161 ) ;
#49 = CIRCLE ( 'NONE', #220, 0.09375000000000001388 ) ;
#50 = APPLICATION_PROTOCOL_DEFINITION ( 'draft international standard', 'automotive_design', 1998, #262 ) ;
#51 = CARTESIAN_POINT ( 'NONE',  ( -0.09375000000000001388, 0.0000000000000000000, 1.485000000000000986 ) ) ;
#52 =( NAMED_UNIT ( * ) SI_UNIT ( $, .STERADIAN. ) SOLID_ANGLE_UNIT ( ) );
#53 = AXIS2_PLACEMENT_3D ( 'NONE', #227, #33, #3 ) ;
#54 = EDGE_CURVE ( 'NONE', #36, #17, #48, .T. ) ;
#55 = CONICAL_SURFACE ( 'NONE', #16, 0.07875000000000061118, 0.7853981633974562726 ) ;
#56 = ORIENTED_EDGE ( 'NONE', *, *, #54, .F. ) ;
#57 = DIRECTION ( 'NONE',  ( -1.000000000000000000, 0.0000000000000000000, 0.0000000000000000000 ) ) ;
#58 = ORIENTED_EDGE ( 'NONE', *, *, #47, .F. ) ;
#59 = DIRECTION ( 'NONE',  ( 1.224646799147353454E-16, 0.0000000000000000000, 1.000000000000000000 ) ) ;
#60 = ORIENTED_EDGE ( 'NONE', *, *, #171, .F. ) ;
#61 = CARTESIAN_POINT ( 'NONE',  ( -0.08586404999999999732, 0.0000000000000000000, 2.103062679886566373E-17 ) ) ;
#62 = DIRECTION ( 'NONE',  ( -1.224646799147353454E-16, -0.0000000000000000000, -1.000000000000000000 ) ) ;
#63 = VECTOR ( 'NONE', #121, 39.37007874015748143 ) ;
#64 = PRODUCT_RELATED_PRODUCT_CATEGORY ( 'part', '', ( #96 ) ) ;
#65 = EDGE_LOOP ( 'NONE', ( #82, #42 ) ) ;
#66 = DIRECTION ( 'NONE',  ( -1.224646799147353454E-16, -0.0000000000000000000, -1.000000000000000000 ) ) ;
#67 = CARTESIAN_POINT ( 'NONE',  ( 0.08586404999999998344, 1.051531339943282878E-17, -1.051531339943283032E-17 ) ) ;
#68 = VERTEX_POINT ( 'NONE', #6 ) ;
#69 = DIRECTION ( 'NONE',  ( -1.224646799147353454E-16, -0.0000000000000000000, -1.000000000000000000 ) ) ;
#70 = AXIS2_PLACEMENT_3D ( 'NONE', #248, #15, #202 ) ;
#71 =( CONVERSION_BASED_UNIT ( 'INCH', #275 ) LENGTH_UNIT ( ) NAMED_UNIT ( #175 ) );
#72 = PRODUCT_CONTEXT ( 'NONE', #148, 'mechanical' ) ;
#73 = CARTESIAN_POINT ( 'NONE',  ( 1.287754489664669484E-33, 0.0000000000000000000, 1.051531339943283186E-17 ) ) ;
#74 = CARTESIAN_POINT ( 'NONE',  ( 0.0000000000000000000, 0.0000000000000000000, 1.485000000000000986 ) ) ;
#75 = DIRECTION ( 'NONE',  ( 1.224646799147353454E-16, 0.0000000000000000000, 1.000000000000000000 ) ) ;
#76 = MECHANICAL_DESIGN_GEOMETRIC_PRESENTATION_REPRESENTATION (  '', ( #270 ), #123 ) ;
#77 = DIRECTION ( 'NONE',  ( -1.000000000000000000, 0.0000000000000000000, 0.0000000000000000000 ) ) ;
#78 = DIRECTION ( 'NONE',  ( 1.000000000000000000, 0.0000000000000000000, 0.0000000000000000000 ) ) ;
#79 = CONICAL_SURFACE ( 'NONE', #288, 0.08586404999999998344, 0.1745329251994339192 ) ;
#80 = EDGE_CURVE ( 'NONE', #221, #217, #141, .T. ) ;
#81 = DIMENSIONAL_EXPONENTS ( 1.000000000000000000, 0.0000000000000000000, 0.0000000000000000000, 0.0000000000000000000, 0.0000000000000000000, 0.0000000000000000000, 0.0000000000000000000 ) ;
#82 = ORIENTED_EDGE ( 'NONE', *, *, #194, .T. ) ;
#83 = DIRECTION ( 'NONE',  ( 1.000000000000000000, 0.0000000000000000000, -0.0000000000000000000 ) ) ;
#84 = PRODUCT_DEFINITION_FORMATION_WITH_SPECIFIED_SOURCE ( 'ANY', '', #96, .NOT_KNOWN. ) ;
#85 =( CONVERSION_BASED_UNIT ( 'INCH', #126 ) LENGTH_UNIT ( ) NAMED_UNIT ( #81 ) );
#86 = ORIENTED_EDGE ( 'NONE', *, *, #30, .T. ) ;
#87 = CARTESIAN_POINT ( 'NONE',  ( 0.07875000000000061118, 1.056257864264595965E-17, 1.500000000000000222 ) ) ;
#88 = CARTESIAN_POINT ( 'NONE',  ( 3.833144481331216295E-17, 0.0000000000000000000, 0.3130000000000000004 ) ) ;
#89 = CARTESIAN_POINT ( 'NONE',  ( 0.0000000000000000000, 0.0000000000000000000, 1.500000000000000222 ) ) ;
#90 = ORIENTED_EDGE ( 'NONE', *, *, #13, .F. ) ;
#91 = FACE_OUTER_BOUND ( 'NONE', #203, .T. ) ;
#92 = ORIENTED_EDGE ( 'NONE', *, *, #149, .T. ) ;
#93 = LINE ( 'NONE', #165, #24 ) ;
#94 = UNCERTAINTY_MEASURE_WITH_UNIT (LENGTH_MEASURE( 1.000000000000000082E-05 ), #71, 'distance_accuracy_value', 'NONE');
#95 = DIRECTION ( 'NONE',  ( 1.000000000000000000, 0.0000000000000000000, -0.0000000000000000000 ) ) ;
#96 = PRODUCT ( 'Micro_SEM-171-04X', 'Micro_SEM-171-04X', '', ( #72 ) ) ;
#97 = DIRECTION ( 'NONE',  ( 0.0000000000000000000, 0.0000000000000000000, 1.000000000000000000 ) ) ;
#98 = EDGE_CURVE ( 'NONE', #36, #117, #153, .T. ) ;
#99 = DIRECTION ( 'NONE',  ( 0.0000000000000000000, 0.0000000000000000000, -1.000000000000000000 ) ) ;
#100 = CARTESIAN_POINT ( 'NONE',  ( 0.09375000000000001388, 1.148106374200643401E-17, 1.485000000000000986 ) ) ;
#101 = FACE_OUTER_BOUND ( 'NONE', #299, .T. ) ;
#102 = AXIS2_PLACEMENT_3D ( 'NONE', #179, #200, #83 ) ;
#103 = SHAPE_DEFINITION_REPRESENTATION ( #189, #151 ) ;
#104 = EDGE_CURVE ( 'NONE', #160, #224, #215, .T. ) ;
#105 = LINE ( 'NONE', #1, #190 ) ;
#106 = ORIENTED_EDGE ( 'NONE', *, *, #98, .T. ) ;
#107 = DIRECTION ( 'NONE',  ( -0.1736481776669312194, 2.126576849575783625E-17, 0.9848077530122080203 ) ) ;
#108 = CONICAL_SURFACE ( 'NONE', #142, 0.07875000000000061118, 0.7853981633974562726 ) ;
#109 = EDGE_LOOP ( 'NONE', ( #56, #106, #44, #32 ) ) ;
#110 = CARTESIAN_POINT ( 'NONE',  ( 0.08586405000000002508, 0.0000000000000000000, 0.3130000000000000004 ) ) ;
#111 = ORIENTED_EDGE ( 'NONE', *, *, #30, .F. ) ;
#112 = FACE_OUTER_BOUND ( 'NONE', #183, .T. ) ;
#113 = ORIENTED_EDGE ( 'NONE', *, *, #104, .T. ) ;
#114 = DIRECTION ( 'NONE',  ( -1.000000000000000000, 0.0000000000000000000, 1.224646799147353454E-16 ) ) ;
#115 = AXIS2_PLACEMENT_3D ( 'NONE', #298, #269, #134 ) ;
#116 = EDGE_CURVE ( 'NONE', #268, #68, #124, .T. ) ;
#117 = VERTEX_POINT ( 'NONE', #51 ) ;
#118 = DIRECTION ( 'NONE',  ( -0.0000000000000000000, -0.0000000000000000000, -1.000000000000000000 ) ) ;
#119 = EDGE_CURVE ( 'NONE', #160, #36, #150, .T. ) ;
#120 =( NAMED_UNIT ( * ) SI_UNIT ( $, .STERADIAN. ) SOLID_ANGLE_UNIT ( ) );
#121 = DIRECTION ( 'NONE',  ( 0.7071067811865531239, 8.659560562355003116E-17, -0.7071067811865419106 ) ) ;
#122 = ADVANCED_FACE ( 'NONE', ( #101 ), #243, .T. ) ;
#123 =( GEOMETRIC_REPRESENTATION_CONTEXT ( 3 ) GLOBAL_UNCERTAINTY_ASSIGNED_CONTEXT ( ( #94 ) ) GLOBAL_UNIT_ASSIGNED_CONTEXT ( ( #71, #147, #120 ) ) REPRESENTATION_CONTEXT ( 'NONE', 'WORKASPACE' ) );
#124 = CIRCLE ( 'NONE', #31, 0.08586404999999998344 ) ;
#125 = EDGE_CURVE ( 'NONE', #117, #244, #105, .T. ) ;
#126 = LENGTH_MEASURE_WITH_UNIT ( LENGTH_MEASURE( 0.02539999999999999897 ), #127 );
#127 =( LENGTH_UNIT ( ) NAMED_UNIT ( * ) SI_UNIT ( $, .METRE. ) );
#128 = ORIENTED_EDGE ( 'NONE', *, *, #295, .F. ) ;
#129 = LINE ( 'NONE', #218, #152 ) ;
#130 = FILL_AREA_STYLE ('',( #34 ) ) ;
#131 = ORIENTED_EDGE ( 'NONE', *, *, #35, .F. ) ;
#132 = DIRECTION ( 'NONE',  ( 0.0000000000000000000, 0.0000000000000000000, -1.000000000000000000 ) ) ;
#133 = ORIENTED_EDGE ( 'NONE', *, *, #116, .T. ) ;
#134 = DIRECTION ( 'NONE',  ( -1.000000000000000000, 0.0000000000000000000, 1.224646799147353454E-16 ) ) ;
#135 = EDGE_LOOP ( 'NONE', ( #293, #25, #178, #21 ) ) ;
#136 = CYLINDRICAL_SURFACE ( 'NONE', #115, 0.08586404999999998344 ) ;
#137 = UNCERTAINTY_MEASURE_WITH_UNIT (LENGTH_MEASURE( 1.000000000000000082E-05 ), #85, 'distance_accuracy_value', 'NONE');
#138 = ORIENTED_EDGE ( 'NONE', *, *, #119, .T. ) ;
#139 = DIRECTION ( 'NONE',  ( 0.1736481776669314137, 0.0000000000000000000, 0.9848077530122077983 ) ) ;
#140 = SURFACE_SIDE_STYLE ('',( #219 ) ) ;
#141 = CIRCLE ( 'NONE', #27, 0.08586404999999999732 ) ;
#142 = AXIS2_PLACEMENT_3D ( 'NONE', #158, #132, #223 ) ;
#143 = FACE_OUTER_BOUND ( 'NONE', #290, .T. ) ;
#144 = DIRECTION ( 'NONE',  ( 0.0000000000000000000, 0.0000000000000000000, 1.000000000000000000 ) ) ;
#145 = AXIS2_PLACEMENT_3D ( 'NONE', #208, #97, #185 ) ;
#146 =( CONVERSION_BASED_UNIT ( 'INCH', #254 ) LENGTH_UNIT ( ) NAMED_UNIT ( #249 ) );
#147 =( NAMED_UNIT ( * ) PLANE_ANGLE_UNIT ( ) SI_UNIT ( $, .RADIAN. ) );
#148 = APPLICATION_CONTEXT ( 'automotive_design' ) ;
#149 = EDGE_CURVE ( 'NONE', #68, #268, #239, .T. ) ;
#150 = LINE ( 'NONE', #170, #63 ) ;
#151 = ADVANCED_BREP_SHAPE_REPRESENTATION ( 'Micro_SEM-171-04X', ( #12, #187 ), #38 ) ;
#152 = VECTOR ( 'NONE', #107, 39.37007874015747433 ) ;
#153 = CIRCLE ( 'NONE', #195, 0.09375000000000001388 ) ;
#154 = AXIS2_PLACEMENT_3D ( 'NONE', #45, #18, #43 ) ;
#155 = EDGE_LOOP ( 'NONE', ( #157, #242, #297, #60 ) ) ;
#156 = CARTESIAN_POINT ( 'NONE',  ( 0.0000000000000000000, 0.0000000000000000000, 1.500000000000000222 ) ) ;
#157 = ORIENTED_EDGE ( 'NONE', *, *, #149, .F. ) ;
#158 = CARTESIAN_POINT ( 'NONE',  ( 0.0000000000000000000, 0.0000000000000000000, 1.500000000000000222 ) ) ;
#159 = ADVANCED_FACE ( 'NONE', ( #41 ), #251, .T. ) ;
#160 = VERTEX_POINT ( 'NONE', #87 ) ;
#161 = VECTOR ( 'NONE', #118, 39.37007874015748143 ) ;
#162 = DIRECTION ( 'NONE',  ( -0.0000000000000000000, -0.0000000000000000000, -1.000000000000000000 ) ) ;
#163 = DIRECTION ( 'NONE',  ( -1.000000000000000000, 0.0000000000000000000, 0.0000000000000000000 ) ) ;
#164 = SURFACE_STYLE_FILL_AREA ( #2 ) ;
#165 = CARTESIAN_POINT ( 'NONE',  ( -0.08586404999999998344, 0.0000000000000000000, 1.051531339943283032E-17 ) ) ;
#166 =( LENGTH_UNIT ( ) NAMED_UNIT ( * ) SI_UNIT ( $, .METRE. ) );
#167 = SURFACE_STYLE_USAGE ( .BOTH. , #250 ) ;
#168 = DIRECTION ( 'NONE',  ( -1.224646799147353454E-16, -0.0000000000000000000, -1.000000000000000000 ) ) ;
#169 = DIRECTION ( 'NONE',  ( 0.0000000000000000000, 0.0000000000000000000, -1.000000000000000000 ) ) ;
#170 = CARTESIAN_POINT ( 'NONE',  ( 0.07875000000000061118, 9.644093543285480678E-18, 1.500000000000000222 ) ) ;
#171 = EDGE_CURVE ( 'NONE', #268, #17, #264, .T. ) ;
#172 = AXIS2_PLACEMENT_3D ( 'NONE', #256, #236, #213 ) ;
#173 = ORIENTED_EDGE ( 'NONE', *, *, #47, .T. ) ;
#174 = FACE_OUTER_BOUND ( 'NONE', #273, .T. ) ;
#175 = DIMENSIONAL_EXPONENTS ( 1.000000000000000000, 0.0000000000000000000, 0.0000000000000000000, 0.0000000000000000000, 0.0000000000000000000, 0.0000000000000000000, 0.0000000000000000000 ) ;
#176 = ORIENTED_EDGE ( 'NONE', *, *, #98, .F. ) ;
#177 = FACE_OUTER_BOUND ( 'NONE', #155, .T. ) ;
#178 = ORIENTED_EDGE ( 'NONE', *, *, #171, .T. ) ;
#179 = CARTESIAN_POINT ( 'NONE',  ( 0.0000000000000000000, 0.0000000000000000000, 0.0000000000000000000 ) ) ;
#180 = CARTESIAN_POINT ( 'NONE',  ( 0.09375000000000004163, 1.148106374200644017E-17, 0.3577234448654141308 ) ) ;
#181 = FACE_OUTER_BOUND ( 'NONE', #247, .T. ) ;
#182 = ADVANCED_FACE ( 'NONE', ( #91 ), #55, .T. ) ;
#183 = EDGE_LOOP ( 'NONE', ( #128, #133, #228, #226 ) ) ;
#184 = CARTESIAN_POINT ( 'NONE',  ( 0.08586405000000002508, 0.0000000000000000000, 0.3130000000000000004 ) ) ;
#185 = DIRECTION ( 'NONE',  ( 1.000000000000000000, 0.0000000000000000000, 0.0000000000000000000 ) ) ;
#186 = CIRCLE ( 'NONE', #53, 0.08586404999999999732 ) ;
#187 = AXIS2_PLACEMENT_3D ( 'NONE', #28, #279, #255 ) ;
#188 = CARTESIAN_POINT ( 'NONE',  ( 0.0000000000000000000, 0.0000000000000000000, 1.485000000000000986 ) ) ;
#189 = PRODUCT_DEFINITION_SHAPE ( 'NONE', 'NONE',  #192 ) ;
#190 = VECTOR ( 'NONE', #162, 39.37007874015748143 ) ;
#191 = DIRECTION ( 'NONE',  ( 1.000000000000000000, 0.0000000000000000000, 0.0000000000000000000 ) ) ;
#192 = PRODUCT_DEFINITION ( 'UNKNOWN', '', #84, #23 ) ;
#193 = LINE ( 'NONE', #67, #230 ) ;
#194 = EDGE_CURVE ( 'NONE', #217, #221, #186, .T. ) ;
#195 = AXIS2_PLACEMENT_3D ( 'NONE', #74, #169, #191 ) ;
#196 =( NAMED_UNIT ( * ) PLANE_ANGLE_UNIT ( ) SI_UNIT ( $, .RADIAN. ) );
#197 = CARTESIAN_POINT ( 'NONE',  ( 0.08586404999999999732, 1.051531339943283032E-17, -1.895600338963814870E-33 ) ) ;
#198 = ORIENTED_EDGE ( 'NONE', *, *, #13, .T. ) ;
#199 = AXIS2_PLACEMENT_3D ( 'NONE', #265, #59, #22 ) ;
#200 = DIRECTION ( 'NONE',  ( 0.0000000000000000000, 0.0000000000000000000, 1.000000000000000000 ) ) ;
#201 = ORIENTED_EDGE ( 'NONE', *, *, #194, .F. ) ;
#202 = DIRECTION ( 'NONE',  ( -1.000000000000000000, 0.0000000000000000000, 0.0000000000000000000 ) ) ;
#203 = EDGE_LOOP ( 'NONE', ( #39, #138, #111, #90 ) ) ;
#204 = CYLINDRICAL_SURFACE ( 'NONE', #237, 0.08586404999999998344 ) ;
#205 = ORIENTED_EDGE ( 'NONE', *, *, #125, .F. ) ;
#206 = FACE_OUTER_BOUND ( 'NONE', #135, .T. ) ;
#207 = UNCERTAINTY_MEASURE_WITH_UNIT (LENGTH_MEASURE( 1.000000000000000082E-05 ), #146, 'distance_accuracy_value', 'NONE');
#208 = CARTESIAN_POINT ( 'NONE',  ( 0.0000000000000000000, 0.0000000000000000000, 1.500000000000000222 ) ) ;
#209 = APPLICATION_PROTOCOL_DEFINITION ( 'draft international standard', 'automotive_design', 1998, #148 ) ;
#210 = EDGE_CURVE ( 'NONE', #68, #217, #93, .T. ) ;
#211 = CIRCLE ( 'NONE', #260, 0.09375000000000001388 ) ;
#212 = DIRECTION ( 'NONE',  ( 1.000000000000000000, 0.0000000000000000000, 0.0000000000000000000 ) ) ;
#213 = DIRECTION ( 'NONE',  ( 1.000000000000000000, 0.0000000000000000000, 0.0000000000000000000 ) ) ;
#214 = EDGE_CURVE ( 'NONE', #17, #244, #245, .T. ) ;
#215 = CIRCLE ( 'NONE', #172, 0.07875000000000061118 ) ;
#216 = PRESENTATION_LAYER_ASSIGNMENT (  '', '', ( #278 ) ) ;
#217 = VERTEX_POINT ( 'NONE', #61 ) ;
#218 = CARTESIAN_POINT ( 'NONE',  ( -0.08586404999999995569, 1.051531339943282878E-17, 0.3130000000000000004 ) ) ;
#219 = SURFACE_STYLE_FILL_AREA ( #130 ) ;
#220 = AXIS2_PLACEMENT_3D ( 'NONE', #5, #29, #9 ) ;
#221 = VERTEX_POINT ( 'NONE', #197 ) ;
#222 = EDGE_CURVE ( 'NONE', #68, #244, #129, .T. ) ;
#223 = DIRECTION ( 'NONE',  ( -1.000000000000000000, 0.0000000000000000000, 0.0000000000000000000 ) ) ;
#224 = VERTEX_POINT ( 'NONE', #291 ) ;
#225 = FACE_OUTER_BOUND ( 'NONE', #65, .T. ) ;
#226 = ORIENTED_EDGE ( 'NONE', *, *, #80, .F. ) ;
#227 = CARTESIAN_POINT ( 'NONE',  ( 1.287754489664669484E-33, 0.0000000000000000000, 1.051531339943283186E-17 ) ) ;
#228 = ORIENTED_EDGE ( 'NONE', *, *, #210, .T. ) ;
#229 = VECTOR ( 'NONE', #8, 39.37007874015748143 ) ;
#230 = VECTOR ( 'NONE', #62, 39.37007874015748143 ) ;
#231 = DIRECTION ( 'NONE',  ( 0.0000000000000000000, 0.0000000000000000000, -1.000000000000000000 ) ) ;
#232 =( NAMED_UNIT ( * ) SI_UNIT ( $, .STERADIAN. ) SOLID_ANGLE_UNIT ( ) );
#233 = CARTESIAN_POINT ( 'NONE',  ( 0.0000000000000000000, 0.0000000000000000000, 1.500000000000000222 ) ) ;
#234 = CARTESIAN_POINT ( 'NONE',  ( 0.09375000000000001388, 1.148106374200643401E-17, 1.500000000000000222 ) ) ;
#235 = VECTOR ( 'NONE', #139, 39.37007874015748143 ) ;
#236 = DIRECTION ( 'NONE',  ( 0.0000000000000000000, 0.0000000000000000000, 1.000000000000000000 ) ) ;
#237 = AXIS2_PLACEMENT_3D ( 'NONE', #272, #66, #114 ) ;
#238 = COLOUR_RGB ( '',0.7921568627450980005, 0.8196078431372548767, 0.9333333333333333481 ) ;
#239 = CIRCLE ( 'NONE', #70, 0.08586404999999998344 ) ;
#240 = ORIENTED_EDGE ( 'NONE', *, *, #119, .F. ) ;
#241 = DIRECTION ( 'NONE',  ( -1.000000000000000000, 0.0000000000000000000, 0.0000000000000000000 ) ) ;
#242 = ORIENTED_EDGE ( 'NONE', *, *, #222, .T. ) ;
#243 = CYLINDRICAL_SURFACE ( 'NONE', #292, 0.09375000000000001388 ) ;
#244 = VERTEX_POINT ( 'NONE', #37 ) ;
#245 = CIRCLE ( 'NONE', #154, 0.09375000000000001388 ) ;
#246 = DIRECTION ( 'NONE',  ( -0.0000000000000000000, -0.0000000000000000000, -1.000000000000000000 ) ) ;
#247 = EDGE_LOOP ( 'NONE', ( #92, #263, #201, #19 ) ) ;
#248 = CARTESIAN_POINT ( 'NONE',  ( 3.833144481331216295E-17, 0.0000000000000000000, 0.3130000000000000004 ) ) ;
#249 = DIMENSIONAL_EXPONENTS ( 1.000000000000000000, 0.0000000000000000000, 0.0000000000000000000, 0.0000000000000000000, 0.0000000000000000000, 0.0000000000000000000, 0.0000000000000000000 ) ;
#250 = SURFACE_SIDE_STYLE ('',( #164 ) ) ;
#251 = CYLINDRICAL_SURFACE ( 'NONE', #285, 0.09375000000000001388 ) ;
#252 = LINE ( 'NONE', #276, #229 ) ;
#253 = ADVANCED_FACE ( 'NONE', ( #225 ), #20, .F. ) ;
#254 = LENGTH_MEASURE_WITH_UNIT ( LENGTH_MEASURE( 0.02539999999999999897 ), #166 );
#255 = DIRECTION ( 'NONE',  ( 1.000000000000000000, 0.0000000000000000000, 0.0000000000000000000 ) ) ;
#256 = CARTESIAN_POINT ( 'NONE',  ( 0.0000000000000000000, 0.0000000000000000000, 1.500000000000000222 ) ) ;
#257 = AXIS2_PLACEMENT_3D ( 'NONE', #233, #144, #95 ) ;
#258 = COLOUR_RGB ( '',0.7921568627450980005, 0.8196078431372548767, 0.9333333333333333481 ) ;
#259 = ADVANCED_FACE ( 'NONE', ( #177 ), #261, .T. ) ;
#260 = AXIS2_PLACEMENT_3D ( 'NONE', #188, #99, #212 ) ;
#261 = CONICAL_SURFACE ( 'NONE', #199, 0.08586404999999998344, 0.1745329251994339192 ) ;
#262 = APPLICATION_CONTEXT ( 'automotive_design' ) ;
#263 = ORIENTED_EDGE ( 'NONE', *, *, #295, .T. ) ;
#264 = LINE ( 'NONE', #184, #235 ) ;
#265 = CARTESIAN_POINT ( 'NONE',  ( 3.833144481331216295E-17, 0.0000000000000000000, 0.3130000000000000004 ) ) ;
#266 = ADVANCED_FACE ( 'NONE', ( #174 ), #108, .T. ) ;
#267 = PRESENTATION_STYLE_ASSIGNMENT (( #296 ) ) ;
#268 = VERTEX_POINT ( 'NONE', #110 ) ;
#269 = DIRECTION ( 'NONE',  ( -1.224646799147353454E-16, -0.0000000000000000000, -1.000000000000000000 ) ) ;
#270 = STYLED_ITEM ( 'NONE', ( #4 ), #12 ) ;
#271 = FILL_AREA_STYLE_COLOUR ( '', #238 ) ;
#272 = CARTESIAN_POINT ( 'NONE',  ( 0.0000000000000000000, 0.0000000000000000000, 0.0000000000000000000 ) ) ;
#273 = EDGE_LOOP ( 'NONE', ( #240, #58, #198, #176 ) ) ;
#274 = DIRECTION ( 'NONE',  ( -0.0000000000000000000, -0.0000000000000000000, -1.000000000000000000 ) ) ;
#275 = LENGTH_MEASURE_WITH_UNIT ( LENGTH_MEASURE( 0.02539999999999999897 ), #284 );
#276 = CARTESIAN_POINT ( 'NONE',  ( -0.07875000000000061118, 0.0000000000000000000, 1.500000000000000222 ) ) ;
#277 = PRESENTATION_LAYER_ASSIGNMENT (  '', '', ( #270 ) ) ;
#278 = STYLED_ITEM ( 'NONE', ( #267 ), #151 ) ;
#279 = DIRECTION ( 'NONE',  ( 0.0000000000000000000, 0.0000000000000000000, 1.000000000000000000 ) ) ;
#280 = ADVANCED_FACE ( 'NONE', ( #181 ), #136, .T. ) ;
#281 = PLANE ( 'NONE',  #257 ) ;
#282 = ADVANCED_FACE ( 'NONE', ( #112 ), #204, .T. ) ;
#283 = DIRECTION ( 'NONE',  ( -1.000000000000000000, 0.0000000000000000000, 1.224646799147353454E-16 ) ) ;
#284 =( LENGTH_UNIT ( ) NAMED_UNIT ( * ) SI_UNIT ( $, .METRE. ) );
#285 = AXIS2_PLACEMENT_3D ( 'NONE', #156, #246, #241 ) ;
#286 = DIRECTION ( 'NONE',  ( -1.224646799147353454E-16, -0.0000000000000000000, -1.000000000000000000 ) ) ;
#287 = CIRCLE ( 'NONE', #145, 0.07875000000000061118 ) ;
#288 = AXIS2_PLACEMENT_3D ( 'NONE', #88, #75, #78 ) ;
#289 = ADVANCED_FACE ( 'NONE', ( #206 ), #79, .T. ) ;
#290 = EDGE_LOOP ( 'NONE', ( #173, #113 ) ) ;
#291 = CARTESIAN_POINT ( 'NONE',  ( -0.07875000000000061118, 0.0000000000000000000, 1.500000000000000222 ) ) ;
#292 = AXIS2_PLACEMENT_3D ( 'NONE', #294, #274, #57 ) ;
#293 = ORIENTED_EDGE ( 'NONE', *, *, #222, .F. ) ;
#294 = CARTESIAN_POINT ( 'NONE',  ( 0.0000000000000000000, 0.0000000000000000000, 1.500000000000000222 ) ) ;
#295 = EDGE_CURVE ( 'NONE', #268, #221, #193, .T. ) ;
#296 = SURFACE_STYLE_USAGE ( .BOTH. , #140 ) ;
#297 = ORIENTED_EDGE ( 'NONE', *, *, #35, .T. ) ;
#298 = CARTESIAN_POINT ( 'NONE',  ( 0.0000000000000000000, 0.0000000000000000000, 0.0000000000000000000 ) ) ;
#299 = EDGE_LOOP ( 'NONE', ( #86, #14, #131, #205 ) ) ;
ENDSEC;
END-ISO-10303-21;
