ISO-10303-21;
HEADER;
FILE_DESCRIPTION (( 'STEP AP214' ),
    '1' );
FILE_NAME ('Micro_BMR-025-2.STEP',
    '2021-09-03T13:56:55',
    ( '' ),
    ( '' ),
    'SwSTEP 2.0',
    'SolidWorks 2020',
    '' );
FILE_SCHEMA (( 'AUTOMOTIVE_DESIGN' ));
ENDSEC;

DATA;
#1 = FILL_AREA_STYLE_COLOUR ( '', #284 ) ;
#2 = CIRCLE ( 'NONE', #33, 0.01248750000000000034 ) ;
#3 =( GEOMETRIC_REPRESENTATION_CONTEXT ( 3 ) GLOBAL_UNCERTAINTY_ASSIGNED_CONTEXT ( ( #248 ) ) GLOBAL_UNIT_ASSIGNED_CONTEXT ( ( #99, #101, #120 ) ) REPRESENTATION_CONTEXT ( 'NONE', 'WORKASPACE' ) );
#4 = CARTESIAN_POINT ( 'NONE',  ( -0.01248749999999999166, 1.529277690435257475E-18, 0.07499999999999999722 ) ) ;
#5 = DIRECTION ( 'NONE',  ( -1.000000000000000000, 0.0000000000000000000, 0.0000000000000000000 ) ) ;
#6 = ORIENTED_EDGE ( 'NONE', *, *, #215, .F. ) ;
#7 = EDGE_LOOP ( 'NONE', ( #83, #61, #188, #285 ) ) ;
#8 = CIRCLE ( 'NONE', #28, 0.01248750000000000034 ) ;
#9 = EDGE_CURVE ( 'NONE', #291, #110, #263, .T. ) ;
#10 = ADVANCED_FACE ( 'NONE', ( #19 ), #46, .T. ) ;
#11 = EDGE_LOOP ( 'NONE', ( #307, #140, #167, #183 ) ) ;
#12 = ORIENTED_EDGE ( 'NONE', *, *, #227, .T. ) ;
#13 = ORIENTED_EDGE ( 'NONE', *, *, #279, .T. ) ;
#14 = DIRECTION ( 'NONE',  ( 1.000000000000000000, 0.0000000000000000000, -0.0000000000000000000 ) ) ;
#15 = CARTESIAN_POINT ( 'NONE',  ( 0.0000000000000000000, 0.0000000000000000000, 1.485000000000000764 ) ) ;
#16 = EDGE_CURVE ( 'NONE', #86, #312, #23, .T. ) ;
#17 =( LENGTH_UNIT ( ) NAMED_UNIT ( * ) SI_UNIT ( $, .METRE. ) );
#18 = DIRECTION ( 'NONE',  ( 0.1736481776669313859, 0.0000000000000000000, 0.9848077530122077983 ) ) ;
#19 = FACE_OUTER_BOUND ( 'NONE', #262, .T. ) ;
#20 = PRESENTATION_STYLE_ASSIGNMENT (( #113 ) ) ;
#21 = DIRECTION ( 'NONE',  ( -0.0000000000000000000, -0.0000000000000000000, -1.000000000000000000 ) ) ;
#22 = FACE_OUTER_BOUND ( 'NONE', #11, .T. ) ;
#23 = CIRCLE ( 'NONE', #59, 0.06250000000000002776 ) ;
#24 = SURFACE_SIDE_STYLE ('',( #53 ) ) ;
#25 = CARTESIAN_POINT ( 'NONE',  ( 0.01248750000000000034, 1.529277690435257475E-18, -1.529277690435257668E-18 ) ) ;
#26 = PRODUCT_DEFINITION_CONTEXT ( 'detailed design', #127, 'design' ) ;
#27 = DIRECTION ( 'NONE',  ( 1.000000000000000000, 0.0000000000000000000, 0.0000000000000000000 ) ) ;
#28 = AXIS2_PLACEMENT_3D ( 'NONE', #216, #93, #119 ) ;
#29 = AXIS2_PLACEMENT_3D ( 'NONE', #125, #44, #42 ) ;
#30 = CARTESIAN_POINT ( 'NONE',  ( 0.0000000000000000000, 0.0000000000000000000, 1.500000000000000222 ) ) ;
#31 = PRODUCT_DEFINITION_SHAPE ( 'NONE', 'NONE',  #237 ) ;
#32 = ADVANCED_FACE ( 'NONE', ( #22 ), #135, .T. ) ;
#33 = AXIS2_PLACEMENT_3D ( 'NONE', #316, #170, #51 ) ;
#34 = AXIS2_PLACEMENT_3D ( 'NONE', #276, #179, #251 ) ;
#35 = ORIENTED_EDGE ( 'NONE', *, *, #9, .F. ) ;
#36 = ORIENTED_EDGE ( 'NONE', *, *, #157, .F. ) ;
#37 = EDGE_CURVE ( 'NONE', #40, #110, #8, .T. ) ;
#38 = ORIENTED_EDGE ( 'NONE', *, *, #37, .F. ) ;
#39 = PRODUCT_DEFINITION_FORMATION_WITH_SPECIFIED_SOURCE ( 'ANY', '', #80, .NOT_KNOWN. ) ;
#40 = VERTEX_POINT ( 'NONE', #219 ) ;
#41 = VERTEX_POINT ( 'NONE', #89 ) ;
#42 = DIRECTION ( 'NONE',  ( 1.000000000000000000, 0.0000000000000000000, 0.0000000000000000000 ) ) ;
#43 = CARTESIAN_POINT ( 'NONE',  ( 0.0000000000000000000, 0.0000000000000000000, 1.500000000000000222 ) ) ;
#44 = DIRECTION ( 'NONE',  ( 1.224646799147353454E-16, 0.0000000000000000000, 1.000000000000000000 ) ) ;
#45 = DIRECTION ( 'NONE',  ( -1.224646799147353454E-16, -0.0000000000000000000, -1.000000000000000000 ) ) ;
#46 = SPHERICAL_SURFACE ( 'NONE', #306, 0.01248750000000000034 ) ;
#47 = ADVANCED_FACE ( 'NONE', ( #222 ), #267, .T. ) ;
#48 = SPHERICAL_SURFACE ( 'NONE', #253, 0.01248750000000000034 ) ;
#49 = UNCERTAINTY_MEASURE_WITH_UNIT (LENGTH_MEASURE( 1.000000000000000082E-05 ), #88, 'distance_accuracy_value', 'NONE');
#50 = DIRECTION ( 'NONE',  ( 1.224646799147353454E-16, 0.0000000000000000000, 1.000000000000000000 ) ) ;
#51 = DIRECTION ( 'NONE',  ( -1.000000000000000000, 0.0000000000000000000, 0.0000000000000000000 ) ) ;
#52 = CIRCLE ( 'NONE', #185, 0.01248750000000000034 ) ;
#53 = SURFACE_STYLE_FILL_AREA ( #302 ) ;
#54 = CLOSED_SHELL ( 'NONE', ( #10, #172, #56, #288, #261, #161, #199, #32, #278, #47, #255 ) ) ;
#55 = CARTESIAN_POINT ( 'NONE',  ( 9.184850993605148746E-18, 0.0000000000000000000, 0.07499999999999999722 ) ) ;
#56 = ADVANCED_FACE ( 'NONE', ( #321 ), #115, .T. ) ;
#57 = DIRECTION ( 'NONE',  ( 0.7071067811865462405, 8.659560562354916834E-17, -0.7071067811865486830 ) ) ;
#58 = EDGE_LOOP ( 'NONE', ( #138, #13, #265, #287 ) ) ;
#59 = AXIS2_PLACEMENT_3D ( 'NONE', #153, #314, #171 ) ;
#60 = EDGE_CURVE ( 'NONE', #212, #208, #177, .T. ) ;
#61 = ORIENTED_EDGE ( 'NONE', *, *, #186, .F. ) ;
#62 = ADVANCED_BREP_SHAPE_REPRESENTATION ( 'Micro_BMR-025-2', ( #301, #34 ), #109 ) ;
#63 = ORIENTED_EDGE ( 'NONE', *, *, #215, .T. ) ;
#64 = CIRCLE ( 'NONE', #313, 0.06250000000000002776 ) ;
#65 = PRESENTATION_LAYER_ASSIGNMENT (  '', '', ( #116 ) ) ;
#66 = ORIENTED_EDGE ( 'NONE', *, *, #210, .T. ) ;
#67 = CARTESIAN_POINT ( 'NONE',  ( 0.0000000000000000000, 0.0000000000000000000, 1.485000000000000764 ) ) ;
#68 = SURFACE_SIDE_STYLE ('',( #133 ) ) ;
#69 = CARTESIAN_POINT ( 'NONE',  ( 1.529277690435257668E-18, 0.0000000000000000000, 0.01248750000000000034 ) ) ;
#70 =( NAMED_UNIT ( * ) PLANE_ANGLE_UNIT ( ) SI_UNIT ( $, .RADIAN. ) );
#71 = DIRECTION ( 'NONE',  ( -1.000000000000000000, 0.0000000000000000000, 0.0000000000000000000 ) ) ;
#72 = COLOUR_RGB ( '',0.7921568627450980005, 0.8196078431372548767, 0.9333333333333333481 ) ;
#73 = CARTESIAN_POINT ( 'NONE',  ( 0.0000000000000000000, 0.0000000000000000000, 1.500000000000000222 ) ) ;
#74 = DIMENSIONAL_EXPONENTS ( 1.000000000000000000, 0.0000000000000000000, 0.0000000000000000000, 0.0000000000000000000, 0.0000000000000000000, 0.0000000000000000000, 0.0000000000000000000 ) ;
#75 = CARTESIAN_POINT ( 'NONE',  ( 4.392011827730132361E-17, 0.0000000000000000000, 0.3586349820036292546 ) ) ;
#76 = EDGE_CURVE ( 'NONE', #110, #291, #52, .T. ) ;
#77 = PRODUCT_CONTEXT ( 'NONE', #305, 'mechanical' ) ;
#78 = VECTOR ( 'NONE', #159, 39.37007874015748143 ) ;
#79 = CARTESIAN_POINT ( 'NONE',  ( -0.01248750000000000034, 0.0000000000000000000, 1.529277690435257668E-18 ) ) ;
#80 = PRODUCT ( 'Micro_BMR-025-2', 'Micro_BMR-025-2', '', ( #77 ) ) ;
#81 = DIRECTION ( 'NONE',  ( 0.0000000000000000000, 0.0000000000000000000, -1.000000000000000000 ) ) ;
#82 = ORIENTED_EDGE ( 'NONE', *, *, #298, .F. ) ;
#83 = ORIENTED_EDGE ( 'NONE', *, *, #279, .F. ) ;
#84 = VERTEX_POINT ( 'NONE', #292 ) ;
#85 = EDGE_CURVE ( 'NONE', #208, #141, #64, .T. ) ;
#86 = VERTEX_POINT ( 'NONE', #240 ) ;
#87 = ORIENTED_EDGE ( 'NONE', *, *, #9, .T. ) ;
#88 =( CONVERSION_BASED_UNIT ( 'INCH', #289 ) LENGTH_UNIT ( ) NAMED_UNIT ( #151 ) );
#89 = CARTESIAN_POINT ( 'NONE',  ( 0.01248750000000000901, 0.0000000000000000000, 0.07499999999999999722 ) ) ;
#90 = LINE ( 'NONE', #155, #95 ) ;
#91 = DIRECTION ( 'NONE',  ( 1.000000000000000000, 0.0000000000000000000, 0.0000000000000000000 ) ) ;
#92 = EDGE_CURVE ( 'NONE', #141, #208, #207, .T. ) ;
#93 = DIRECTION ( 'NONE',  ( 1.224646799147353207E-16, 1.000000000000000000, -0.0000000000000000000 ) ) ;
#94 =( NAMED_UNIT ( * ) SI_UNIT ( $, .STERADIAN. ) SOLID_ANGLE_UNIT ( ) );
#95 = VECTOR ( 'NONE', #21, 39.37007874015748143 ) ;
#96 = DIRECTION ( 'NONE',  ( 0.0000000000000000000, 0.0000000000000000000, 1.000000000000000000 ) ) ;
#97 = CARTESIAN_POINT ( 'NONE',  ( 9.184850993605148746E-18, 0.0000000000000000000, 0.07499999999999999722 ) ) ;
#98 = PRODUCT_RELATED_PRODUCT_CATEGORY ( 'part', '', ( #80 ) ) ;
#99 =( CONVERSION_BASED_UNIT ( 'INCH', #228 ) LENGTH_UNIT ( ) NAMED_UNIT ( #74 ) );
#100 = LINE ( 'NONE', #242, #158 ) ;
#101 =( NAMED_UNIT ( * ) PLANE_ANGLE_UNIT ( ) SI_UNIT ( $, .RADIAN. ) );
#102 = DIRECTION ( 'NONE',  ( -0.1736481776669311916, 2.126576849575783316E-17, 0.9848077530122080203 ) ) ;
#103 = CIRCLE ( 'NONE', #250, 0.04750000000000064587 ) ;
#104 = FILL_AREA_STYLE ('',( #1 ) ) ;
#105 = EDGE_CURVE ( 'NONE', #212, #84, #234, .T. ) ;
#106 = CIRCLE ( 'NONE', #290, 0.06250000000000002776 ) ;
#107 = MECHANICAL_DESIGN_GEOMETRIC_PRESENTATION_REPRESENTATION (  '', ( #202 ), #124 ) ;
#108 = EDGE_LOOP ( 'NONE', ( #189, #184, #238, #286 ) ) ;
#109 =( GEOMETRIC_REPRESENTATION_CONTEXT ( 3 ) GLOBAL_UNCERTAINTY_ASSIGNED_CONTEXT ( ( #243 ) ) GLOBAL_UNIT_ASSIGNED_CONTEXT ( ( #220, #315, #94 ) ) REPRESENTATION_CONTEXT ( 'NONE', 'WORKASPACE' ) );
#110 = VERTEX_POINT ( 'NONE', #295 ) ;
#111 =( LENGTH_UNIT ( ) NAMED_UNIT ( * ) SI_UNIT ( $, .METRE. ) );
#112 = ORIENTED_EDGE ( 'NONE', *, *, #105, .T. ) ;
#113 = SURFACE_STYLE_USAGE ( .BOTH. , #68 ) ;
#114 = DIRECTION ( 'NONE',  ( 0.0000000000000000000, 0.0000000000000000000, -1.000000000000000000 ) ) ;
#115 = CONICAL_SURFACE ( 'NONE', #29, 0.01248750000000000034, 0.1745329251994338915 ) ;
#116 = STYLED_ITEM ( 'NONE', ( #270 ), #62 ) ;
#117 = DIRECTION ( 'NONE',  ( 0.0000000000000000000, 0.0000000000000000000, -1.000000000000000000 ) ) ;
#118 = CARTESIAN_POINT ( 'NONE',  ( -0.06250000000000002776, 0.0000000000000000000, 1.485000000000000764 ) ) ;
#119 = DIRECTION ( 'NONE',  ( -1.000000000000000000, 1.224646799147353207E-16, 0.0000000000000000000 ) ) ;
#120 =( NAMED_UNIT ( * ) SI_UNIT ( $, .STERADIAN. ) SOLID_ANGLE_UNIT ( ) );
#121 = CARTESIAN_POINT ( 'NONE',  ( 1.529277690435257668E-18, 0.0000000000000000000, 0.01248750000000000034 ) ) ;
#122 = DIRECTION ( 'NONE',  ( 1.224646799147353454E-16, 0.0000000000000000000, 1.000000000000000000 ) ) ;
#123 = VECTOR ( 'NONE', #294, 39.37007874015748143 ) ;
#124 =( GEOMETRIC_REPRESENTATION_CONTEXT ( 3 ) GLOBAL_UNCERTAINTY_ASSIGNED_CONTEXT ( ( #49 ) ) GLOBAL_UNIT_ASSIGNED_CONTEXT ( ( #88, #70, #168 ) ) REPRESENTATION_CONTEXT ( 'NONE', 'WORKASPACE' ) );
#125 = CARTESIAN_POINT ( 'NONE',  ( 9.184850993605148746E-18, 0.0000000000000000000, 0.07499999999999999722 ) ) ;
#126 = DIRECTION ( 'NONE',  ( -1.224646799147353454E-16, -0.0000000000000000000, -1.000000000000000000 ) ) ;
#127 = APPLICATION_CONTEXT ( 'automotive_design' ) ;
#128 = SHAPE_DEFINITION_REPRESENTATION ( #31, #62 ) ;
#129 = DIRECTION ( 'NONE',  ( 1.000000000000000000, 0.0000000000000000000, 0.0000000000000000000 ) ) ;
#130 = AXIS2_PLACEMENT_3D ( 'NONE', #317, #96, #91 ) ;
#131 = FACE_OUTER_BOUND ( 'NONE', #7, .T. ) ;
#132 = EDGE_CURVE ( 'NONE', #84, #212, #103, .T. ) ;
#133 = SURFACE_STYLE_FILL_AREA ( #104 ) ;
#134 = CYLINDRICAL_SURFACE ( 'NONE', #322, 0.06250000000000002776 ) ;
#135 = CONICAL_SURFACE ( 'NONE', #229, 0.04750000000000064587, 0.7853981633974466137 ) ;
#136 = ORIENTED_EDGE ( 'NONE', *, *, #186, .T. ) ;
#137 = ORIENTED_EDGE ( 'NONE', *, *, #76, .T. ) ;
#138 = ORIENTED_EDGE ( 'NONE', *, *, #204, .F. ) ;
#139 = AXIS2_PLACEMENT_3D ( 'NONE', #150, #50, #223 ) ;
#140 = ORIENTED_EDGE ( 'NONE', *, *, #105, .F. ) ;
#141 = VERTEX_POINT ( 'NONE', #296 ) ;
#142 = LENGTH_MEASURE_WITH_UNIT ( LENGTH_MEASURE( 0.02539999999999999897 ), #17 );
#143 = CYLINDRICAL_SURFACE ( 'NONE', #309, 0.06250000000000002776 ) ;
#144 = DIRECTION ( 'NONE',  ( 1.000000000000000000, 0.0000000000000000000, 0.0000000000000000000 ) ) ;
#145 = EDGE_CURVE ( 'NONE', #312, #86, #106, .T. ) ;
#146 = PRESENTATION_LAYER_ASSIGNMENT (  '', '', ( #202 ) ) ;
#147 = FACE_OUTER_BOUND ( 'NONE', #311, .T. ) ;
#148 = DIRECTION ( 'NONE',  ( -1.000000000000000000, 0.0000000000000000000, 1.709114110150314860E-16 ) ) ;
#149 = PLANE ( 'NONE',  #163 ) ;
#150 = CARTESIAN_POINT ( 'NONE',  ( 1.529277690435257668E-18, 0.0000000000000000000, 0.01248750000000000034 ) ) ;
#151 = DIMENSIONAL_EXPONENTS ( 1.000000000000000000, 0.0000000000000000000, 0.0000000000000000000, 0.0000000000000000000, 0.0000000000000000000, 0.0000000000000000000, 0.0000000000000000000 ) ;
#152 = FILL_AREA_STYLE_COLOUR ( '', #72 ) ;
#153 = CARTESIAN_POINT ( 'NONE',  ( 4.392011827730132361E-17, 0.0000000000000000000, 0.3586349820036292546 ) ) ;
#154 = CIRCLE ( 'NONE', #196, 0.01248750000000000034 ) ;
#155 = CARTESIAN_POINT ( 'NONE',  ( 0.06250000000000002776, 7.654042494670959086E-18, 1.500000000000000222 ) ) ;
#156 = CARTESIAN_POINT ( 'NONE',  ( 1.529277690435257668E-18, 0.0000000000000000000, 0.01248750000000000034 ) ) ;
#157 = EDGE_CURVE ( 'NONE', #208, #86, #254, .T. ) ;
#158 = VECTOR ( 'NONE', #18, 39.37007874015748143 ) ;
#159 = DIRECTION ( 'NONE',  ( -1.224646799147353454E-16, -0.0000000000000000000, -1.000000000000000000 ) ) ;
#160 = DIRECTION ( 'NONE',  ( 1.224646799147353454E-16, 0.0000000000000000000, 1.000000000000000000 ) ) ;
#161 = ADVANCED_FACE ( 'NONE', ( #271 ), #143, .T. ) ;
#162 = ORIENTED_EDGE ( 'NONE', *, *, #227, .F. ) ;
#163 = AXIS2_PLACEMENT_3D ( 'NONE', #246, #297, #14 ) ;
#164 = VERTEX_POINT ( 'NONE', #273 ) ;
#165 = ORIENTED_EDGE ( 'NONE', *, *, #85, .T. ) ;
#166 = CARTESIAN_POINT ( 'NONE',  ( 0.06250000000000006939, 7.654042494670963708E-18, 0.3586349820036292546 ) ) ;
#167 = ORIENTED_EDGE ( 'NONE', *, *, #60, .T. ) ;
#168 =( NAMED_UNIT ( * ) SI_UNIT ( $, .STERADIAN. ) SOLID_ANGLE_UNIT ( ) );
#169 = DIRECTION ( 'NONE',  ( 0.0000000000000000000, 0.0000000000000000000, -1.000000000000000000 ) ) ;
#170 = DIRECTION ( 'NONE',  ( -1.224646799147353454E-16, -0.0000000000000000000, -1.000000000000000000 ) ) ;
#171 = DIRECTION ( 'NONE',  ( 1.000000000000000000, 0.0000000000000000000, 0.0000000000000000000 ) ) ;
#172 = ADVANCED_FACE ( 'NONE', ( #147 ), #200, .T. ) ;
#173 = AXIS2_PLACEMENT_3D ( 'NONE', #121, #197, #181 ) ;
#174 = CIRCLE ( 'NONE', #173, 0.01248750000000000034 ) ;
#175 = DIRECTION ( 'NONE',  ( 0.0000000000000000000, 0.0000000000000000000, 1.000000000000000000 ) ) ;
#176 = LINE ( 'NONE', #230, #280 ) ;
#177 = LINE ( 'NONE', #266, #241 ) ;
#178 = DIRECTION ( 'NONE',  ( -0.0000000000000000000, -0.0000000000000000000, -1.000000000000000000 ) ) ;
#179 = DIRECTION ( 'NONE',  ( 0.0000000000000000000, 0.0000000000000000000, 1.000000000000000000 ) ) ;
#180 = AXIS2_PLACEMENT_3D ( 'NONE', #249, #318, #195 ) ;
#181 = DIRECTION ( 'NONE',  ( 0.0000000000000000000, 0.0000000000000000000, -1.000000000000000000 ) ) ;
#182 = MECHANICAL_DESIGN_GEOMETRIC_PRESENTATION_REPRESENTATION (  '', ( #116 ), #3 ) ;
#183 = ORIENTED_EDGE ( 'NONE', *, *, #92, .F. ) ;
#184 = ORIENTED_EDGE ( 'NONE', *, *, #257, .T. ) ;
#185 = AXIS2_PLACEMENT_3D ( 'NONE', #191, #122, #148 ) ;
#186 = EDGE_CURVE ( 'NONE', #41, #164, #154, .T. ) ;
#187 = ORIENTED_EDGE ( 'NONE', *, *, #145, .F. ) ;
#188 = ORIENTED_EDGE ( 'NONE', *, *, #192, .T. ) ;
#189 = ORIENTED_EDGE ( 'NONE', *, *, #132, .F. ) ;
#190 = AXIS2_PLACEMENT_3D ( 'NONE', #320, #239, #218 ) ;
#191 = CARTESIAN_POINT ( 'NONE',  ( 1.529277690435257668E-18, 0.0000000000000000000, 0.01248750000000000034 ) ) ;
#192 = EDGE_CURVE ( 'NONE', #41, #312, #100, .T. ) ;
#193 = DIRECTION ( 'NONE',  ( 0.0000000000000000000, 1.000000000000000000, 0.0000000000000000000 ) ) ;
#194 = CARTESIAN_POINT ( 'NONE',  ( -0.06250000000000002776, 0.0000000000000000000, 1.500000000000000222 ) ) ;
#195 = DIRECTION ( 'NONE',  ( -1.000000000000000000, 0.0000000000000000000, 1.224646799147353454E-16 ) ) ;
#196 = AXIS2_PLACEMENT_3D ( 'NONE', #97, #45, #71 ) ;
#197 = DIRECTION ( 'NONE',  ( 0.0000000000000000000, -1.000000000000000000, 0.0000000000000000000 ) ) ;
#198 = DIRECTION ( 'NONE',  ( 1.000000000000000000, 0.0000000000000000000, 0.0000000000000000000 ) ) ;
#199 = ADVANCED_FACE ( 'NONE', ( #226 ), #149, .T. ) ;
#200 = CYLINDRICAL_SURFACE ( 'NONE', #190, 0.01248750000000000034 ) ;
#201 = CARTESIAN_POINT ( 'NONE',  ( 0.01248750000000000207, 1.529277690435257475E-18, 0.01248749999999999860 ) ) ;
#202 = STYLED_ITEM ( 'NONE', ( #20 ), #301 ) ;
#203 = DIRECTION ( 'NONE',  ( 0.0000000000000000000, 1.000000000000000000, 0.0000000000000000000 ) ) ;
#204 = EDGE_CURVE ( 'NONE', #164, #41, #2, .T. ) ;
#205 = DIRECTION ( 'NONE',  ( -0.0000000000000000000, -0.0000000000000000000, -1.000000000000000000 ) ) ;
#206 = DIRECTION ( 'NONE',  ( 1.000000000000000000, 0.0000000000000000000, 0.0000000000000000000 ) ) ;
#207 = CIRCLE ( 'NONE', #268, 0.06250000000000002776 ) ;
#208 = VERTEX_POINT ( 'NONE', #118 ) ;
#209 = ORIENTED_EDGE ( 'NONE', *, *, #76, .F. ) ;
#210 = EDGE_CURVE ( 'NONE', #141, #312, #90, .T. ) ;
#211 = VECTOR ( 'NONE', #126, 39.37007874015748143 ) ;
#212 = VERTEX_POINT ( 'NONE', #221 ) ;
#213 = ORIENTED_EDGE ( 'NONE', *, *, #298, .T. ) ;
#214 = ORIENTED_EDGE ( 'NONE', *, *, #157, .T. ) ;
#215 = EDGE_CURVE ( 'NONE', #40, #291, #174, .T. ) ;
#216 = CARTESIAN_POINT ( 'NONE',  ( 1.529277690435257668E-18, 0.0000000000000000000, 0.01248750000000000034 ) ) ;
#217 = AXIS2_PLACEMENT_3D ( 'NONE', #55, #160, #27 ) ;
#218 = DIRECTION ( 'NONE',  ( -1.000000000000000000, 0.0000000000000000000, 1.224646799147353454E-16 ) ) ;
#219 = CARTESIAN_POINT ( 'NONE',  ( 2.293916535652886598E-18, 0.0000000000000000000, 0.0000000000000000000 ) ) ;
#220 =( CONVERSION_BASED_UNIT ( 'INCH', #142 ) LENGTH_UNIT ( ) NAMED_UNIT ( #319 ) );
#221 = CARTESIAN_POINT ( 'NONE',  ( -0.04750000000000064587, 0.0000000000000000000, 1.500000000000000222 ) ) ;
#222 = FACE_OUTER_BOUND ( 'NONE', #232, .T. ) ;
#223 = DIRECTION ( 'NONE',  ( -1.000000000000000000, 0.0000000000000000000, 1.709114110150314860E-16 ) ) ;
#224 = VECTOR ( 'NONE', #102, 39.37007874015747433 ) ;
#225 = ORIENTED_EDGE ( 'NONE', *, *, #16, .F. ) ;
#226 = FACE_OUTER_BOUND ( 'NONE', #283, .T. ) ;
#227 = EDGE_CURVE ( 'NONE', #41, #291, #252, .T. ) ;
#228 = LENGTH_MEASURE_WITH_UNIT ( LENGTH_MEASURE( 0.02539999999999999897 ), #323 );
#229 = AXIS2_PLACEMENT_3D ( 'NONE', #247, #114, #269 ) ;
#230 = CARTESIAN_POINT ( 'NONE',  ( 0.04750000000000064587, 5.817072295950006528E-18, 1.500000000000000222 ) ) ;
#231 = FACE_OUTER_BOUND ( 'NONE', #108, .T. ) ;
#232 = EDGE_LOOP ( 'NONE', ( #162, #136, #213, #137 ) ) ;
#233 = ORIENTED_EDGE ( 'NONE', *, *, #37, .T. ) ;
#234 = CIRCLE ( 'NONE', #130, 0.04750000000000064587 ) ;
#235 = ORIENTED_EDGE ( 'NONE', *, *, #204, .T. ) ;
#236 = EDGE_LOOP ( 'NONE', ( #308, #259, #214, #187 ) ) ;
#237 = PRODUCT_DEFINITION ( 'UNKNOWN', '', #39, #26 ) ;
#238 = ORIENTED_EDGE ( 'NONE', *, *, #85, .F. ) ;
#239 = DIRECTION ( 'NONE',  ( -1.224646799147353454E-16, -0.0000000000000000000, -1.000000000000000000 ) ) ;
#240 = CARTESIAN_POINT ( 'NONE',  ( -0.06249999999999997918, 0.0000000000000000000, 0.3586349820036292546 ) ) ;
#241 = VECTOR ( 'NONE', #293, 39.37007874015748854 ) ;
#242 = CARTESIAN_POINT ( 'NONE',  ( 0.01248750000000000901, 0.0000000000000000000, 0.07499999999999999722 ) ) ;
#243 = UNCERTAINTY_MEASURE_WITH_UNIT (LENGTH_MEASURE( 1.000000000000000082E-05 ), #220, 'distance_accuracy_value', 'NONE');
#244 = DIRECTION ( 'NONE',  ( 1.000000000000000000, 0.0000000000000000000, 0.0000000000000000000 ) ) ;
#245 = DIRECTION ( 'NONE',  ( -1.224646799147353454E-16, -0.0000000000000000000, -1.000000000000000000 ) ) ;
#246 = CARTESIAN_POINT ( 'NONE',  ( 0.0000000000000000000, 0.0000000000000000000, 1.500000000000000222 ) ) ;
#247 = CARTESIAN_POINT ( 'NONE',  ( 0.0000000000000000000, 0.0000000000000000000, 1.500000000000000222 ) ) ;
#248 = UNCERTAINTY_MEASURE_WITH_UNIT (LENGTH_MEASURE( 1.000000000000000082E-05 ), #99, 'distance_accuracy_value', 'NONE');
#249 = CARTESIAN_POINT ( 'NONE',  ( 0.0000000000000000000, 0.0000000000000000000, 0.0000000000000000000 ) ) ;
#250 = AXIS2_PLACEMENT_3D ( 'NONE', #73, #175, #198 ) ;
#251 = DIRECTION ( 'NONE',  ( 1.000000000000000000, 0.0000000000000000000, 0.0000000000000000000 ) ) ;
#252 = LINE ( 'NONE', #25, #211 ) ;
#253 = AXIS2_PLACEMENT_3D ( 'NONE', #156, #203, #129 ) ;
#254 = LINE ( 'NONE', #194, #123 ) ;
#255 = ADVANCED_FACE ( 'NONE', ( #325 ), #48, .T. ) ;
#256 = LINE ( 'NONE', #4, #224 ) ;
#257 = EDGE_CURVE ( 'NONE', #84, #141, #176, .T. ) ;
#258 = CONICAL_SURFACE ( 'NONE', #300, 0.04750000000000064587, 0.7853981633974466137 ) ;
#259 = ORIENTED_EDGE ( 'NONE', *, *, #92, .T. ) ;
#260 = EDGE_LOOP ( 'NONE', ( #38, #63, #209 ) ) ;
#261 = ADVANCED_FACE ( 'NONE', ( #303 ), #134, .T. ) ;
#262 = EDGE_LOOP ( 'NONE', ( #6, #233, #35 ) ) ;
#263 = CIRCLE ( 'NONE', #139, 0.01248750000000000034 ) ;
#264 = ORIENTED_EDGE ( 'NONE', *, *, #132, .T. ) ;
#265 = ORIENTED_EDGE ( 'NONE', *, *, #16, .T. ) ;
#266 = CARTESIAN_POINT ( 'NONE',  ( -0.04750000000000064587, 0.0000000000000000000, 1.500000000000000222 ) ) ;
#267 = CYLINDRICAL_SURFACE ( 'NONE', #180, 0.01248750000000000034 ) ;
#268 = AXIS2_PLACEMENT_3D ( 'NONE', #15, #117, #244 ) ;
#269 = DIRECTION ( 'NONE',  ( -1.000000000000000000, 0.0000000000000000000, 0.0000000000000000000 ) ) ;
#270 = PRESENTATION_STYLE_ASSIGNMENT (( #299 ) ) ;
#271 = FACE_OUTER_BOUND ( 'NONE', #236, .T. ) ;
#272 = DIRECTION ( 'NONE',  ( 1.000000000000000000, 0.0000000000000000000, 0.0000000000000000000 ) ) ;
#273 = CARTESIAN_POINT ( 'NONE',  ( -0.01248749999999999166, 4.591660092553109051E-18, 0.07499999999999999722 ) ) ;
#274 = CONICAL_SURFACE ( 'NONE', #217, 0.01248750000000000034, 0.1745329251994338915 ) ;
#275 = APPLICATION_PROTOCOL_DEFINITION ( 'draft international standard', 'automotive_design', 1998, #127 ) ;
#276 = CARTESIAN_POINT ( 'NONE',  ( 0.0000000000000000000, 0.0000000000000000000, 0.0000000000000000000 ) ) ;
#277 = APPLICATION_PROTOCOL_DEFINITION ( 'draft international standard', 'automotive_design', 1998, #305 ) ;
#278 = ADVANCED_FACE ( 'NONE', ( #131 ), #274, .T. ) ;
#279 = EDGE_CURVE ( 'NONE', #164, #86, #256, .T. ) ;
#280 = VECTOR ( 'NONE', #57, 39.37007874015748854 ) ;
#281 = DIRECTION ( 'NONE',  ( -1.000000000000000000, 0.0000000000000000000, 0.0000000000000000000 ) ) ;
#282 = LINE ( 'NONE', #79, #78 ) ;
#283 = EDGE_LOOP ( 'NONE', ( #112, #264 ) ) ;
#284 = COLOUR_RGB ( '',0.7921568627450980005, 0.8196078431372548767, 0.9333333333333333481 ) ;
#285 = ORIENTED_EDGE ( 'NONE', *, *, #145, .T. ) ;
#286 = ORIENTED_EDGE ( 'NONE', *, *, #60, .F. ) ;
#287 = ORIENTED_EDGE ( 'NONE', *, *, #192, .F. ) ;
#288 = ADVANCED_FACE ( 'NONE', ( #231 ), #258, .T. ) ;
#289 = LENGTH_MEASURE_WITH_UNIT ( LENGTH_MEASURE( 0.02539999999999999897 ), #111 );
#290 = AXIS2_PLACEMENT_3D ( 'NONE', #75, #245, #206 ) ;
#291 = VERTEX_POINT ( 'NONE', #201 ) ;
#292 = CARTESIAN_POINT ( 'NONE',  ( 0.04750000000000064587, 6.735557395310483192E-18, 1.500000000000000222 ) ) ;
#293 = DIRECTION ( 'NONE',  ( -0.7071067811865462405, 0.0000000000000000000, -0.7071067811865486830 ) ) ;
#294 = DIRECTION ( 'NONE',  ( -0.0000000000000000000, -0.0000000000000000000, -1.000000000000000000 ) ) ;
#295 = CARTESIAN_POINT ( 'NONE',  ( -0.01248749999999999860, 0.0000000000000000000, 0.01248750000000000207 ) ) ;
#296 = CARTESIAN_POINT ( 'NONE',  ( 0.06250000000000002776, 7.654042494670959086E-18, 1.485000000000000764 ) ) ;
#297 = DIRECTION ( 'NONE',  ( 0.0000000000000000000, 0.0000000000000000000, 1.000000000000000000 ) ) ;
#298 = EDGE_CURVE ( 'NONE', #164, #110, #282, .T. ) ;
#299 = SURFACE_STYLE_USAGE ( .BOTH. , #24 ) ;
#300 = AXIS2_PLACEMENT_3D ( 'NONE', #304, #81, #5 ) ;
#301 = MANIFOLD_SOLID_BREP ( 'Fillet1', #54 ) ;
#302 = FILL_AREA_STYLE ('',( #152 ) ) ;
#303 = FACE_OUTER_BOUND ( 'NONE', #310, .T. ) ;
#304 = CARTESIAN_POINT ( 'NONE',  ( 0.0000000000000000000, 0.0000000000000000000, 1.500000000000000222 ) ) ;
#305 = APPLICATION_CONTEXT ( 'automotive_design' ) ;
#306 = AXIS2_PLACEMENT_3D ( 'NONE', #69, #193, #272 ) ;
#307 = ORIENTED_EDGE ( 'NONE', *, *, #257, .F. ) ;
#308 = ORIENTED_EDGE ( 'NONE', *, *, #210, .F. ) ;
#309 = AXIS2_PLACEMENT_3D ( 'NONE', #43, #178, #324 ) ;
#310 = EDGE_LOOP ( 'NONE', ( #165, #66, #225, #36 ) ) ;
#311 = EDGE_LOOP ( 'NONE', ( #235, #12, #87, #82 ) ) ;
#312 = VERTEX_POINT ( 'NONE', #166 ) ;
#313 = AXIS2_PLACEMENT_3D ( 'NONE', #67, #169, #144 ) ;
#314 = DIRECTION ( 'NONE',  ( -1.224646799147353454E-16, -0.0000000000000000000, -1.000000000000000000 ) ) ;
#315 =( NAMED_UNIT ( * ) PLANE_ANGLE_UNIT ( ) SI_UNIT ( $, .RADIAN. ) );
#316 = CARTESIAN_POINT ( 'NONE',  ( 9.184850993605148746E-18, 0.0000000000000000000, 0.07499999999999999722 ) ) ;
#317 = CARTESIAN_POINT ( 'NONE',  ( 0.0000000000000000000, 0.0000000000000000000, 1.500000000000000222 ) ) ;
#318 = DIRECTION ( 'NONE',  ( -1.224646799147353454E-16, -0.0000000000000000000, -1.000000000000000000 ) ) ;
#319 = DIMENSIONAL_EXPONENTS ( 1.000000000000000000, 0.0000000000000000000, 0.0000000000000000000, 0.0000000000000000000, 0.0000000000000000000, 0.0000000000000000000, 0.0000000000000000000 ) ;
#320 = CARTESIAN_POINT ( 'NONE',  ( 0.0000000000000000000, 0.0000000000000000000, 0.0000000000000000000 ) ) ;
#321 = FACE_OUTER_BOUND ( 'NONE', #58, .T. ) ;
#322 = AXIS2_PLACEMENT_3D ( 'NONE', #30, #205, #281 ) ;
#323 =( LENGTH_UNIT ( ) NAMED_UNIT ( * ) SI_UNIT ( $, .METRE. ) );
#324 = DIRECTION ( 'NONE',  ( -1.000000000000000000, 0.0000000000000000000, 0.0000000000000000000 ) ) ;
#325 = FACE_OUTER_BOUND ( 'NONE', #260, .T. ) ;
ENDSEC;
END-ISO-10303-21;
