ISO-10303-21;
HEADER;
FILE_DESCRIPTION (( 'STEP AP214' ),
    '1' );
FILE_NAME ('Micro_SEM-109-04.STEP',
    '2021-09-02T01:21:57',
    ( '' ),
    ( '' ),
    'SwSTEP 2.0',
    'SolidWorks 2020',
    '' );
FILE_SCHEMA (( 'AUTOMOTIVE_DESIGN' ));
ENDSEC;

DATA;
#1 = ORIENTED_EDGE ( 'NONE', *, *, #290, .F. ) ;
#2 = EDGE_CURVE ( 'NONE', #4, #23, #265, .T. ) ;
#3 = PRESENTATION_LAYER_ASSIGNMENT (  '', '', ( #253 ) ) ;
#4 = VERTEX_POINT ( 'NONE', #83 ) ;
#5 = ADVANCED_FACE ( 'NONE', ( #102 ), #63, .T. ) ;
#6 = AXIS2_PLACEMENT_3D ( 'NONE', #263, #10, #202 ) ;
#7 = CONICAL_SURFACE ( 'NONE', #35, 0.04750000000000064587, 0.7853981633974457255 ) ;
#8 = FACE_OUTER_BOUND ( 'NONE', #111, .T. ) ;
#9 = CARTESIAN_POINT ( 'NONE',  ( 2.847869806807417895E-17, 0.0000000000000000000, 0.2325462173085509621 ) ) ;
#10 = DIRECTION ( 'NONE',  ( 0.0000000000000000000, 0.0000000000000000000, -1.000000000000000000 ) ) ;
#11 = DIRECTION ( 'NONE',  ( 1.000000000000000000, 0.0000000000000000000, -0.0000000000000000000 ) ) ;
#12 = DIRECTION ( 'NONE',  ( -1.000000000000000000, 0.0000000000000000000, 0.0000000000000000000 ) ) ;
#13 = CARTESIAN_POINT ( 'NONE',  ( 0.0000000000000000000, 0.0000000000000000000, 0.0000000000000000000 ) ) ;
#14 = FACE_OUTER_BOUND ( 'NONE', #171, .T. ) ;
#15 =( CONVERSION_BASED_UNIT ( 'INCH', #157 ) LENGTH_UNIT ( ) NAMED_UNIT ( #48 ) );
#16 = AXIS2_PLACEMENT_3D ( 'NONE', #9, #222, #122 ) ;
#17 =( NAMED_UNIT ( * ) SI_UNIT ( $, .STERADIAN. ) SOLID_ANGLE_UNIT ( ) );
#18 = ORIENTED_EDGE ( 'NONE', *, *, #244, .T. ) ;
#19 = EDGE_CURVE ( 'NONE', #259, #231, #112, .T. ) ;
#20 = ORIENTED_EDGE ( 'NONE', *, *, #166, .F. ) ;
#21 = AXIS2_PLACEMENT_3D ( 'NONE', #97, #101, #55 ) ;
#22 = CONICAL_SURFACE ( 'NONE', #53, 0.04750000000000064587, 0.7853981633974457255 ) ;
#23 = VERTEX_POINT ( 'NONE', #100 ) ;
#24 = DIRECTION ( 'NONE',  ( 0.0000000000000000000, 0.0000000000000000000, 1.000000000000000000 ) ) ;
#25 = AXIS2_PLACEMENT_3D ( 'NONE', #27, #264, #50 ) ;
#26 = DIRECTION ( 'NONE',  ( -1.224646799147353454E-16, -0.0000000000000000000, -1.000000000000000000 ) ) ;
#27 = CARTESIAN_POINT ( 'NONE',  ( 2.302335982397024786E-17, 0.0000000000000000000, 0.1880000000000000282 ) ) ;
#28 = DIRECTION ( 'NONE',  ( -0.0000000000000000000, -0.0000000000000000000, -1.000000000000000000 ) ) ;
#29 = LINE ( 'NONE', #73, #291 ) ;
#30 = DIRECTION ( 'NONE',  ( 0.7071067811865456854, 8.659560562354911904E-17, -0.7071067811865493491 ) ) ;
#31 = ADVANCED_BREP_SHAPE_REPRESENTATION ( 'Micro_SEM-109-04', ( #59, #85 ), #144 ) ;
#32 = CARTESIAN_POINT ( 'NONE',  ( 0.0000000000000000000, 0.0000000000000000000, 0.0000000000000000000 ) ) ;
#33 = CARTESIAN_POINT ( 'NONE',  ( 0.04750000000000064587, 6.735557395310482421E-18, 1.500000000000000222 ) ) ;
#34 = DIRECTION ( 'NONE',  ( 1.000000000000000000, 0.0000000000000000000, 0.0000000000000000000 ) ) ;
#35 = AXIS2_PLACEMENT_3D ( 'NONE', #152, #258, #188 ) ;
#36 = ORIENTED_EDGE ( 'NONE', *, *, #233, .T. ) ;
#37 = ORIENTED_EDGE ( 'NONE', *, *, #19, .F. ) ;
#38 = EDGE_LOOP ( 'NONE', ( #249, #227, #36, #241 ) ) ;
#39 = PRODUCT ( 'Micro_SEM-109-04', 'Micro_SEM-109-04', '', ( #145 ) ) ;
#40 = ORIENTED_EDGE ( 'NONE', *, *, #87, .T. ) ;
#41 = VECTOR ( 'NONE', #173, 39.37007874015748143 ) ;
#42 = EDGE_CURVE ( 'NONE', #269, #162, #270, .T. ) ;
#43 = ORIENTED_EDGE ( 'NONE', *, *, #52, .T. ) ;
#44 = DIMENSIONAL_EXPONENTS ( 1.000000000000000000, 0.0000000000000000000, 0.0000000000000000000, 0.0000000000000000000, 0.0000000000000000000, 0.0000000000000000000, 0.0000000000000000000 ) ;
#45 = AXIS2_PLACEMENT_3D ( 'NONE', #124, #218, #12 ) ;
#46 = CIRCLE ( 'NONE', #225, 0.04750000000000064587 ) ;
#47 = PRODUCT_DEFINITION ( 'UNKNOWN', '', #104, #186 ) ;
#48 = DIMENSIONAL_EXPONENTS ( 1.000000000000000000, 0.0000000000000000000, 0.0000000000000000000, 0.0000000000000000000, 0.0000000000000000000, 0.0000000000000000000, 0.0000000000000000000 ) ;
#49 = CARTESIAN_POINT ( 'NONE',  ( -0.05464529999999999388, 0.0000000000000000000, 1.338423834668937481E-17 ) ) ;
#50 = DIRECTION ( 'NONE',  ( 1.000000000000000000, 0.0000000000000000000, 0.0000000000000000000 ) ) ;
#51 = DIRECTION ( 'NONE',  ( -1.224646799147353454E-16, -0.0000000000000000000, -1.000000000000000000 ) ) ;
#52 = EDGE_CURVE ( 'NONE', #251, #23, #193, .T. ) ;
#53 = AXIS2_PLACEMENT_3D ( 'NONE', #281, #243, #70 ) ;
#54 = CYLINDRICAL_SURFACE ( 'NONE', #132, 0.05464530000000000776 ) ;
#55 = DIRECTION ( 'NONE',  ( 1.000000000000000000, 0.0000000000000000000, 0.0000000000000000000 ) ) ;
#56 =( NAMED_UNIT ( * ) SI_UNIT ( $, .STERADIAN. ) SOLID_ANGLE_UNIT ( ) );
#57 = FACE_OUTER_BOUND ( 'NONE', #91, .T. ) ;
#58 = ADVANCED_FACE ( 'NONE', ( #74 ), #293, .T. ) ;
#59 = MANIFOLD_SOLID_BREP ( 'Cut-Revolve1', #96 ) ;
#60 = CARTESIAN_POINT ( 'NONE',  ( 0.0000000000000000000, 0.0000000000000000000, 0.0000000000000000000 ) ) ;
#61 = SURFACE_SIDE_STYLE ('',( #267 ) ) ;
#62 = VECTOR ( 'NONE', #76, 39.37007874015748143 ) ;
#63 = CYLINDRICAL_SURFACE ( 'NONE', #103, 0.06250000000000000000 ) ;
#64 = UNCERTAINTY_MEASURE_WITH_UNIT (LENGTH_MEASURE( 1.000000000000000082E-05 ), #155, 'distance_accuracy_value', 'NONE');
#65 = VERTEX_POINT ( 'NONE', #79 ) ;
#66 = ORIENTED_EDGE ( 'NONE', *, *, #123, .T. ) ;
#67 = CIRCLE ( 'NONE', #140, 0.04750000000000064587 ) ;
#68 = EDGE_LOOP ( 'NONE', ( #133, #208 ) ) ;
#69 = ADVANCED_FACE ( 'NONE', ( #255 ), #292, .T. ) ;
#70 = DIRECTION ( 'NONE',  ( -1.000000000000000000, 0.0000000000000000000, 0.0000000000000000000 ) ) ;
#71 = EDGE_LOOP ( 'NONE', ( #142, #88, #18, #210 ) ) ;
#72 =( CONVERSION_BASED_UNIT ( 'INCH', #117 ) LENGTH_UNIT ( ) NAMED_UNIT ( #280 ) );
#73 = CARTESIAN_POINT ( 'NONE',  ( -0.05464529999999998000, 6.692119173344686636E-18, 0.1880000000000000282 ) ) ;
#74 = FACE_OUTER_BOUND ( 'NONE', #273, .T. ) ;
#75 =( GEOMETRIC_REPRESENTATION_CONTEXT ( 3 ) GLOBAL_UNCERTAINTY_ASSIGNED_CONTEXT ( ( #64 ) ) GLOBAL_UNIT_ASSIGNED_CONTEXT ( ( #155, #203, #84 ) ) REPRESENTATION_CONTEXT ( 'NONE', 'WORKASPACE' ) );
#76 = DIRECTION ( 'NONE',  ( -0.0000000000000000000, -0.0000000000000000000, -1.000000000000000000 ) ) ;
#77 = DIRECTION ( 'NONE',  ( 1.000000000000000000, 0.0000000000000000000, 0.0000000000000000000 ) ) ;
#78 = LINE ( 'NONE', #282, #277 ) ;
#79 = CARTESIAN_POINT ( 'NONE',  ( 0.06250000000000002776, 7.654042494670959086E-18, 0.2325462173085509621 ) ) ;
#80 = DIRECTION ( 'NONE',  ( 0.0000000000000000000, 0.0000000000000000000, 1.000000000000000000 ) ) ;
#81 = FILL_AREA_STYLE_COLOUR ( '', #289 ) ;
#82 =( NAMED_UNIT ( * ) PLANE_ANGLE_UNIT ( ) SI_UNIT ( $, .RADIAN. ) );
#83 = CARTESIAN_POINT ( 'NONE',  ( -0.06250000000000000000, 0.0000000000000000000, 1.485000000000000764 ) ) ;
#84 =( NAMED_UNIT ( * ) SI_UNIT ( $, .STERADIAN. ) SOLID_ANGLE_UNIT ( ) );
#85 = AXIS2_PLACEMENT_3D ( 'NONE', #60, #158, #34 ) ;
#86 = APPLICATION_CONTEXT ( 'automotive_design' ) ;
#87 = EDGE_CURVE ( 'NONE', #180, #4, #78, .T. ) ;
#88 = ORIENTED_EDGE ( 'NONE', *, *, #167, .T. ) ;
#89 =( LENGTH_UNIT ( ) NAMED_UNIT ( * ) SI_UNIT ( $, .METRE. ) );
#90 = ORIENTED_EDGE ( 'NONE', *, *, #290, .T. ) ;
#91 = EDGE_LOOP ( 'NONE', ( #137, #43, #299, #230 ) ) ;
#92 = EDGE_CURVE ( 'NONE', #23, #4, #153, .T. ) ;
#93 = ORIENTED_EDGE ( 'NONE', *, *, #233, .F. ) ;
#94 = ADVANCED_FACE ( 'NONE', ( #8 ), #107, .T. ) ;
#95 = EDGE_CURVE ( 'NONE', #180, #251, #46, .T. ) ;
#96 = CLOSED_SHELL ( 'NONE', ( #237, #94, #130, #58, #5, #69, #135, #108, #177, #211 ) ) ;
#97 = CARTESIAN_POINT ( 'NONE',  ( 0.0000000000000000000, 0.0000000000000000000, 1.485000000000000764 ) ) ;
#98 = DIRECTION ( 'NONE',  ( 0.0000000000000000000, 0.0000000000000000000, 1.000000000000000000 ) ) ;
#99 = CARTESIAN_POINT ( 'NONE',  ( -0.05464530000000000776, 0.0000000000000000000, 6.692119173344688177E-18 ) ) ;
#100 = CARTESIAN_POINT ( 'NONE',  ( 0.06250000000000000000, 7.654042494670956004E-18, 1.485000000000000764 ) ) ;
#101 = DIRECTION ( 'NONE',  ( 0.0000000000000000000, 0.0000000000000000000, -1.000000000000000000 ) ) ;
#102 = FACE_OUTER_BOUND ( 'NONE', #38, .T. ) ;
#103 = AXIS2_PLACEMENT_3D ( 'NONE', #159, #28, #134 ) ;
#104 = PRODUCT_DEFINITION_FORMATION_WITH_SPECIFIED_SOURCE ( 'ANY', '', #39, .NOT_KNOWN. ) ;
#105 = DIRECTION ( 'NONE',  ( -0.7071067811865456854, 0.0000000000000000000, -0.7071067811865493491 ) ) ;
#106 = FACE_OUTER_BOUND ( 'NONE', #204, .T. ) ;
#107 = CONICAL_SURFACE ( 'NONE', #25, 0.05464530000000000776, 0.1745329251994339192 ) ;
#108 = ADVANCED_FACE ( 'NONE', ( #14 ), #284, .T. ) ;
#109 = DIRECTION ( 'NONE',  ( 1.000000000000000000, 0.0000000000000000000, 0.0000000000000000000 ) ) ;
#110 = CARTESIAN_POINT ( 'NONE',  ( 0.05464530000000002857, 0.0000000000000000000, 0.1880000000000000282 ) ) ;
#111 = EDGE_LOOP ( 'NONE', ( #37, #164, #216, #1 ) ) ;
#112 = CIRCLE ( 'NONE', #127, 0.05464530000000000776 ) ;
#113 = CARTESIAN_POINT ( 'NONE',  ( 8.195482325149204388E-34, 0.0000000000000000000, 6.692119173344687407E-18 ) ) ;
#114 = ORIENTED_EDGE ( 'NONE', *, *, #244, .F. ) ;
#115 = PRESENTATION_STYLE_ASSIGNMENT (( #235 ) ) ;
#116 = ORIENTED_EDGE ( 'NONE', *, *, #156, .T. ) ;
#117 = LENGTH_MEASURE_WITH_UNIT ( LENGTH_MEASURE( 0.02539999999999999897 ), #89 );
#118 = ORIENTED_EDGE ( 'NONE', *, *, #146, .F. ) ;
#119 = FACE_OUTER_BOUND ( 'NONE', #169, .T. ) ;
#120 = CIRCLE ( 'NONE', #178, 0.05464530000000000776 ) ;
#121 = DIRECTION ( 'NONE',  ( -1.000000000000000000, 0.0000000000000000000, 1.224646799147353454E-16 ) ) ;
#122 = DIRECTION ( 'NONE',  ( 1.000000000000000000, 0.0000000000000000000, 0.0000000000000000000 ) ) ;
#123 = EDGE_CURVE ( 'NONE', #65, #183, #165, .T. ) ;
#124 = CARTESIAN_POINT ( 'NONE',  ( 0.0000000000000000000, 0.0000000000000000000, 1.500000000000000222 ) ) ;
#125 = DIRECTION ( 'NONE',  ( -0.1736481776669312194, 2.126576849575783625E-17, 0.9848077530122080203 ) ) ;
#126 = DIRECTION ( 'NONE',  ( 1.000000000000000000, 0.0000000000000000000, -0.0000000000000000000 ) ) ;
#127 = AXIS2_PLACEMENT_3D ( 'NONE', #228, #51, #261 ) ;
#128 = CARTESIAN_POINT ( 'NONE',  ( 0.05464530000000002857, 0.0000000000000000000, 0.1880000000000000282 ) ) ;
#129 = CARTESIAN_POINT ( 'NONE',  ( 0.05464529999999999388, 6.692119173344685866E-18, 9.478001694819074349E-34 ) ) ;
#130 = ADVANCED_FACE ( 'NONE', ( #57 ), #7, .T. ) ;
#131 = DIRECTION ( 'NONE',  ( -1.224646799147353454E-16, -0.0000000000000000000, -1.000000000000000000 ) ) ;
#132 = AXIS2_PLACEMENT_3D ( 'NONE', #13, #149, #242 ) ;
#133 = ORIENTED_EDGE ( 'NONE', *, *, #256, .T. ) ;
#134 = DIRECTION ( 'NONE',  ( -1.000000000000000000, 0.0000000000000000000, 0.0000000000000000000 ) ) ;
#135 = ADVANCED_FACE ( 'NONE', ( #106 ), #22, .T. ) ;
#136 = CARTESIAN_POINT ( 'NONE',  ( -0.05464529999999998000, 7.173080834007822861E-18, 0.1880000000000000282 ) ) ;
#137 = ORIENTED_EDGE ( 'NONE', *, *, #279, .F. ) ;
#138 = AXIS2_PLACEMENT_3D ( 'NONE', #190, #150, #245 ) ;
#139 = EDGE_LOOP ( 'NONE', ( #181, #254 ) ) ;
#140 = AXIS2_PLACEMENT_3D ( 'NONE', #200, #80, #109 ) ;
#141 = PRODUCT_DEFINITION_SHAPE ( 'NONE', 'NONE',  #47 ) ;
#142 = ORIENTED_EDGE ( 'NONE', *, *, #156, .F. ) ;
#143 = STYLED_ITEM ( 'NONE', ( #115 ), #59 ) ;
#144 =( GEOMETRIC_REPRESENTATION_CONTEXT ( 3 ) GLOBAL_UNCERTAINTY_ASSIGNED_CONTEXT ( ( #226 ) ) GLOBAL_UNIT_ASSIGNED_CONTEXT ( ( #15, #82, #17 ) ) REPRESENTATION_CONTEXT ( 'NONE', 'WORKASPACE' ) );
#145 = PRODUCT_CONTEXT ( 'NONE', #209, 'mechanical' ) ;
#146 = EDGE_CURVE ( 'NONE', #183, #65, #221, .T. ) ;
#147 = CARTESIAN_POINT ( 'NONE',  ( -0.06249999999999997224, 0.0000000000000000000, 0.2325462173085509621 ) ) ;
#148 = CYLINDRICAL_SURFACE ( 'NONE', #154, 0.05464530000000000776 ) ;
#149 = DIRECTION ( 'NONE',  ( -1.224646799147353454E-16, -0.0000000000000000000, -1.000000000000000000 ) ) ;
#150 = DIRECTION ( 'NONE',  ( -1.224646799147353454E-16, -0.0000000000000000000, -1.000000000000000000 ) ) ;
#151 = DIRECTION ( 'NONE',  ( 0.0000000000000000000, 0.0000000000000000000, 1.000000000000000000 ) ) ;
#152 = CARTESIAN_POINT ( 'NONE',  ( 0.0000000000000000000, 0.0000000000000000000, 1.500000000000000222 ) ) ;
#153 = CIRCLE ( 'NONE', #21, 0.06250000000000000000 ) ;
#154 = AXIS2_PLACEMENT_3D ( 'NONE', #239, #26, #121 ) ;
#155 =( CONVERSION_BASED_UNIT ( 'INCH', #266 ) LENGTH_UNIT ( ) NAMED_UNIT ( #44 ) );
#156 = EDGE_CURVE ( 'NONE', #231, #269, #257, .T. ) ;
#157 = LENGTH_MEASURE_WITH_UNIT ( LENGTH_MEASURE( 0.02539999999999999897 ), #229 );
#158 = DIRECTION ( 'NONE',  ( 0.0000000000000000000, 0.0000000000000000000, 1.000000000000000000 ) ) ;
#159 = CARTESIAN_POINT ( 'NONE',  ( 0.0000000000000000000, 0.0000000000000000000, 1.500000000000000222 ) ) ;
#160 = AXIS2_PLACEMENT_3D ( 'NONE', #32, #24, #11 ) ;
#161 = LINE ( 'NONE', #110, #240 ) ;
#162 = VERTEX_POINT ( 'NONE', #49 ) ;
#163 = ORIENTED_EDGE ( 'NONE', *, *, #19, .T. ) ;
#164 = ORIENTED_EDGE ( 'NONE', *, *, #166, .T. ) ;
#165 = CIRCLE ( 'NONE', #16, 0.06250000000000000000 ) ;
#166 = EDGE_CURVE ( 'NONE', #259, #183, #29, .T. ) ;
#167 = EDGE_CURVE ( 'NONE', #231, #259, #120, .T. ) ;
#168 = PLANE ( 'NONE',  #160 ) ;
#169 = EDGE_LOOP ( 'NONE', ( #163, #116, #274, #114 ) ) ;
#170 = FACE_OUTER_BOUND ( 'NONE', #71, .T. ) ;
#171 = EDGE_LOOP ( 'NONE', ( #20, #276, #90, #66 ) ) ;
#172 = COLOUR_RGB ( '',0.7921568627450980005, 0.8196078431372548767, 0.9333333333333333481 ) ;
#173 = DIRECTION ( 'NONE',  ( -1.224646799147353454E-16, -0.0000000000000000000, -1.000000000000000000 ) ) ;
#174 = CARTESIAN_POINT ( 'NONE',  ( 2.302335982397024786E-17, 0.0000000000000000000, 0.1880000000000000282 ) ) ;
#175 = APPLICATION_PROTOCOL_DEFINITION ( 'draft international standard', 'automotive_design', 1998, #209 ) ;
#176 = FILL_AREA_STYLE ('',( #81 ) ) ;
#177 = ADVANCED_FACE ( 'NONE', ( #170 ), #54, .T. ) ;
#178 = AXIS2_PLACEMENT_3D ( 'NONE', #236, #219, #189 ) ;
#179 = DIRECTION ( 'NONE',  ( -0.0000000000000000000, -0.0000000000000000000, -1.000000000000000000 ) ) ;
#180 = VERTEX_POINT ( 'NONE', #217 ) ;
#181 = ORIENTED_EDGE ( 'NONE', *, *, #95, .T. ) ;
#182 = ORIENTED_EDGE ( 'NONE', *, *, #52, .F. ) ;
#183 = VERTEX_POINT ( 'NONE', #147 ) ;
#184 = AXIS2_PLACEMENT_3D ( 'NONE', #197, #287, #77 ) ;
#185 = CARTESIAN_POINT ( 'NONE',  ( 0.0000000000000000000, 0.0000000000000000000, 1.500000000000000222 ) ) ;
#186 = PRODUCT_DEFINITION_CONTEXT ( 'detailed design', #86, 'design' ) ;
#187 = PRODUCT_RELATED_PRODUCT_CATEGORY ( 'part', '', ( #39 ) ) ;
#188 = DIRECTION ( 'NONE',  ( -1.000000000000000000, 0.0000000000000000000, 0.0000000000000000000 ) ) ;
#189 = DIRECTION ( 'NONE',  ( -1.000000000000000000, 0.0000000000000000000, 0.0000000000000000000 ) ) ;
#190 = CARTESIAN_POINT ( 'NONE',  ( 8.195482325149204388E-34, 0.0000000000000000000, 6.692119173344687407E-18 ) ) ;
#191 = LINE ( 'NONE', #285, #62 ) ;
#192 = AXIS2_PLACEMENT_3D ( 'NONE', #113, #206, #295 ) ;
#193 = LINE ( 'NONE', #283, #297 ) ;
#194 = FACE_OUTER_BOUND ( 'NONE', #68, .T. ) ;
#195 = ORIENTED_EDGE ( 'NONE', *, *, #92, .F. ) ;
#196 =( NAMED_UNIT ( * ) PLANE_ANGLE_UNIT ( ) SI_UNIT ( $, .RADIAN. ) );
#197 = CARTESIAN_POINT ( 'NONE',  ( 2.847869806807417895E-17, 0.0000000000000000000, 0.2325462173085509621 ) ) ;
#198 = AXIS2_PLACEMENT_3D ( 'NONE', #185, #98, #126 ) ;
#199 = VECTOR ( 'NONE', #179, 39.37007874015748143 ) ;
#200 = CARTESIAN_POINT ( 'NONE',  ( 0.0000000000000000000, 0.0000000000000000000, 1.500000000000000222 ) ) ;
#201 = FILL_AREA_STYLE_COLOUR ( '', #172 ) ;
#202 = DIRECTION ( 'NONE',  ( 1.000000000000000000, 0.0000000000000000000, 0.0000000000000000000 ) ) ;
#203 =( NAMED_UNIT ( * ) PLANE_ANGLE_UNIT ( ) SI_UNIT ( $, .RADIAN. ) );
#204 = EDGE_LOOP ( 'NONE', ( #182, #207, #40, #195 ) ) ;
#205 =( GEOMETRIC_REPRESENTATION_CONTEXT ( 3 ) GLOBAL_UNCERTAINTY_ASSIGNED_CONTEXT ( ( #252 ) ) GLOBAL_UNIT_ASSIGNED_CONTEXT ( ( #72, #196, #56 ) ) REPRESENTATION_CONTEXT ( 'NONE', 'WORKASPACE' ) );
#206 = DIRECTION ( 'NONE',  ( -1.224646799147353454E-16, -0.0000000000000000000, -1.000000000000000000 ) ) ;
#207 = ORIENTED_EDGE ( 'NONE', *, *, #95, .F. ) ;
#208 = ORIENTED_EDGE ( 'NONE', *, *, #42, .T. ) ;
#209 = APPLICATION_CONTEXT ( 'automotive_design' ) ;
#210 = ORIENTED_EDGE ( 'NONE', *, *, #42, .F. ) ;
#211 = ADVANCED_FACE ( 'NONE', ( #194 ), #168, .F. ) ;
#212 = SHAPE_DEFINITION_REPRESENTATION ( #141, #31 ) ;
#213 = DIRECTION ( 'NONE',  ( 1.000000000000000000, 0.0000000000000000000, 0.0000000000000000000 ) ) ;
#214 = VECTOR ( 'NONE', #131, 39.37007874015748143 ) ;
#215 = LINE ( 'NONE', #99, #214 ) ;
#216 = ORIENTED_EDGE ( 'NONE', *, *, #146, .T. ) ;
#217 = CARTESIAN_POINT ( 'NONE',  ( -0.04750000000000064587, 0.0000000000000000000, 1.500000000000000222 ) ) ;
#218 = DIRECTION ( 'NONE',  ( -0.0000000000000000000, -0.0000000000000000000, -1.000000000000000000 ) ) ;
#219 = DIRECTION ( 'NONE',  ( -1.224646799147353454E-16, -0.0000000000000000000, -1.000000000000000000 ) ) ;
#220 = MECHANICAL_DESIGN_GEOMETRIC_PRESENTATION_REPRESENTATION (  '', ( #143 ), #205 ) ;
#221 = CIRCLE ( 'NONE', #184, 0.06250000000000000000 ) ;
#222 = DIRECTION ( 'NONE',  ( -1.224646799147353454E-16, -0.0000000000000000000, -1.000000000000000000 ) ) ;
#223 = CARTESIAN_POINT ( 'NONE',  ( 0.06250000000000000000, 7.654042494670956004E-18, 1.500000000000000222 ) ) ;
#224 = SURFACE_STYLE_USAGE ( .BOTH. , #288 ) ;
#225 = AXIS2_PLACEMENT_3D ( 'NONE', #286, #151, #260 ) ;
#226 = UNCERTAINTY_MEASURE_WITH_UNIT (LENGTH_MEASURE( 1.000000000000000082E-05 ), #15, 'distance_accuracy_value', 'NONE');
#227 = ORIENTED_EDGE ( 'NONE', *, *, #92, .T. ) ;
#228 = CARTESIAN_POINT ( 'NONE',  ( 2.302335982397024786E-17, 0.0000000000000000000, 0.1880000000000000282 ) ) ;
#229 =( LENGTH_UNIT ( ) NAMED_UNIT ( * ) SI_UNIT ( $, .METRE. ) );
#230 = ORIENTED_EDGE ( 'NONE', *, *, #87, .F. ) ;
#231 = VERTEX_POINT ( 'NONE', #128 ) ;
#232 = ORIENTED_EDGE ( 'NONE', *, *, #271, .T. ) ;
#233 = EDGE_CURVE ( 'NONE', #4, #183, #191, .T. ) ;
#234 = APPLICATION_PROTOCOL_DEFINITION ( 'draft international standard', 'automotive_design', 1998, #86 ) ;
#235 = SURFACE_STYLE_USAGE ( .BOTH. , #61 ) ;
#236 = CARTESIAN_POINT ( 'NONE',  ( 2.302335982397024786E-17, 0.0000000000000000000, 0.1880000000000000282 ) ) ;
#237 = ADVANCED_FACE ( 'NONE', ( #119 ), #148, .T. ) ;
#238 = PRESENTATION_LAYER_ASSIGNMENT (  '', '', ( #143 ) ) ;
#239 = CARTESIAN_POINT ( 'NONE',  ( 0.0000000000000000000, 0.0000000000000000000, 0.0000000000000000000 ) ) ;
#240 = VECTOR ( 'NONE', #294, 39.37007874015748143 ) ;
#241 = ORIENTED_EDGE ( 'NONE', *, *, #123, .F. ) ;
#242 = DIRECTION ( 'NONE',  ( -1.000000000000000000, 0.0000000000000000000, 1.224646799147353454E-16 ) ) ;
#243 = DIRECTION ( 'NONE',  ( 0.0000000000000000000, 0.0000000000000000000, -1.000000000000000000 ) ) ;
#244 = EDGE_CURVE ( 'NONE', #259, #162, #215, .T. ) ;
#245 = DIRECTION ( 'NONE',  ( -1.000000000000000000, 0.0000000000000000000, 1.224646799147353700E-16 ) ) ;
#246 = CARTESIAN_POINT ( 'NONE',  ( 0.05464530000000000776, 6.692119173344686636E-18, -6.692119173344688177E-18 ) ) ;
#247 = CIRCLE ( 'NONE', #192, 0.05464529999999999388 ) ;
#248 = FILL_AREA_STYLE ('',( #201 ) ) ;
#249 = ORIENTED_EDGE ( 'NONE', *, *, #271, .F. ) ;
#250 = PRESENTATION_STYLE_ASSIGNMENT (( #224 ) ) ;
#251 = VERTEX_POINT ( 'NONE', #33 ) ;
#252 = UNCERTAINTY_MEASURE_WITH_UNIT (LENGTH_MEASURE( 1.000000000000000082E-05 ), #72, 'distance_accuracy_value', 'NONE');
#253 = STYLED_ITEM ( 'NONE', ( #250 ), #31 ) ;
#254 = ORIENTED_EDGE ( 'NONE', *, *, #279, .T. ) ;
#255 = FACE_OUTER_BOUND ( 'NONE', #139, .T. ) ;
#256 = EDGE_CURVE ( 'NONE', #162, #269, #247, .T. ) ;
#257 = LINE ( 'NONE', #246, #41 ) ;
#258 = DIRECTION ( 'NONE',  ( 0.0000000000000000000, 0.0000000000000000000, -1.000000000000000000 ) ) ;
#259 = VERTEX_POINT ( 'NONE', #136 ) ;
#260 = DIRECTION ( 'NONE',  ( 1.000000000000000000, 0.0000000000000000000, 0.0000000000000000000 ) ) ;
#261 = DIRECTION ( 'NONE',  ( -1.000000000000000000, 0.0000000000000000000, 0.0000000000000000000 ) ) ;
#262 = DIRECTION ( 'NONE',  ( 1.224646799147353454E-16, 0.0000000000000000000, 1.000000000000000000 ) ) ;
#263 = CARTESIAN_POINT ( 'NONE',  ( 0.0000000000000000000, 0.0000000000000000000, 1.485000000000000764 ) ) ;
#264 = DIRECTION ( 'NONE',  ( 1.224646799147353454E-16, 0.0000000000000000000, 1.000000000000000000 ) ) ;
#265 = CIRCLE ( 'NONE', #6, 0.06250000000000000000 ) ;
#266 = LENGTH_MEASURE_WITH_UNIT ( LENGTH_MEASURE( 0.02539999999999999897 ), #268 );
#267 = SURFACE_STYLE_FILL_AREA ( #176 ) ;
#268 =( LENGTH_UNIT ( ) NAMED_UNIT ( * ) SI_UNIT ( $, .METRE. ) );
#269 = VERTEX_POINT ( 'NONE', #129 ) ;
#270 = CIRCLE ( 'NONE', #138, 0.05464529999999999388 ) ;
#271 = EDGE_CURVE ( 'NONE', #23, #65, #298, .T. ) ;
#272 = SURFACE_STYLE_FILL_AREA ( #248 ) ;
#273 = EDGE_LOOP ( 'NONE', ( #296, #232, #118, #93 ) ) ;
#274 = ORIENTED_EDGE ( 'NONE', *, *, #256, .F. ) ;
#275 = AXIS2_PLACEMENT_3D ( 'NONE', #174, #262, #213 ) ;
#276 = ORIENTED_EDGE ( 'NONE', *, *, #167, .F. ) ;
#277 = VECTOR ( 'NONE', #105, 39.37007874015748143 ) ;
#278 = MECHANICAL_DESIGN_GEOMETRIC_PRESENTATION_REPRESENTATION (  '', ( #253 ), #75 ) ;
#279 = EDGE_CURVE ( 'NONE', #251, #180, #67, .T. ) ;
#280 = DIMENSIONAL_EXPONENTS ( 1.000000000000000000, 0.0000000000000000000, 0.0000000000000000000, 0.0000000000000000000, 0.0000000000000000000, 0.0000000000000000000, 0.0000000000000000000 ) ;
#281 = CARTESIAN_POINT ( 'NONE',  ( 0.0000000000000000000, 0.0000000000000000000, 1.500000000000000222 ) ) ;
#282 = CARTESIAN_POINT ( 'NONE',  ( -0.04750000000000064587, 0.0000000000000000000, 1.500000000000000222 ) ) ;
#283 = CARTESIAN_POINT ( 'NONE',  ( 0.04750000000000064587, 5.817072295950006528E-18, 1.500000000000000222 ) ) ;
#284 = CONICAL_SURFACE ( 'NONE', #275, 0.05464530000000000776, 0.1745329251994339192 ) ;
#285 = CARTESIAN_POINT ( 'NONE',  ( -0.06250000000000000000, 0.0000000000000000000, 1.500000000000000222 ) ) ;
#286 = CARTESIAN_POINT ( 'NONE',  ( 0.0000000000000000000, 0.0000000000000000000, 1.500000000000000222 ) ) ;
#287 = DIRECTION ( 'NONE',  ( -1.224646799147353454E-16, -0.0000000000000000000, -1.000000000000000000 ) ) ;
#288 = SURFACE_SIDE_STYLE ('',( #272 ) ) ;
#289 = COLOUR_RGB ( '',0.7921568627450980005, 0.8196078431372548767, 0.9333333333333333481 ) ;
#290 = EDGE_CURVE ( 'NONE', #231, #65, #161, .T. ) ;
#291 = VECTOR ( 'NONE', #125, 39.37007874015747433 ) ;
#292 = PLANE ( 'NONE',  #198 ) ;
#293 = CYLINDRICAL_SURFACE ( 'NONE', #45, 0.06250000000000000000 ) ;
#294 = DIRECTION ( 'NONE',  ( 0.1736481776669314137, 0.0000000000000000000, 0.9848077530122077983 ) ) ;
#295 = DIRECTION ( 'NONE',  ( -1.000000000000000000, 0.0000000000000000000, 1.224646799147353700E-16 ) ) ;
#296 = ORIENTED_EDGE ( 'NONE', *, *, #2, .T. ) ;
#297 = VECTOR ( 'NONE', #30, 39.37007874015748143 ) ;
#298 = LINE ( 'NONE', #223, #199 ) ;
#299 = ORIENTED_EDGE ( 'NONE', *, *, #2, .F. ) ;
ENDSEC;
END-ISO-10303-21;
