ISO-10303-21;
HEADER;
FILE_DESCRIPTION (( 'STEP AP214' ),
    '1' );
FILE_NAME ('Micro_SFPM-020-30.STEP',
    '2021-09-02T06:38:57',
    ( '' ),
    ( '' ),
    'SwSTEP 2.0',
    'SolidWorks 2020',
    '' );
FILE_SCHEMA (( 'AUTOMOTIVE_DESIGN' ));
ENDSEC;

DATA;
#1 = ORIENTED_EDGE ( 'NONE', *, *, #230, .T. ) ;
#2 = CIRCLE ( 'NONE', #23, 0.05905500000000001720 ) ;
#3 = ORIENTED_EDGE ( 'NONE', *, *, #185, .T. ) ;
#4 = DIRECTION ( 'NONE',  ( -1.224646799147353207E-16, -0.0000000000000000000, -1.000000000000000000 ) ) ;
#5 = ADVANCED_FACE ( 'NONE', ( #260 ), #75, .T. ) ;
#6 = VECTOR ( 'NONE', #291, 39.37007874015748143 ) ;
#7 = ORIENTED_EDGE ( 'NONE', *, *, #119, .F. ) ;
#8 = ADVANCED_FACE ( 'NONE', ( #74 ), #161, .T. ) ;
#9 = APPLICATION_PROTOCOL_DEFINITION ( 'draft international standard', 'automotive_design', 1998, #242 ) ;
#10 = DIRECTION ( 'NONE',  ( -1.000000000000000000, 0.0000000000000000000, 0.0000000000000000000 ) ) ;
#11 = FILL_AREA_STYLE ('',( #31 ) ) ;
#12 = VERTEX_POINT ( 'NONE', #49 ) ;
#13 = AXIS2_PLACEMENT_3D ( 'NONE', #294, #205, #84 ) ;
#14 = DIRECTION ( 'NONE',  ( -1.000000000000000000, 0.0000000000000000000, 1.224646799147353207E-16 ) ) ;
#15 = APPLICATION_PROTOCOL_DEFINITION ( 'draft international standard', 'automotive_design', 1998, #159 ) ;
#16 = DIRECTION ( 'NONE',  ( 1.000000000000000000, 0.0000000000000000000, 0.0000000000000000000 ) ) ;
#17 = CARTESIAN_POINT ( 'NONE',  ( 7.155653632252811139E-17, 0.0000000000000000000, 0.5843034609844124372 ) ) ;
#18 = ORIENTED_EDGE ( 'NONE', *, *, #119, .T. ) ;
#19 = CARTESIAN_POINT ( 'NONE',  ( 0.0000000000000000000, 0.0000000000000000000, 2.244094000000000033 ) ) ;
#20 = AXIS2_PLACEMENT_3D ( 'NONE', #297, #57, #226 ) ;
#21 = EDGE_CURVE ( 'NONE', #12, #284, #50, .T. ) ;
#22 = DIMENSIONAL_EXPONENTS ( 1.000000000000000000, 0.0000000000000000000, 0.0000000000000000000, 0.0000000000000000000, 0.0000000000000000000, 0.0000000000000000000, 0.0000000000000000000 ) ;
#23 = AXIS2_PLACEMENT_3D ( 'NONE', #112, #144, #53 ) ;
#24 = PRODUCT_DEFINITION ( 'UNKNOWN', '', #183, #253 ) ;
#25 = CARTESIAN_POINT ( 'NONE',  ( -0.03933062999999992898, 4.816613013794884661E-18, 0.4724409999999999998 ) ) ;
#26 = COLOUR_RGB ( '',0.7921568627450980005, 0.8196078431372548767, 0.9333333333333333481 ) ;
#27 = LINE ( 'NONE', #94, #43 ) ;
#28 = DIRECTION ( 'NONE',  ( 0.0000000000000000000, 0.0000000000000000000, -1.000000000000000000 ) ) ;
#29 = CARTESIAN_POINT ( 'NONE',  ( 0.04405499999999960142, 6.313666573004155588E-18, 2.244094000000000033 ) ) ;
#30 = ORIENTED_EDGE ( 'NONE', *, *, #37, .F. ) ;
#31 = FILL_AREA_STYLE_COLOUR ( '', #26 ) ;
#32 = ORIENTED_EDGE ( 'NONE', *, *, #212, .F. ) ;
#33 = CARTESIAN_POINT ( 'NONE',  ( 0.0000000000000000000, 0.0000000000000000000, 0.0000000000000000000 ) ) ;
#34 = ORIENTED_EDGE ( 'NONE', *, *, #156, .F. ) ;
#35 = AXIS2_PLACEMENT_3D ( 'NONE', #269, #107, #197 ) ;
#36 = CARTESIAN_POINT ( 'NONE',  ( 0.0000000000000000000, 0.0000000000000000000, 0.0000000000000000000 ) ) ;
#37 = EDGE_CURVE ( 'NONE', #79, #268, #136, .T. ) ;
#38 = ORIENTED_EDGE ( 'NONE', *, *, #212, .T. ) ;
#39 = CARTESIAN_POINT ( 'NONE',  ( 7.155653632252811139E-17, 0.0000000000000000000, 0.5843034609844124372 ) ) ;
#40 = FACE_OUTER_BOUND ( 'NONE', #195, .T. ) ;
#41 = FACE_OUTER_BOUND ( 'NONE', #146, .T. ) ;
#42 = EDGE_CURVE ( 'NONE', #268, #12, #143, .T. ) ;
#43 = VECTOR ( 'NONE', #95, 39.37007874015748143 ) ;
#44 = DIRECTION ( 'NONE',  ( -1.000000000000000000, 0.0000000000000000000, 0.0000000000000000000 ) ) ;
#45 = PRODUCT_DEFINITION_SHAPE ( 'NONE', 'NONE',  #24 ) ;
#46 = CIRCLE ( 'NONE', #104, 0.05905500000000001720 ) ;
#47 =( GEOMETRIC_REPRESENTATION_CONTEXT ( 3 ) GLOBAL_UNCERTAINTY_ASSIGNED_CONTEXT ( ( #248 ) ) GLOBAL_UNIT_ASSIGNED_CONTEXT ( ( #52, #277, #48 ) ) REPRESENTATION_CONTEXT ( 'NONE', 'WORKASPACE' ) );
#48 =( NAMED_UNIT ( * ) SI_UNIT ( $, .STERADIAN. ) SOLID_ANGLE_UNIT ( ) );
#49 = CARTESIAN_POINT ( 'NONE',  ( 0.05905500000000001720, 7.232151672364695422E-18, 2.229093999999999465 ) ) ;
#50 = CIRCLE ( 'NONE', #99, 0.05905500000000001720 ) ;
#51 = STYLED_ITEM ( 'NONE', ( #286 ), #180 ) ;
#52 =( CONVERSION_BASED_UNIT ( 'INCH', #214 ) LENGTH_UNIT ( ) NAMED_UNIT ( #22 ) );
#53 = DIRECTION ( 'NONE',  ( 1.000000000000000000, 0.0000000000000000000, 0.0000000000000000000 ) ) ;
#54 = CIRCLE ( 'NONE', #13, 0.03933062999999998449 ) ;
#55 = DIRECTION ( 'NONE',  ( 1.000000000000000000, 0.0000000000000000000, 0.0000000000000000000 ) ) ;
#56 = ORIENTED_EDGE ( 'NONE', *, *, #65, .T. ) ;
#57 = DIRECTION ( 'NONE',  ( 1.224646799147353207E-16, 0.0000000000000000000, 1.000000000000000000 ) ) ;
#58 = LENGTH_MEASURE_WITH_UNIT ( LENGTH_MEASURE( 0.02539999999999999897 ), #192 );
#59 = VERTEX_POINT ( 'NONE', #174 ) ;
#60 = DIRECTION ( 'NONE',  ( -1.000000000000000000, 0.0000000000000000000, 1.224646799147352961E-16 ) ) ;
#61 = ORIENTED_EDGE ( 'NONE', *, *, #137, .T. ) ;
#62 = DIRECTION ( 'NONE',  ( 0.0000000000000000000, 0.0000000000000000000, 1.000000000000000000 ) ) ;
#63 = EDGE_LOOP ( 'NONE', ( #61, #18 ) ) ;
#64 = CARTESIAN_POINT ( 'NONE',  ( -0.03933062999999999837, 0.0000000000000000000, 9.633226027589770864E-18 ) ) ;
#65 = EDGE_CURVE ( 'NONE', #108, #273, #46, .T. ) ;
#66 = ORIENTED_EDGE ( 'NONE', *, *, #21, .T. ) ;
#67 = CARTESIAN_POINT ( 'NONE',  ( -0.03933062999999992898, 6.024382343079789657E-18, 0.4724409999999999998 ) ) ;
#68 = DIRECTION ( 'NONE',  ( 1.000000000000000000, 0.0000000000000000000, 0.0000000000000000000 ) ) ;
#69 = STYLED_ITEM ( 'NONE', ( #116 ), #274 ) ;
#70 = CIRCLE ( 'NONE', #78, 0.04405499999999960142 ) ;
#71 = AXIS2_PLACEMENT_3D ( 'NONE', #72, #142, #68 ) ;
#72 = CARTESIAN_POINT ( 'NONE',  ( 5.785733584359747758E-17, 0.0000000000000000000, 0.4724409999999999998 ) ) ;
#73 = FILL_AREA_STYLE ('',( #114 ) ) ;
#74 = FACE_OUTER_BOUND ( 'NONE', #148, .T. ) ;
#75 = CONICAL_SURFACE ( 'NONE', #140, 0.04405499999999960142, 0.7853981633974446153 ) ;
#76 = AXIS2_PLACEMENT_3D ( 'NONE', #109, #153, #125 ) ;
#77 = SURFACE_SIDE_STYLE ('',( #209 ) ) ;
#78 = AXIS2_PLACEMENT_3D ( 'NONE', #19, #62, #16 ) ;
#79 = VERTEX_POINT ( 'NONE', #264 ) ;
#80 = FACE_OUTER_BOUND ( 'NONE', #167, .T. ) ;
#81 = VERTEX_POINT ( 'NONE', #64 ) ;
#82 = FACE_OUTER_BOUND ( 'NONE', #63, .T. ) ;
#83 = VERTEX_POINT ( 'NONE', #67 ) ;
#84 = DIRECTION ( 'NONE',  ( -1.000000000000000000, 0.0000000000000000000, 0.0000000000000000000 ) ) ;
#85 = CIRCLE ( 'NONE', #239, 0.03933062999999998449 ) ;
#86 = DIRECTION ( 'NONE',  ( -1.224646799147353207E-16, -0.0000000000000000000, -1.000000000000000000 ) ) ;
#87 = ORIENTED_EDGE ( 'NONE', *, *, #295, .F. ) ;
#88 = FACE_OUTER_BOUND ( 'NONE', #173, .T. ) ;
#89 = VECTOR ( 'NONE', #232, 39.37007874015748143 ) ;
#90 = ADVANCED_FACE ( 'NONE', ( #40 ), #231, .T. ) ;
#91 = CARTESIAN_POINT ( 'NONE',  ( 0.05905500000000001720, 7.232151672364695422E-18, 2.244094000000000033 ) ) ;
#92 = VECTOR ( 'NONE', #4, 39.37007874015748143 ) ;
#93 = ADVANCED_FACE ( 'NONE', ( #82 ), #171, .F. ) ;
#94 = CARTESIAN_POINT ( 'NONE',  ( -0.04405499999999960142, 0.0000000000000000000, 2.244094000000000033 ) ) ;
#95 = DIRECTION ( 'NONE',  ( -0.7071067811865449082, 0.0000000000000000000, -0.7071067811865501263 ) ) ;
#96 = LINE ( 'NONE', #25, #261 ) ;
#97 = EDGE_CURVE ( 'NONE', #196, #59, #265, .T. ) ;
#98 = DIRECTION ( 'NONE',  ( -0.0000000000000000000, -0.0000000000000000000, -1.000000000000000000 ) ) ;
#99 = AXIS2_PLACEMENT_3D ( 'NONE', #190, #28, #115 ) ;
#100 = SURFACE_SIDE_STYLE ('',( #122 ) ) ;
#101 = ORIENTED_EDGE ( 'NONE', *, *, #251, .F. ) ;
#102 = ORIENTED_EDGE ( 'NONE', *, *, #105, .T. ) ;
#103 = DIRECTION ( 'NONE',  ( -1.000000000000000000, 0.0000000000000000000, 0.0000000000000000000 ) ) ;
#104 = AXIS2_PLACEMENT_3D ( 'NONE', #39, #86, #200 ) ;
#105 = EDGE_CURVE ( 'NONE', #268, #79, #70, .T. ) ;
#106 = EDGE_LOOP ( 'NONE', ( #236, #66, #216, #124 ) ) ;
#107 = DIRECTION ( 'NONE',  ( 0.0000000000000000000, 0.0000000000000000000, 1.000000000000000000 ) ) ;
#108 = VERTEX_POINT ( 'NONE', #224 ) ;
#109 = CARTESIAN_POINT ( 'NONE',  ( 5.898649710075393742E-34, 0.0000000000000000000, 4.816613013794885432E-18 ) ) ;
#110 = CYLINDRICAL_SURFACE ( 'NONE', #176, 0.05905500000000001720 ) ;
#111 = DIRECTION ( 'NONE',  ( 0.1736481776669314692, 0.0000000000000000000, 0.9848077530122077983 ) ) ;
#112 = CARTESIAN_POINT ( 'NONE',  ( 0.0000000000000000000, 0.0000000000000000000, 2.229093999999999465 ) ) ;
#113 = CIRCLE ( 'NONE', #206, 0.03933062999999999837 ) ;
#114 = FILL_AREA_STYLE_COLOUR ( '', #249 ) ;
#115 = DIRECTION ( 'NONE',  ( 1.000000000000000000, 0.0000000000000000000, 0.0000000000000000000 ) ) ;
#116 = PRESENTATION_STYLE_ASSIGNMENT (( #135 ) ) ;
#117 = DIRECTION ( 'NONE',  ( 1.000000000000000000, 0.0000000000000000000, 0.0000000000000000000 ) ) ;
#118 =( NAMED_UNIT ( * ) PLANE_ANGLE_UNIT ( ) SI_UNIT ( $, .RADIAN. ) );
#119 = EDGE_CURVE ( 'NONE', #59, #81, #113, .T. ) ;
#120 = CONICAL_SURFACE ( 'NONE', #275, 0.04405499999999960142, 0.7853981633974446153 ) ;
#121 = ORIENTED_EDGE ( 'NONE', *, *, #210, .F. ) ;
#122 = SURFACE_STYLE_FILL_AREA ( #11 ) ;
#123 = EDGE_LOOP ( 'NONE', ( #263, #151, #87, #218 ) ) ;
#124 = ORIENTED_EDGE ( 'NONE', *, *, #65, .F. ) ;
#125 = DIRECTION ( 'NONE',  ( -1.000000000000000000, 0.0000000000000000000, 1.224646799147352961E-16 ) ) ;
#126 = MECHANICAL_DESIGN_GEOMETRIC_PRESENTATION_REPRESENTATION (  '', ( #51 ), #150 ) ;
#127 = ORIENTED_EDGE ( 'NONE', *, *, #282, .T. ) ;
#128 = FACE_OUTER_BOUND ( 'NONE', #129, .T. ) ;
#129 = EDGE_LOOP ( 'NONE', ( #220, #102 ) ) ;
#130 = CYLINDRICAL_SURFACE ( 'NONE', #198, 0.03933062999999998449 ) ;
#131 = ORIENTED_EDGE ( 'NONE', *, *, #21, .F. ) ;
#132 = LINE ( 'NONE', #134, #266 ) ;
#133 = CIRCLE ( 'NONE', #298, 0.05905500000000001720 ) ;
#134 = CARTESIAN_POINT ( 'NONE',  ( 0.03933063000000004694, 0.0000000000000000000, 0.4724409999999999998 ) ) ;
#135 = SURFACE_STYLE_USAGE ( .BOTH. , #77 ) ;
#136 = CIRCLE ( 'NONE', #255, 0.04405499999999960142 ) ;
#137 = EDGE_CURVE ( 'NONE', #81, #59, #215, .T. ) ;
#138 = LINE ( 'NONE', #91, #89 ) ;
#139 = CLOSED_SHELL ( 'NONE', ( #208, #90, #5, #8, #166, #193, #145, #228, #175, #93 ) ) ;
#140 = AXIS2_PLACEMENT_3D ( 'NONE', #278, #257, #10 ) ;
#141 = VECTOR ( 'NONE', #258, 39.37007874015748143 ) ;
#142 = DIRECTION ( 'NONE',  ( 1.224646799147353207E-16, 0.0000000000000000000, 1.000000000000000000 ) ) ;
#143 = LINE ( 'NONE', #233, #6 ) ;
#144 = DIRECTION ( 'NONE',  ( 0.0000000000000000000, 0.0000000000000000000, -1.000000000000000000 ) ) ;
#145 = ADVANCED_FACE ( 'NONE', ( #41 ), #120, .T. ) ;
#146 = EDGE_LOOP ( 'NONE', ( #293, #30, #1, #131 ) ) ;
#147 = DIRECTION ( 'NONE',  ( -1.224646799147353207E-16, -0.0000000000000000000, -1.000000000000000000 ) ) ;
#148 = EDGE_LOOP ( 'NONE', ( #240, #296, #121, #154 ) ) ;
#149 = DIRECTION ( 'NONE',  ( 0.0000000000000000000, 0.0000000000000000000, -1.000000000000000000 ) ) ;
#150 =( GEOMETRIC_REPRESENTATION_CONTEXT ( 3 ) GLOBAL_UNCERTAINTY_ASSIGNED_CONTEXT ( ( #165 ) ) GLOBAL_UNIT_ASSIGNED_CONTEXT ( ( #234, #118, #292 ) ) REPRESENTATION_CONTEXT ( 'NONE', 'WORKASPACE' ) );
#151 = ORIENTED_EDGE ( 'NONE', *, *, #42, .T. ) ;
#152 = CARTESIAN_POINT ( 'NONE',  ( 5.898649710075393742E-34, 0.0000000000000000000, 4.816613013794885432E-18 ) ) ;
#153 = DIRECTION ( 'NONE',  ( -1.224646799147353207E-16, -0.0000000000000000000, -1.000000000000000000 ) ) ;
#154 = ORIENTED_EDGE ( 'NONE', *, *, #243, .F. ) ;
#155 = DIRECTION ( 'NONE',  ( -1.000000000000000000, 0.0000000000000000000, 0.0000000000000000000 ) ) ;
#156 = EDGE_CURVE ( 'NONE', #196, #108, #132, .T. ) ;
#157 = UNCERTAINTY_MEASURE_WITH_UNIT (LENGTH_MEASURE( 1.000000000000000082E-05 ), #271, 'distance_accuracy_value', 'NONE');
#158 =( LENGTH_UNIT ( ) NAMED_UNIT ( * ) SI_UNIT ( $, .METRE. ) );
#159 = APPLICATION_CONTEXT ( 'automotive_design' ) ;
#160 = CARTESIAN_POINT ( 'NONE',  ( -0.03933062999999998449, 0.0000000000000000000, 4.816613013794884661E-18 ) ) ;
#161 = CYLINDRICAL_SURFACE ( 'NONE', #189, 0.05905500000000001720 ) ;
#162 =( LENGTH_UNIT ( ) NAMED_UNIT ( * ) SI_UNIT ( $, .METRE. ) );
#163 = DIRECTION ( 'NONE',  ( 0.0000000000000000000, 0.0000000000000000000, 1.000000000000000000 ) ) ;
#164 = AXIS2_PLACEMENT_3D ( 'NONE', #36, #179, #14 ) ;
#165 = UNCERTAINTY_MEASURE_WITH_UNIT (LENGTH_MEASURE( 1.000000000000000082E-05 ), #234, 'distance_accuracy_value', 'NONE');
#166 = ADVANCED_FACE ( 'NONE', ( #207 ), #110, .T. ) ;
#167 = EDGE_LOOP ( 'NONE', ( #3, #203, #201, #32 ) ) ;
#168 = VECTOR ( 'NONE', #217, 39.37007874015748143 ) ;
#169 = CARTESIAN_POINT ( 'NONE',  ( 0.0000000000000000000, 0.0000000000000000000, 0.0000000000000000000 ) ) ;
#170 = EDGE_LOOP ( 'NONE', ( #290, #101, #285, #56 ) ) ;
#171 = PLANE ( 'NONE',  #289 ) ;
#172 = SHAPE_DEFINITION_REPRESENTATION ( #45, #180 ) ;
#173 = EDGE_LOOP ( 'NONE', ( #178, #181, #38, #7 ) ) ;
#174 = CARTESIAN_POINT ( 'NONE',  ( 0.03933062999999999837, 4.816613013794885432E-18, 9.478001694819074349E-34 ) ) ;
#175 = ADVANCED_FACE ( 'NONE', ( #88 ), #238, .T. ) ;
#176 = AXIS2_PLACEMENT_3D ( 'NONE', #202, #299, #103 ) ;
#177 = DIRECTION ( 'NONE',  ( 0.0000000000000000000, 0.0000000000000000000, 1.000000000000000000 ) ) ;
#178 = ORIENTED_EDGE ( 'NONE', *, *, #97, .F. ) ;
#179 = DIRECTION ( 'NONE',  ( -1.224646799147353207E-16, -0.0000000000000000000, -1.000000000000000000 ) ) ;
#180 = ADVANCED_BREP_SHAPE_REPRESENTATION ( 'Micro_SFPM-020-30', ( #274, #191 ), #246 ) ;
#181 = ORIENTED_EDGE ( 'NONE', *, *, #251, .T. ) ;
#182 = LENGTH_MEASURE_WITH_UNIT ( LENGTH_MEASURE( 0.02539999999999999897 ), #158 );
#183 = PRODUCT_DEFINITION_FORMATION_WITH_SPECIFIED_SOURCE ( 'ANY', '', #270, .NOT_KNOWN. ) ;
#184 = DIMENSIONAL_EXPONENTS ( 1.000000000000000000, 0.0000000000000000000, 0.0000000000000000000, 0.0000000000000000000, 0.0000000000000000000, 0.0000000000000000000, 0.0000000000000000000 ) ;
#185 = EDGE_CURVE ( 'NONE', #83, #196, #54, .T. ) ;
#186 = DIRECTION ( 'NONE',  ( -1.224646799147353207E-16, -0.0000000000000000000, -1.000000000000000000 ) ) ;
#187 = CARTESIAN_POINT ( 'NONE',  ( 0.0000000000000000000, 0.0000000000000000000, 2.244094000000000033 ) ) ;
#188 = CARTESIAN_POINT ( 'NONE',  ( -0.05905500000000001720, 0.0000000000000000000, 2.244094000000000033 ) ) ;
#189 = AXIS2_PLACEMENT_3D ( 'NONE', #280, #98, #252 ) ;
#190 = CARTESIAN_POINT ( 'NONE',  ( 0.0000000000000000000, 0.0000000000000000000, 2.229093999999999465 ) ) ;
#191 = AXIS2_PLACEMENT_3D ( 'NONE', #194, #259, #55 ) ;
#192 =( LENGTH_UNIT ( ) NAMED_UNIT ( * ) SI_UNIT ( $, .METRE. ) );
#193 = ADVANCED_FACE ( 'NONE', ( #128 ), #219, .T. ) ;
#194 = CARTESIAN_POINT ( 'NONE',  ( 0.0000000000000000000, 0.0000000000000000000, 0.0000000000000000000 ) ) ;
#195 = EDGE_LOOP ( 'NONE', ( #222, #127, #204, #34 ) ) ;
#196 = VERTEX_POINT ( 'NONE', #288 ) ;
#197 = DIRECTION ( 'NONE',  ( 1.000000000000000000, 0.0000000000000000000, -0.0000000000000000000 ) ) ;
#198 = AXIS2_PLACEMENT_3D ( 'NONE', #169, #262, #221 ) ;
#199 = SURFACE_STYLE_USAGE ( .BOTH. , #100 ) ;
#200 = DIRECTION ( 'NONE',  ( 1.000000000000000000, 0.0000000000000000000, 0.0000000000000000000 ) ) ;
#201 = ORIENTED_EDGE ( 'NONE', *, *, #137, .F. ) ;
#202 = CARTESIAN_POINT ( 'NONE',  ( 0.0000000000000000000, 0.0000000000000000000, 2.244094000000000033 ) ) ;
#203 = ORIENTED_EDGE ( 'NONE', *, *, #97, .T. ) ;
#204 = ORIENTED_EDGE ( 'NONE', *, *, #210, .T. ) ;
#205 = DIRECTION ( 'NONE',  ( -1.224646799147353207E-16, -0.0000000000000000000, -1.000000000000000000 ) ) ;
#206 = AXIS2_PLACEMENT_3D ( 'NONE', #152, #241, #60 ) ;
#207 = FACE_OUTER_BOUND ( 'NONE', #106, .T. ) ;
#208 = ADVANCED_FACE ( 'NONE', ( #80 ), #130, .T. ) ;
#209 = SURFACE_STYLE_FILL_AREA ( #73 ) ;
#210 = EDGE_CURVE ( 'NONE', #273, #108, #133, .T. ) ;
#211 =( NAMED_UNIT ( * ) SI_UNIT ( $, .STERADIAN. ) SOLID_ANGLE_UNIT ( ) );
#212 = EDGE_CURVE ( 'NONE', #83, #81, #276, .T. ) ;
#213 = DIRECTION ( 'NONE',  ( -0.1736481776669312471, 2.126576849575783933E-17, 0.9848077530122077983 ) ) ;
#214 = LENGTH_MEASURE_WITH_UNIT ( LENGTH_MEASURE( 0.02539999999999999897 ), #162 );
#215 = CIRCLE ( 'NONE', #76, 0.03933062999999999837 ) ;
#216 = ORIENTED_EDGE ( 'NONE', *, *, #243, .T. ) ;
#217 = DIRECTION ( 'NONE',  ( -1.224646799147353207E-16, -0.0000000000000000000, -1.000000000000000000 ) ) ;
#218 = ORIENTED_EDGE ( 'NONE', *, *, #230, .F. ) ;
#219 = PLANE ( 'NONE',  #35 ) ;
#220 = ORIENTED_EDGE ( 'NONE', *, *, #37, .T. ) ;
#221 = DIRECTION ( 'NONE',  ( -1.000000000000000000, 0.0000000000000000000, 1.224646799147353207E-16 ) ) ;
#222 = ORIENTED_EDGE ( 'NONE', *, *, #185, .F. ) ;
#223 = DIMENSIONAL_EXPONENTS ( 1.000000000000000000, 0.0000000000000000000, 0.0000000000000000000, 0.0000000000000000000, 0.0000000000000000000, 0.0000000000000000000, 0.0000000000000000000 ) ;
#224 = CARTESIAN_POINT ( 'NONE',  ( 0.05905500000000007965, 7.232151672364703126E-18, 0.5843034609844124372 ) ) ;
#225 = PRESENTATION_LAYER_ASSIGNMENT (  '', '', ( #69 ) ) ;
#226 = DIRECTION ( 'NONE',  ( 1.000000000000000000, 0.0000000000000000000, 0.0000000000000000000 ) ) ;
#227 = CONICAL_SURFACE ( 'NONE', #71, 0.03933062999999998449, 0.1745329251994339748 ) ;
#228 = ADVANCED_FACE ( 'NONE', ( #254 ), #227, .T. ) ;
#229 = CARTESIAN_POINT ( 'NONE',  ( 5.785733584359747758E-17, 0.0000000000000000000, 0.4724409999999999998 ) ) ;
#230 = EDGE_CURVE ( 'NONE', #79, #284, #27, .T. ) ;
#231 = CONICAL_SURFACE ( 'NONE', #20, 0.03933062999999998449, 0.1745329251994339748 ) ;
#232 = DIRECTION ( 'NONE',  ( -0.0000000000000000000, -0.0000000000000000000, -1.000000000000000000 ) ) ;
#233 = CARTESIAN_POINT ( 'NONE',  ( 0.04405499999999960142, 5.395181473643616524E-18, 2.244094000000000033 ) ) ;
#234 =( CONVERSION_BASED_UNIT ( 'INCH', #58 ) LENGTH_UNIT ( ) NAMED_UNIT ( #223 ) );
#235 = EDGE_CURVE ( 'NONE', #12, #108, #138, .T. ) ;
#236 = ORIENTED_EDGE ( 'NONE', *, *, #235, .F. ) ;
#237 = DIRECTION ( 'NONE',  ( 1.000000000000000000, 0.0000000000000000000, 0.0000000000000000000 ) ) ;
#238 = CYLINDRICAL_SURFACE ( 'NONE', #164, 0.03933062999999998449 ) ;
#239 = AXIS2_PLACEMENT_3D ( 'NONE', #229, #186, #44 ) ;
#240 = ORIENTED_EDGE ( 'NONE', *, *, #295, .T. ) ;
#241 = DIRECTION ( 'NONE',  ( -1.224646799147353207E-16, -0.0000000000000000000, -1.000000000000000000 ) ) ;
#242 = APPLICATION_CONTEXT ( 'automotive_design' ) ;
#243 = EDGE_CURVE ( 'NONE', #284, #273, #247, .T. ) ;
#244 = CARTESIAN_POINT ( 'NONE',  ( 0.0000000000000000000, 0.0000000000000000000, 2.244094000000000033 ) ) ;
#245 = DIRECTION ( 'NONE',  ( 1.000000000000000000, 0.0000000000000000000, -0.0000000000000000000 ) ) ;
#246 =( GEOMETRIC_REPRESENTATION_CONTEXT ( 3 ) GLOBAL_UNCERTAINTY_ASSIGNED_CONTEXT ( ( #157 ) ) GLOBAL_UNIT_ASSIGNED_CONTEXT ( ( #271, #250, #211 ) ) REPRESENTATION_CONTEXT ( 'NONE', 'WORKASPACE' ) );
#247 = LINE ( 'NONE', #188, #141 ) ;
#248 = UNCERTAINTY_MEASURE_WITH_UNIT (LENGTH_MEASURE( 1.000000000000000082E-05 ), #52, 'distance_accuracy_value', 'NONE');
#249 = COLOUR_RGB ( '',0.7921568627450980005, 0.8196078431372548767, 0.9333333333333333481 ) ;
#250 =( NAMED_UNIT ( * ) PLANE_ANGLE_UNIT ( ) SI_UNIT ( $, .RADIAN. ) );
#251 = EDGE_CURVE ( 'NONE', #196, #83, #85, .T. ) ;
#252 = DIRECTION ( 'NONE',  ( -1.000000000000000000, 0.0000000000000000000, 0.0000000000000000000 ) ) ;
#253 = PRODUCT_DEFINITION_CONTEXT ( 'detailed design', #159, 'design' ) ;
#254 = FACE_OUTER_BOUND ( 'NONE', #170, .T. ) ;
#255 = AXIS2_PLACEMENT_3D ( 'NONE', #187, #163, #117 ) ;
#256 = PRESENTATION_LAYER_ASSIGNMENT (  '', '', ( #51 ) ) ;
#257 = DIRECTION ( 'NONE',  ( 0.0000000000000000000, 0.0000000000000000000, -1.000000000000000000 ) ) ;
#258 = DIRECTION ( 'NONE',  ( -0.0000000000000000000, -0.0000000000000000000, -1.000000000000000000 ) ) ;
#259 = DIRECTION ( 'NONE',  ( 0.0000000000000000000, 0.0000000000000000000, 1.000000000000000000 ) ) ;
#260 = FACE_OUTER_BOUND ( 'NONE', #123, .T. ) ;
#261 = VECTOR ( 'NONE', #213, 39.37007874015748143 ) ;
#262 = DIRECTION ( 'NONE',  ( -1.224646799147353207E-16, -0.0000000000000000000, -1.000000000000000000 ) ) ;
#263 = ORIENTED_EDGE ( 'NONE', *, *, #105, .F. ) ;
#264 = CARTESIAN_POINT ( 'NONE',  ( -0.04405499999999960142, 0.0000000000000000000, 2.244094000000000033 ) ) ;
#265 = LINE ( 'NONE', #267, #168 ) ;
#266 = VECTOR ( 'NONE', #111, 39.37007874015748143 ) ;
#267 = CARTESIAN_POINT ( 'NONE',  ( 0.03933062999999998449, 4.816613013794884661E-18, -4.816613013794884661E-18 ) ) ;
#268 = VERTEX_POINT ( 'NONE', #29 ) ;
#269 = CARTESIAN_POINT ( 'NONE',  ( 0.0000000000000000000, 0.0000000000000000000, 2.244094000000000033 ) ) ;
#270 = PRODUCT ( 'Micro_SFPM-020-30', 'Micro_SFPM-020-30', '', ( #283 ) ) ;
#271 =( CONVERSION_BASED_UNIT ( 'INCH', #182 ) LENGTH_UNIT ( ) NAMED_UNIT ( #184 ) );
#272 = MECHANICAL_DESIGN_GEOMETRIC_PRESENTATION_REPRESENTATION (  '', ( #69 ), #47 ) ;
#273 = VERTEX_POINT ( 'NONE', #279 ) ;
#274 = MANIFOLD_SOLID_BREP ( 'Cut-Revolve1', #139 ) ;
#275 = AXIS2_PLACEMENT_3D ( 'NONE', #244, #149, #155 ) ;
#276 = LINE ( 'NONE', #160, #92 ) ;
#277 =( NAMED_UNIT ( * ) PLANE_ANGLE_UNIT ( ) SI_UNIT ( $, .RADIAN. ) );
#278 = CARTESIAN_POINT ( 'NONE',  ( 0.0000000000000000000, 0.0000000000000000000, 2.244094000000000033 ) ) ;
#279 = CARTESIAN_POINT ( 'NONE',  ( -0.05905499999999994781, 0.0000000000000000000, 0.5843034609844124372 ) ) ;
#280 = CARTESIAN_POINT ( 'NONE',  ( 0.0000000000000000000, 0.0000000000000000000, 2.244094000000000033 ) ) ;
#281 = CARTESIAN_POINT ( 'NONE',  ( -0.05905500000000001720, 0.0000000000000000000, 2.229093999999999465 ) ) ;
#282 = EDGE_CURVE ( 'NONE', #83, #273, #96, .T. ) ;
#283 = PRODUCT_CONTEXT ( 'NONE', #242, 'mechanical' ) ;
#284 = VERTEX_POINT ( 'NONE', #281 ) ;
#285 = ORIENTED_EDGE ( 'NONE', *, *, #156, .T. ) ;
#286 = PRESENTATION_STYLE_ASSIGNMENT (( #199 ) ) ;
#287 = PRODUCT_RELATED_PRODUCT_CATEGORY ( 'part', '', ( #270 ) ) ;
#288 = CARTESIAN_POINT ( 'NONE',  ( 0.03933063000000004694, 0.0000000000000000000, 0.4724409999999999998 ) ) ;
#289 = AXIS2_PLACEMENT_3D ( 'NONE', #33, #177, #245 ) ;
#290 = ORIENTED_EDGE ( 'NONE', *, *, #282, .F. ) ;
#291 = DIRECTION ( 'NONE',  ( 0.7071067811865449082, 8.659560562354900811E-17, -0.7071067811865501263 ) ) ;
#292 =( NAMED_UNIT ( * ) SI_UNIT ( $, .STERADIAN. ) SOLID_ANGLE_UNIT ( ) );
#293 = ORIENTED_EDGE ( 'NONE', *, *, #42, .F. ) ;
#294 = CARTESIAN_POINT ( 'NONE',  ( 5.785733584359747758E-17, 0.0000000000000000000, 0.4724409999999999998 ) ) ;
#295 = EDGE_CURVE ( 'NONE', #284, #12, #2, .T. ) ;
#296 = ORIENTED_EDGE ( 'NONE', *, *, #235, .T. ) ;
#297 = CARTESIAN_POINT ( 'NONE',  ( 5.785733584359747758E-17, 0.0000000000000000000, 0.4724409999999999998 ) ) ;
#298 = AXIS2_PLACEMENT_3D ( 'NONE', #17, #147, #237 ) ;
#299 = DIRECTION ( 'NONE',  ( -0.0000000000000000000, -0.0000000000000000000, -1.000000000000000000 ) ) ;
ENDSEC;
END-ISO-10303-21;
