ISO-10303-21;
HEADER;
FILE_DESCRIPTION (( 'STEP AP214' ),
    '1' );
FILE_NAME ('Micro_BMSM-020-2.STEP',
    '2021-09-03T16:01:33',
    ( '' ),
    ( '' ),
    'SwSTEP 2.0',
    'SolidWorks 2020',
    '' );
FILE_SCHEMA (( 'AUTOMOTIVE_DESIGN' ));
ENDSEC;

DATA;
#1 = VECTOR ( 'NONE', #137, 39.37007874015748143 ) ;
#2 = COLOUR_RGB ( '',0.7921568627450980005, 0.8196078431372548767, 0.9333333333333333481 ) ;
#3 = DIRECTION ( 'NONE',  ( -1.000000000000000000, 0.0000000000000000000, 0.0000000000000000000 ) ) ;
#4 = ADVANCED_FACE ( 'NONE', ( #92 ), #172, .T. ) ;
#5 = VECTOR ( 'NONE', #264, 39.37007874015748143 ) ;
#6 = ORIENTED_EDGE ( 'NONE', *, *, #98, .F. ) ;
#7 =( CONVERSION_BASED_UNIT ( 'INCH', #55 ) LENGTH_UNIT ( ) NAMED_UNIT ( #103 ) );
#8 = DIRECTION ( 'NONE',  ( -1.224646799147353207E-16, -0.0000000000000000000, -1.000000000000000000 ) ) ;
#9 = VERTEX_POINT ( 'NONE', #37 ) ;
#10 = ADVANCED_FACE ( 'NONE', ( #77 ), #79, .T. ) ;
#11 = EDGE_CURVE ( 'NONE', #121, #9, #177, .T. ) ;
#12 = FACE_OUTER_BOUND ( 'NONE', #66, .T. ) ;
#13 = DIRECTION ( 'NONE',  ( -1.000000000000000000, 0.0000000000000000000, 1.224646799147353207E-16 ) ) ;
#14 = ORIENTED_EDGE ( 'NONE', *, *, #308, .T. ) ;
#15 = DIRECTION ( 'NONE',  ( -1.000000000000000000, 0.0000000000000000000, 0.0000000000000000000 ) ) ;
#16 = LINE ( 'NONE', #309, #5 ) ;
#17 = MECHANICAL_DESIGN_GEOMETRIC_PRESENTATION_REPRESENTATION (  '', ( #81 ), #181 ) ;
#18 = ORIENTED_EDGE ( 'NONE', *, *, #246, .F. ) ;
#19 = DIRECTION ( 'NONE',  ( 1.000000000000000000, 0.0000000000000000000, 0.0000000000000000000 ) ) ;
#20 = DIRECTION ( 'NONE',  ( 1.000000000000000000, 0.0000000000000000000, 0.0000000000000000000 ) ) ;
#21 = AXIS2_PLACEMENT_3D ( 'NONE', #196, #276, #82 ) ;
#22 = ORIENTED_EDGE ( 'NONE', *, *, #165, .T. ) ;
#23 = CARTESIAN_POINT ( 'NONE',  ( 0.03933063000000000531, 0.0000000000000000000, 0.1181100000000000066 ) ) ;
#24 = AXIS2_PLACEMENT_3D ( 'NONE', #160, #319, #85 ) ;
#25 = PRESENTATION_STYLE_ASSIGNMENT (( #151 ) ) ;
#26 = CARTESIAN_POINT ( 'NONE',  ( 0.0000000000000000000, 0.0000000000000000000, 0.0000000000000000000 ) ) ;
#27 =( NAMED_UNIT ( * ) PLANE_ANGLE_UNIT ( ) SI_UNIT ( $, .RADIAN. ) );
#28 = DIRECTION ( 'NONE',  ( 1.224646799147353207E-16, 0.0000000000000000000, 1.000000000000000000 ) ) ;
#29 = ORIENTED_EDGE ( 'NONE', *, *, #318, .T. ) ;
#30 = ORIENTED_EDGE ( 'NONE', *, *, #83, .F. ) ;
#31 = CIRCLE ( 'NONE', #292, 0.03933062999999998449 ) ;
#32 = DIRECTION ( 'NONE',  ( -1.000000000000000000, 0.0000000000000000000, 0.0000000000000000000 ) ) ;
#33 = ORIENTED_EDGE ( 'NONE', *, *, #320, .T. ) ;
#34 = DIRECTION ( 'NONE',  ( 0.0000000000000000000, -1.000000000000000000, 0.0000000000000000000 ) ) ;
#35 = FACE_OUTER_BOUND ( 'NONE', #47, .T. ) ;
#36 = CARTESIAN_POINT ( 'NONE',  ( -0.03933062999999997061, 6.024382343079789657E-18, 0.1181100000000000066 ) ) ;
#37 = CARTESIAN_POINT ( 'NONE',  ( -0.03933062999999997755, 0.0000000000000000000, 0.03933063000000000531 ) ) ;
#38 = CARTESIAN_POINT ( 'NONE',  ( 4.816613013794885432E-18, 0.0000000000000000000, 0.03933062999999999837 ) ) ;
#39 = ORIENTED_EDGE ( 'NONE', *, *, #254, .F. ) ;
#40 = DIRECTION ( 'NONE',  ( -1.224646799147353207E-16, -0.0000000000000000000, -1.000000000000000000 ) ) ;
#41 = APPLICATION_CONTEXT ( 'automotive_design' ) ;
#42 = ADVANCED_FACE ( 'NONE', ( #170 ), #158, .T. ) ;
#43 =( CONVERSION_BASED_UNIT ( 'INCH', #266 ) LENGTH_UNIT ( ) NAMED_UNIT ( #294 ) );
#44 = EDGE_LOOP ( 'NONE', ( #6, #193, #236 ) ) ;
#45 = CYLINDRICAL_SURFACE ( 'NONE', #96, 0.05905500000000000332 ) ;
#46 = PRESENTATION_LAYER_ASSIGNMENT (  '', '', ( #81 ) ) ;
#47 = EDGE_LOOP ( 'NONE', ( #30, #231, #210, #232 ) ) ;
#48 = CARTESIAN_POINT ( 'NONE',  ( 0.04405499999999973326, 5.395181473643630390E-18, 1.496062999999999921 ) ) ;
#49 =( NAMED_UNIT ( * ) PLANE_ANGLE_UNIT ( ) SI_UNIT ( $, .RADIAN. ) );
#50 = ADVANCED_BREP_SHAPE_REPRESENTATION ( 'Micro_BMSM-020-2', ( #285, #272 ), #241 ) ;
#51 = ADVANCED_FACE ( 'NONE', ( #35 ), #185, .T. ) ;
#52 = AXIS2_PLACEMENT_3D ( 'NONE', #321, #239, #267 ) ;
#53 = FILL_AREA_STYLE ('',( #300 ) ) ;
#54 = DIRECTION ( 'NONE',  ( -1.000000000000000000, 0.0000000000000000000, 0.0000000000000000000 ) ) ;
#55 = LENGTH_MEASURE_WITH_UNIT ( LENGTH_MEASURE( 0.02539999999999999897 ), #149 );
#56 = CARTESIAN_POINT ( 'NONE',  ( 1.446430334472939084E-17, 0.0000000000000000000, 0.1181100000000000066 ) ) ;
#57 = EDGE_LOOP ( 'NONE', ( #215, #325, #39, #306 ) ) ;
#58 = EDGE_LOOP ( 'NONE', ( #212, #310, #29, #242 ) ) ;
#59 = ADVANCED_FACE ( 'NONE', ( #12 ), #322, .T. ) ;
#60 = EDGE_LOOP ( 'NONE', ( #105, #89, #129, #255 ) ) ;
#61 = CARTESIAN_POINT ( 'NONE',  ( 0.0000000000000000000, 0.0000000000000000000, 1.496062999999999921 ) ) ;
#62 = EDGE_CURVE ( 'NONE', #136, #209, #180, .T. ) ;
#63 = CIRCLE ( 'NONE', #225, 0.03933062999999998449 ) ;
#64 = CIRCLE ( 'NONE', #302, 0.04405499999999973326 ) ;
#65 = CARTESIAN_POINT ( 'NONE',  ( 0.0000000000000000000, 0.0000000000000000000, 0.0000000000000000000 ) ) ;
#66 = EDGE_LOOP ( 'NONE', ( #194, #252, #153, #228 ) ) ;
#67 = CARTESIAN_POINT ( 'NONE',  ( 1.446430334472939084E-17, 0.0000000000000000000, 0.1181100000000000066 ) ) ;
#68 = FACE_OUTER_BOUND ( 'NONE', #274, .T. ) ;
#69 = AXIS2_PLACEMENT_3D ( 'NONE', #259, #187, #195 ) ;
#70 = DIRECTION ( 'NONE',  ( -0.0000000000000000000, -0.0000000000000000000, -1.000000000000000000 ) ) ;
#71 = CIRCLE ( 'NONE', #133, 0.04405499999999973326 ) ;
#72 = ORIENTED_EDGE ( 'NONE', *, *, #165, .F. ) ;
#73 = CARTESIAN_POINT ( 'NONE',  ( -0.05905500000000000332, 0.0000000000000000000, 1.481062999999999574 ) ) ;
#74 =( NAMED_UNIT ( * ) PLANE_ANGLE_UNIT ( ) SI_UNIT ( $, .RADIAN. ) );
#75 = EDGE_CURVE ( 'NONE', #152, #311, #138, .T. ) ;
#76 = APPLICATION_CONTEXT ( 'automotive_design' ) ;
#77 = FACE_OUTER_BOUND ( 'NONE', #58, .T. ) ;
#78 = DIRECTION ( 'NONE',  ( 1.000000000000000000, 0.0000000000000000000, 0.0000000000000000000 ) ) ;
#79 = CYLINDRICAL_SURFACE ( 'NONE', #301, 0.03933062999999998449 ) ;
#80 = ADVANCED_FACE ( 'NONE', ( #134 ), #91, .T. ) ;
#81 = STYLED_ITEM ( 'NONE', ( #203 ), #285 ) ;
#82 = DIRECTION ( 'NONE',  ( 1.000000000000000000, 0.0000000000000000000, 0.0000000000000000000 ) ) ;
#83 = EDGE_CURVE ( 'NONE', #152, #136, #288, .T. ) ;
#84 = VECTOR ( 'NONE', #290, 39.37007874015747433 ) ;
#85 = DIRECTION ( 'NONE',  ( 1.000000000000000000, 0.0000000000000000000, 0.0000000000000000000 ) ) ;
#86 = ORIENTED_EDGE ( 'NONE', *, *, #295, .F. ) ;
#87 = CARTESIAN_POINT ( 'NONE',  ( 1.446430334472939084E-17, 0.0000000000000000000, 0.1181100000000000066 ) ) ;
#88 = PRESENTATION_LAYER_ASSIGNMENT (  '', '', ( #124 ) ) ;
#89 = ORIENTED_EDGE ( 'NONE', *, *, #308, .F. ) ;
#90 = CARTESIAN_POINT ( 'NONE',  ( 2.816350382366003081E-17, 0.0000000000000000000, 0.2299724609844124579 ) ) ;
#91 = PLANE ( 'NONE',  #69 ) ;
#92 = FACE_OUTER_BOUND ( 'NONE', #253, .T. ) ;
#93 = UNCERTAINTY_MEASURE_WITH_UNIT (LENGTH_MEASURE( 1.000000000000000082E-05 ), #7, 'distance_accuracy_value', 'NONE');
#94 = DIRECTION ( 'NONE',  ( 1.000000000000000000, 0.0000000000000000000, 0.0000000000000000000 ) ) ;
#95 = SURFACE_STYLE_FILL_AREA ( #118 ) ;
#96 = AXIS2_PLACEMENT_3D ( 'NONE', #143, #289, #3 ) ;
#97 = SURFACE_STYLE_USAGE ( .BOTH. , #171 ) ;
#98 = EDGE_CURVE ( 'NONE', #106, #189, #157, .T. ) ;
#99 = VECTOR ( 'NONE', #249, 39.37007874015748143 ) ;
#100 = PRODUCT ( 'Micro_BMSM-020-2', 'Micro_BMSM-020-2', '', ( #131 ) ) ;
#101 = DIRECTION ( 'NONE',  ( 0.0000000000000000000, 0.0000000000000000000, 1.000000000000000000 ) ) ;
#102 = CARTESIAN_POINT ( 'NONE',  ( 4.816613013794885432E-18, 0.0000000000000000000, 0.03933062999999999837 ) ) ;
#103 = DIMENSIONAL_EXPONENTS ( 1.000000000000000000, 0.0000000000000000000, 0.0000000000000000000, 0.0000000000000000000, 0.0000000000000000000, 0.0000000000000000000, 0.0000000000000000000 ) ;
#104 = COLOUR_RGB ( '',0.7921568627450980005, 0.8196078431372548767, 0.9333333333333333481 ) ;
#105 = ORIENTED_EDGE ( 'NONE', *, *, #303, .F. ) ;
#106 = VERTEX_POINT ( 'NONE', #284 ) ;
#107 =( GEOMETRIC_REPRESENTATION_CONTEXT ( 3 ) GLOBAL_UNCERTAINTY_ASSIGNED_CONTEXT ( ( #93 ) ) GLOBAL_UNIT_ASSIGNED_CONTEXT ( ( #7, #27, #127 ) ) REPRESENTATION_CONTEXT ( 'NONE', 'WORKASPACE' ) );
#108 = DIRECTION ( 'NONE',  ( -1.000000000000000000, 0.0000000000000000000, 2.170579261049422841E-16 ) ) ;
#109 = CARTESIAN_POINT ( 'NONE',  ( 0.03933063000000000531, 0.0000000000000000000, 0.1181100000000000066 ) ) ;
#110 = DIRECTION ( 'NONE',  ( 0.0000000000000000000, 0.0000000000000000000, -1.000000000000000000 ) ) ;
#111 = AXIS2_PLACEMENT_3D ( 'NONE', #126, #227, #188 ) ;
#112 = CIRCLE ( 'NONE', #24, 0.05905500000000000332 ) ;
#113 = DIRECTION ( 'NONE',  ( 1.000000000000000000, 0.0000000000000000000, 0.0000000000000000000 ) ) ;
#114 = DIRECTION ( 'NONE',  ( -0.0000000000000000000, -0.0000000000000000000, -1.000000000000000000 ) ) ;
#115 = DIRECTION ( 'NONE',  ( 1.224646799147353207E-16, 0.0000000000000000000, 1.000000000000000000 ) ) ;
#116 = DIRECTION ( 'NONE',  ( 0.1736481776669313859, 0.0000000000000000000, 0.9848077530122077983 ) ) ;
#117 = AXIS2_PLACEMENT_3D ( 'NONE', #87, #8, #32 ) ;
#118 = FILL_AREA_STYLE ('',( #167 ) ) ;
#119 = CIRCLE ( 'NONE', #52, 0.03933062999999999837 ) ;
#120 = CARTESIAN_POINT ( 'NONE',  ( -0.04405499999999973326, 0.0000000000000000000, 1.496062999999999921 ) ) ;
#121 = VERTEX_POINT ( 'NONE', #36 ) ;
#122 = DIRECTION ( 'NONE',  ( -1.000000000000000000, 0.0000000000000000000, 2.170579261049422841E-16 ) ) ;
#123 =( NAMED_UNIT ( * ) SI_UNIT ( $, .STERADIAN. ) SOLID_ANGLE_UNIT ( ) );
#124 = STYLED_ITEM ( 'NONE', ( #25 ), #50 ) ;
#125 = DIRECTION ( 'NONE',  ( -1.224646799147353207E-16, -0.0000000000000000000, -1.000000000000000000 ) ) ;
#126 = CARTESIAN_POINT ( 'NONE',  ( 0.0000000000000000000, 0.0000000000000000000, 1.496062999999999921 ) ) ;
#127 =( NAMED_UNIT ( * ) SI_UNIT ( $, .STERADIAN. ) SOLID_ANGLE_UNIT ( ) );
#128 = VECTOR ( 'NONE', #261, 39.37007874015748143 ) ;
#129 = ORIENTED_EDGE ( 'NONE', *, *, #199, .T. ) ;
#130 = ADVANCED_FACE ( 'NONE', ( #191 ), #141, .T. ) ;
#131 = PRODUCT_CONTEXT ( 'NONE', #41, 'mechanical' ) ;
#132 = EDGE_CURVE ( 'NONE', #311, #209, #286, .T. ) ;
#133 = AXIS2_PLACEMENT_3D ( 'NONE', #169, #101, #78 ) ;
#134 = FACE_OUTER_BOUND ( 'NONE', #313, .T. ) ;
#135 = SPHERICAL_SURFACE ( 'NONE', #268, 0.03933062999999999837 ) ;
#136 = VERTEX_POINT ( 'NONE', #139 ) ;
#137 = DIRECTION ( 'NONE',  ( -0.0000000000000000000, -0.0000000000000000000, -1.000000000000000000 ) ) ;
#138 = CIRCLE ( 'NONE', #240, 0.05905500000000000332 ) ;
#139 = CARTESIAN_POINT ( 'NONE',  ( 0.05905500000000003108, 7.232151672364698504E-18, 0.2299724609844124579 ) ) ;
#140 =( LENGTH_UNIT ( ) NAMED_UNIT ( * ) SI_UNIT ( $, .METRE. ) );
#141 = CONICAL_SURFACE ( 'NONE', #201, 0.04405499999999973326, 0.7853981633974491672 ) ;
#142 = AXIS2_PLACEMENT_3D ( 'NONE', #296, #293, #122 ) ;
#143 = CARTESIAN_POINT ( 'NONE',  ( 0.0000000000000000000, 0.0000000000000000000, 1.496062999999999921 ) ) ;
#144 = DIRECTION ( 'NONE',  ( 0.7071067811865482389, 8.659560562354941486E-17, -0.7071067811865469066 ) ) ;
#145 = DIRECTION ( 'NONE',  ( 0.0000000000000000000, 0.0000000000000000000, 1.000000000000000000 ) ) ;
#146 = SURFACE_SIDE_STYLE ('',( #178 ) ) ;
#147 = CARTESIAN_POINT ( 'NONE',  ( -0.03933062999999998449, 0.0000000000000000000, 4.816613013794884661E-18 ) ) ;
#148 = APPLICATION_PROTOCOL_DEFINITION ( 'draft international standard', 'automotive_design', 1998, #41 ) ;
#149 =( LENGTH_UNIT ( ) NAMED_UNIT ( * ) SI_UNIT ( $, .METRE. ) );
#150 = ORIENTED_EDGE ( 'NONE', *, *, #132, .F. ) ;
#151 = SURFACE_STYLE_USAGE ( .BOTH. , #146 ) ;
#152 = VERTEX_POINT ( 'NONE', #164 ) ;
#153 = ORIENTED_EDGE ( 'NONE', *, *, #246, .T. ) ;
#154 = AXIS2_PLACEMENT_3D ( 'NONE', #102, #206, #299 ) ;
#155 = ORIENTED_EDGE ( 'NONE', *, *, #207, .T. ) ;
#156 = DIRECTION ( 'NONE',  ( 0.0000000000000000000, 1.000000000000000000, 0.0000000000000000000 ) ) ;
#157 = CIRCLE ( 'NONE', #247, 0.03933062999999999837 ) ;
#158 = CONICAL_SURFACE ( 'NONE', #111, 0.04405499999999973326, 0.7853981633974491672 ) ;
#159 = VECTOR ( 'NONE', #116, 39.37007874015748143 ) ;
#160 = CARTESIAN_POINT ( 'NONE',  ( 0.0000000000000000000, 0.0000000000000000000, 1.481062999999999574 ) ) ;
#161 = VERTEX_POINT ( 'NONE', #109 ) ;
#162 = CARTESIAN_POINT ( 'NONE',  ( 0.05905500000000000332, 7.232151672364695422E-18, 1.496062999999999921 ) ) ;
#163 = FACE_OUTER_BOUND ( 'NONE', #44, .T. ) ;
#164 = CARTESIAN_POINT ( 'NONE',  ( 0.05905500000000000332, 7.232151672364695422E-18, 1.481062999999999574 ) ) ;
#165 = EDGE_CURVE ( 'NONE', #161, #121, #257, .T. ) ;
#166 = CARTESIAN_POINT ( 'NONE',  ( 0.0000000000000000000, 0.0000000000000000000, 1.481062999999999574 ) ) ;
#167 = FILL_AREA_STYLE_COLOUR ( '', #104 ) ;
#168 = PRODUCT_DEFINITION_FORMATION_WITH_SPECIFIED_SOURCE ( 'ANY', '', #100, .NOT_KNOWN. ) ;
#169 = CARTESIAN_POINT ( 'NONE',  ( 0.0000000000000000000, 0.0000000000000000000, 1.496062999999999921 ) ) ;
#170 = FACE_OUTER_BOUND ( 'NONE', #60, .T. ) ;
#171 = SURFACE_SIDE_STYLE ('',( #95 ) ) ;
#172 = SPHERICAL_SURFACE ( 'NONE', #154, 0.03933062999999999837 ) ;
#173 = DIRECTION ( 'NONE',  ( 0.0000000000000000000, 0.0000000000000000000, 1.000000000000000000 ) ) ;
#174 = CONICAL_SURFACE ( 'NONE', #251, 0.03933062999999998449, 0.1745329251994338915 ) ;
#175 = ADVANCED_FACE ( 'NONE', ( #68 ), #174, .T. ) ;
#176 = DIMENSIONAL_EXPONENTS ( 1.000000000000000000, 0.0000000000000000000, 0.0000000000000000000, 0.0000000000000000000, 0.0000000000000000000, 0.0000000000000000000, 0.0000000000000000000 ) ;
#177 = LINE ( 'NONE', #147, #99 ) ;
#178 = SURFACE_STYLE_FILL_AREA ( #53 ) ;
#179 = UNCERTAINTY_MEASURE_WITH_UNIT (LENGTH_MEASURE( 1.000000000000000082E-05 ), #270, 'distance_accuracy_value', 'NONE');
#180 = CIRCLE ( 'NONE', #21, 0.05905500000000000332 ) ;
#181 =( GEOMETRIC_REPRESENTATION_CONTEXT ( 3 ) GLOBAL_UNCERTAINTY_ASSIGNED_CONTEXT ( ( #179 ) ) GLOBAL_UNIT_ASSIGNED_CONTEXT ( ( #270, #49, #123 ) ) REPRESENTATION_CONTEXT ( 'NONE', 'WORKASPACE' ) );
#182 = VERTEX_POINT ( 'NONE', #219 ) ;
#183 = CARTESIAN_POINT ( 'NONE',  ( 0.0000000000000000000, 0.0000000000000000000, 0.0000000000000000000 ) ) ;
#184 = EDGE_LOOP ( 'NONE', ( #213, #229, #18, #150 ) ) ;
#185 = CYLINDRICAL_SURFACE ( 'NONE', #263, 0.05905500000000000332 ) ;
#186 = ADVANCED_FACE ( 'NONE', ( #163 ), #135, .T. ) ;
#187 = DIRECTION ( 'NONE',  ( 0.0000000000000000000, 0.0000000000000000000, 1.000000000000000000 ) ) ;
#188 = DIRECTION ( 'NONE',  ( -1.000000000000000000, 0.0000000000000000000, 0.0000000000000000000 ) ) ;
#189 = VERTEX_POINT ( 'NONE', #214 ) ;
#190 = EDGE_LOOP ( 'NONE', ( #283, #22, #260, #155 ) ) ;
#191 = FACE_OUTER_BOUND ( 'NONE', #57, .T. ) ;
#192 = PRODUCT_RELATED_PRODUCT_CATEGORY ( 'part', '', ( #100 ) ) ;
#193 = ORIENTED_EDGE ( 'NONE', *, *, #295, .T. ) ;
#194 = ORIENTED_EDGE ( 'NONE', *, *, #265, .F. ) ;
#195 = DIRECTION ( 'NONE',  ( 1.000000000000000000, 0.0000000000000000000, -0.0000000000000000000 ) ) ;
#196 = CARTESIAN_POINT ( 'NONE',  ( 2.816350382366003081E-17, 0.0000000000000000000, 0.2299724609844124579 ) ) ;
#197 = CARTESIAN_POINT ( 'NONE',  ( 4.816613013794885432E-18, 0.0000000000000000000, 0.03933062999999999837 ) ) ;
#198 = PRODUCT_DEFINITION ( 'UNKNOWN', '', #168, #287 ) ;
#199 = EDGE_CURVE ( 'NONE', #307, #311, #200, .T. ) ;
#200 = LINE ( 'NONE', #262, #128 ) ;
#201 = AXIS2_PLACEMENT_3D ( 'NONE', #61, #256, #15 ) ;
#202 = CARTESIAN_POINT ( 'NONE',  ( -0.03933062999999997061, 4.816613013794884661E-18, 0.1181100000000000066 ) ) ;
#203 = PRESENTATION_STYLE_ASSIGNMENT (( #97 ) ) ;
#204 = MECHANICAL_DESIGN_GEOMETRIC_PRESENTATION_REPRESENTATION (  '', ( #124 ), #107 ) ;
#205 = LENGTH_MEASURE_WITH_UNIT ( LENGTH_MEASURE( 0.02539999999999999897 ), #140 );
#206 = DIRECTION ( 'NONE',  ( 0.0000000000000000000, 1.000000000000000000, 0.0000000000000000000 ) ) ;
#207 = EDGE_CURVE ( 'NONE', #9, #189, #31, .T. ) ;
#208 = APPLICATION_PROTOCOL_DEFINITION ( 'draft international standard', 'automotive_design', 1998, #76 ) ;
#209 = VERTEX_POINT ( 'NONE', #233 ) ;
#210 = ORIENTED_EDGE ( 'NONE', *, *, #132, .T. ) ;
#211 = EDGE_CURVE ( 'NONE', #161, #189, #16, .T. ) ;
#212 = ORIENTED_EDGE ( 'NONE', *, *, #265, .T. ) ;
#213 = ORIENTED_EDGE ( 'NONE', *, *, #254, .T. ) ;
#214 = CARTESIAN_POINT ( 'NONE',  ( 0.03933062999999999837, 4.816613013794884661E-18, 0.03933062999999998449 ) ) ;
#215 = ORIENTED_EDGE ( 'NONE', *, *, #279, .F. ) ;
#216 = ORIENTED_EDGE ( 'NONE', *, *, #207, .F. ) ;
#217 = DIRECTION ( 'NONE',  ( -1.224646799147353207E-16, -0.0000000000000000000, -1.000000000000000000 ) ) ;
#218 = ORIENTED_EDGE ( 'NONE', *, *, #62, .T. ) ;
#219 = CARTESIAN_POINT ( 'NONE',  ( 0.04405499999999973326, 6.313666573004162521E-18, 1.496062999999999921 ) ) ;
#220 = DIRECTION ( 'NONE',  ( -1.224646799147353207E-16, -0.0000000000000000000, -1.000000000000000000 ) ) ;
#221 = CYLINDRICAL_SURFACE ( 'NONE', #281, 0.03933062999999998449 ) ;
#222 = LINE ( 'NONE', #48, #258 ) ;
#223 = UNCERTAINTY_MEASURE_WITH_UNIT (LENGTH_MEASURE( 1.000000000000000082E-05 ), #43, 'distance_accuracy_value', 'NONE');
#224 = LINE ( 'NONE', #202, #84 ) ;
#225 = AXIS2_PLACEMENT_3D ( 'NONE', #67, #220, #317 ) ;
#226 = DIRECTION ( 'NONE',  ( -1.000000000000000000, 0.0000000000000000000, 1.224646799147353207E-16 ) ) ;
#227 = DIRECTION ( 'NONE',  ( 0.0000000000000000000, 0.0000000000000000000, -1.000000000000000000 ) ) ;
#228 = ORIENTED_EDGE ( 'NONE', *, *, #320, .F. ) ;
#229 = ORIENTED_EDGE ( 'NONE', *, *, #83, .T. ) ;
#230 = DIRECTION ( 'NONE',  ( 1.000000000000000000, 0.0000000000000000000, 0.0000000000000000000 ) ) ;
#231 = ORIENTED_EDGE ( 'NONE', *, *, #75, .T. ) ;
#232 = ORIENTED_EDGE ( 'NONE', *, *, #62, .F. ) ;
#233 = CARTESIAN_POINT ( 'NONE',  ( -0.05905499999999998251, 0.0000000000000000000, 0.2299724609844124579 ) ) ;
#234 = ORIENTED_EDGE ( 'NONE', *, *, #279, .T. ) ;
#235 = ADVANCED_FACE ( 'NONE', ( #312 ), #221, .T. ) ;
#236 = ORIENTED_EDGE ( 'NONE', *, *, #318, .F. ) ;
#237 = CARTESIAN_POINT ( 'NONE',  ( 1.446430334472939084E-17, 0.0000000000000000000, 0.1181100000000000066 ) ) ;
#238 = DIRECTION ( 'NONE',  ( 1.224646799147353207E-16, 0.0000000000000000000, 1.000000000000000000 ) ) ;
#239 = DIRECTION ( 'NONE',  ( 1.224646799147353207E-16, 1.000000000000000000, -0.0000000000000000000 ) ) ;
#240 = AXIS2_PLACEMENT_3D ( 'NONE', #166, #110, #113 ) ;
#241 =( GEOMETRIC_REPRESENTATION_CONTEXT ( 3 ) GLOBAL_UNCERTAINTY_ASSIGNED_CONTEXT ( ( #223 ) ) GLOBAL_UNIT_ASSIGNED_CONTEXT ( ( #43, #74, #245 ) ) REPRESENTATION_CONTEXT ( 'NONE', 'WORKASPACE' ) );
#242 = ORIENTED_EDGE ( 'NONE', *, *, #11, .F. ) ;
#243 = FACE_OUTER_BOUND ( 'NONE', #184, .T. ) ;
#244 = LINE ( 'NONE', #23, #159 ) ;
#245 =( NAMED_UNIT ( * ) SI_UNIT ( $, .STERADIAN. ) SOLID_ANGLE_UNIT ( ) );
#246 = EDGE_CURVE ( 'NONE', #209, #136, #323, .T. ) ;
#247 = AXIS2_PLACEMENT_3D ( 'NONE', #197, #34, #278 ) ;
#248 = DIRECTION ( 'NONE',  ( 1.000000000000000000, 0.0000000000000000000, 0.0000000000000000000 ) ) ;
#249 = DIRECTION ( 'NONE',  ( -1.224646799147353207E-16, -0.0000000000000000000, -1.000000000000000000 ) ) ;
#250 = SHAPE_DEFINITION_REPRESENTATION ( #282, #50 ) ;
#251 = AXIS2_PLACEMENT_3D ( 'NONE', #237, #115, #19 ) ;
#252 = ORIENTED_EDGE ( 'NONE', *, *, #305, .T. ) ;
#253 = EDGE_LOOP ( 'NONE', ( #86, #277, #216 ) ) ;
#254 = EDGE_CURVE ( 'NONE', #311, #152, #112, .T. ) ;
#255 = ORIENTED_EDGE ( 'NONE', *, *, #75, .F. ) ;
#256 = DIRECTION ( 'NONE',  ( 0.0000000000000000000, 0.0000000000000000000, -1.000000000000000000 ) ) ;
#257 = CIRCLE ( 'NONE', #117, 0.03933062999999998449 ) ;
#258 = VECTOR ( 'NONE', #144, 39.37007874015748143 ) ;
#259 = CARTESIAN_POINT ( 'NONE',  ( 0.0000000000000000000, 0.0000000000000000000, 1.496062999999999921 ) ) ;
#260 = ORIENTED_EDGE ( 'NONE', *, *, #11, .T. ) ;
#261 = DIRECTION ( 'NONE',  ( -0.7071067811865482389, 0.0000000000000000000, -0.7071067811865469066 ) ) ;
#262 = CARTESIAN_POINT ( 'NONE',  ( -0.04405499999999973326, 0.0000000000000000000, 1.496062999999999921 ) ) ;
#263 = AXIS2_PLACEMENT_3D ( 'NONE', #316, #114, #54 ) ;
#264 = DIRECTION ( 'NONE',  ( -1.224646799147353207E-16, -0.0000000000000000000, -1.000000000000000000 ) ) ;
#265 = EDGE_CURVE ( 'NONE', #121, #161, #63, .T. ) ;
#266 = LENGTH_MEASURE_WITH_UNIT ( LENGTH_MEASURE( 0.02539999999999999897 ), #291 );
#267 = DIRECTION ( 'NONE',  ( -1.000000000000000000, 1.224646799147352961E-16, 0.0000000000000000000 ) ) ;
#268 = AXIS2_PLACEMENT_3D ( 'NONE', #314, #156, #94 ) ;
#269 = AXIS2_PLACEMENT_3D ( 'NONE', #90, #217, #230 ) ;
#270 =( CONVERSION_BASED_UNIT ( 'INCH', #205 ) LENGTH_UNIT ( ) NAMED_UNIT ( #176 ) );
#271 = VECTOR ( 'NONE', #70, 39.37007874015748143 ) ;
#272 = AXIS2_PLACEMENT_3D ( 'NONE', #183, #173, #248 ) ;
#273 = ADVANCED_FACE ( 'NONE', ( #243 ), #45, .T. ) ;
#274 = EDGE_LOOP ( 'NONE', ( #304, #72, #33, #218 ) ) ;
#275 = AXIS2_PLACEMENT_3D ( 'NONE', #56, #28, #298 ) ;
#276 = DIRECTION ( 'NONE',  ( -1.224646799147353207E-16, -0.0000000000000000000, -1.000000000000000000 ) ) ;
#277 = ORIENTED_EDGE ( 'NONE', *, *, #98, .T. ) ;
#278 = DIRECTION ( 'NONE',  ( 0.0000000000000000000, 0.0000000000000000000, -1.000000000000000000 ) ) ;
#279 = EDGE_CURVE ( 'NONE', #182, #307, #71, .T. ) ;
#280 = CARTESIAN_POINT ( 'NONE',  ( -0.05905500000000000332, 0.0000000000000000000, 1.496062999999999921 ) ) ;
#281 = AXIS2_PLACEMENT_3D ( 'NONE', #65, #40, #13 ) ;
#282 = PRODUCT_DEFINITION_SHAPE ( 'NONE', 'NONE',  #198 ) ;
#283 = ORIENTED_EDGE ( 'NONE', *, *, #211, .F. ) ;
#284 = CARTESIAN_POINT ( 'NONE',  ( 7.224919520692328148E-18, 0.0000000000000000000, 0.0000000000000000000 ) ) ;
#285 = MANIFOLD_SOLID_BREP ( 'Fillet1', #297 ) ;
#286 = LINE ( 'NONE', #280, #271 ) ;
#287 = PRODUCT_DEFINITION_CONTEXT ( 'detailed design', #76, 'design' ) ;
#288 = LINE ( 'NONE', #162, #1 ) ;
#289 = DIRECTION ( 'NONE',  ( -0.0000000000000000000, -0.0000000000000000000, -1.000000000000000000 ) ) ;
#290 = DIRECTION ( 'NONE',  ( -0.1736481776669311916, 2.126576849575783316E-17, 0.9848077530122080203 ) ) ;
#291 =( LENGTH_UNIT ( ) NAMED_UNIT ( * ) SI_UNIT ( $, .METRE. ) );
#292 = AXIS2_PLACEMENT_3D ( 'NONE', #38, #238, #108 ) ;
#293 = DIRECTION ( 'NONE',  ( 1.224646799147353207E-16, 0.0000000000000000000, 1.000000000000000000 ) ) ;
#294 = DIMENSIONAL_EXPONENTS ( 1.000000000000000000, 0.0000000000000000000, 0.0000000000000000000, 0.0000000000000000000, 0.0000000000000000000, 0.0000000000000000000, 0.0000000000000000000 ) ;
#295 = EDGE_CURVE ( 'NONE', #106, #9, #119, .T. ) ;
#296 = CARTESIAN_POINT ( 'NONE',  ( 4.816613013794885432E-18, 0.0000000000000000000, 0.03933062999999999837 ) ) ;
#297 = CLOSED_SHELL ( 'NONE', ( #186, #10, #59, #130, #273, #51, #80, #42, #175, #235, #4 ) ) ;
#298 = DIRECTION ( 'NONE',  ( 1.000000000000000000, 0.0000000000000000000, 0.0000000000000000000 ) ) ;
#299 = DIRECTION ( 'NONE',  ( 1.000000000000000000, 0.0000000000000000000, 0.0000000000000000000 ) ) ;
#300 = FILL_AREA_STYLE_COLOUR ( '', #2 ) ;
#301 = AXIS2_PLACEMENT_3D ( 'NONE', #26, #125, #226 ) ;
#302 = AXIS2_PLACEMENT_3D ( 'NONE', #324, #145, #20 ) ;
#303 = EDGE_CURVE ( 'NONE', #182, #152, #222, .T. ) ;
#304 = ORIENTED_EDGE ( 'NONE', *, *, #305, .F. ) ;
#305 = EDGE_CURVE ( 'NONE', #121, #209, #224, .T. ) ;
#306 = ORIENTED_EDGE ( 'NONE', *, *, #199, .F. ) ;
#307 = VERTEX_POINT ( 'NONE', #120 ) ;
#308 = EDGE_CURVE ( 'NONE', #307, #182, #64, .T. ) ;
#309 = CARTESIAN_POINT ( 'NONE',  ( 0.03933062999999998449, 4.816613013794884661E-18, -4.816613013794884661E-18 ) ) ;
#310 = ORIENTED_EDGE ( 'NONE', *, *, #211, .T. ) ;
#311 = VERTEX_POINT ( 'NONE', #73 ) ;
#312 = FACE_OUTER_BOUND ( 'NONE', #190, .T. ) ;
#313 = EDGE_LOOP ( 'NONE', ( #14, #234 ) ) ;
#314 = CARTESIAN_POINT ( 'NONE',  ( 4.816613013794885432E-18, 0.0000000000000000000, 0.03933062999999999837 ) ) ;
#315 = CIRCLE ( 'NONE', #142, 0.03933062999999998449 ) ;
#316 = CARTESIAN_POINT ( 'NONE',  ( 0.0000000000000000000, 0.0000000000000000000, 1.496062999999999921 ) ) ;
#317 = DIRECTION ( 'NONE',  ( -1.000000000000000000, 0.0000000000000000000, 0.0000000000000000000 ) ) ;
#318 = EDGE_CURVE ( 'NONE', #189, #9, #315, .T. ) ;
#319 = DIRECTION ( 'NONE',  ( 0.0000000000000000000, 0.0000000000000000000, -1.000000000000000000 ) ) ;
#320 = EDGE_CURVE ( 'NONE', #161, #136, #244, .T. ) ;
#321 = CARTESIAN_POINT ( 'NONE',  ( 4.816613013794885432E-18, 0.0000000000000000000, 0.03933062999999999837 ) ) ;
#322 = CONICAL_SURFACE ( 'NONE', #275, 0.03933062999999998449, 0.1745329251994338915 ) ;
#323 = CIRCLE ( 'NONE', #269, 0.05905500000000000332 ) ;
#324 = CARTESIAN_POINT ( 'NONE',  ( 0.0000000000000000000, 0.0000000000000000000, 1.496062999999999921 ) ) ;
#325 = ORIENTED_EDGE ( 'NONE', *, *, #303, .T. ) ;
ENDSEC;
END-ISO-10303-21;
