ISO-10303-21;
HEADER;
FILE_DESCRIPTION (( 'STEP AP214' ),
    '1' );
FILE_NAME ('48236.STEP',
    '2023-06-22T21:18:05',
    ( '' ),
    ( '' ),
    'SwSTEP 2.0',
    'SolidWorks 2023',
    '' );
FILE_SCHEMA (( 'AUTOMOTIVE_DESIGN' ));
ENDSEC;

DATA;
#1 = VERTEX_POINT ( 'NONE', #269 ) ;
#2 = LINE ( 'NONE', #192, #177 ) ;
#3 = CARTESIAN_POINT ( 'NONE',  ( 1.224646799147353700E-16, 2.000000000000000000, 0.000000000000000000 ) ) ;
#4 = EDGE_LOOP ( 'NONE', ( #146, #59, #235, #104 ) ) ;
#5 = LINE ( 'NONE', #106, #58 ) ;
#6 = PRESENTATION_STYLE_ASSIGNMENT (( #100 ) ) ;
#7 =( NAMED_UNIT ( * ) SI_UNIT ( $, .STERADIAN. ) SOLID_ANGLE_UNIT ( ) );
#8 =( GEOMETRIC_REPRESENTATION_CONTEXT ( 3 ) GLOBAL_UNCERTAINTY_ASSIGNED_CONTEXT ( ( #175 ) ) GLOBAL_UNIT_ASSIGNED_CONTEXT ( ( #307, #287, #282 ) ) REPRESENTATION_CONTEXT ( 'NONE', 'WORKASPACE' ) );
#9 = UNCERTAINTY_MEASURE_WITH_UNIT (LENGTH_MEASURE( 1.000000000000000082E-05 ), #300, 'distance_accuracy_value', 'NONE');
#10 =( NAMED_UNIT ( * ) SI_UNIT ( $, .STERADIAN. ) SOLID_ANGLE_UNIT ( ) );
#11 = CARTESIAN_POINT ( 'NONE',  ( 0.000000000000000000, 0.000000000000000000, 0.000000000000000000 ) ) ;
#12 =( NAMED_UNIT ( * ) SI_UNIT ( $, .STERADIAN. ) SOLID_ANGLE_UNIT ( ) );
#13 = EDGE_CURVE ( 'NONE', #23, #24, #2, .T. ) ;
#14 = UNCERTAINTY_MEASURE_WITH_UNIT (LENGTH_MEASURE( 1.000000000000000082E-05 ), #33, 'distance_accuracy_value', 'NONE');
#15 = VECTOR ( 'NONE', #248, 39.37007874015748143 ) ;
#16 = PRESENTATION_LAYER_ASSIGNMENT (  '', '', ( #276 ) ) ;
#17 = CIRCLE ( 'NONE', #162, 0.1875000000000000278 ) ;
#18 = CARTESIAN_POINT ( 'NONE',  ( 0.000000000000000000, 0.5000000000000000000, 0.000000000000000000 ) ) ;
#19 = EDGE_CURVE ( 'NONE', #1, #24, #75, .T. ) ;
#20 = EDGE_CURVE ( 'NONE', #263, #1, #152, .T. ) ;
#21 = AXIS2_PLACEMENT_3D ( 'NONE', #251, #30, #133 ) ;
#22 = DIRECTION ( 'NONE',  ( 0.000000000000000000, -1.000000000000000000, -0.000000000000000000 ) ) ;
#23 = VERTEX_POINT ( 'NONE', #168 ) ;
#24 = VERTEX_POINT ( 'NONE', #107 ) ;
#25 = STYLED_ITEM ( 'NONE', ( #92 ), #201 ) ;
#26 = MECHANICAL_DESIGN_GEOMETRIC_PRESENTATION_REPRESENTATION (  '', ( #276 ), #185 ) ;
#27 = MANIFOLD_SOLID_BREP ( 'Revolve - Tool Body (Straight Shanked)', #182 ) ;
#28 = STYLED_ITEM ( 'NONE', ( #37 ), #138 ) ;
#29 = CLOSED_SHELL ( 'NONE', ( #191, #71, #259, #201 ) ) ;
#30 = DIRECTION ( 'NONE',  ( -0.000000000000000000, -1.000000000000000000, -0.000000000000000000 ) ) ;
#31 = AXIS2_PLACEMENT_3D ( 'NONE', #156, #85, #114 ) ;
#32 =( NAMED_UNIT ( * ) PLANE_ANGLE_UNIT ( ) SI_UNIT ( $, .RADIAN. ) );
#33 =( CONVERSION_BASED_UNIT ( 'INCH', #112 ) LENGTH_UNIT ( ) NAMED_UNIT ( #167 ) );
#34 = CARTESIAN_POINT ( 'NONE',  ( 0.000000000000000000, 0.5000000000000000000, -0.1875000000000000555 ) ) ;
#35 = SURFACE_SIDE_STYLE ('',( #158 ) ) ;
#36 = PRODUCT_DEFINITION_FORMATION_WITH_SPECIFIED_SOURCE ( 'ANY', '', #213, .NOT_KNOWN. ) ;
#37 = PRESENTATION_STYLE_ASSIGNMENT (( #64 ) ) ;
#38 = PRODUCT_CONTEXT ( 'NONE', #153, 'mechanical' ) ;
#39 = DIRECTION ( 'NONE',  ( 0.000000000000000000, 0.000000000000000000, 1.000000000000000000 ) ) ;
#40 = ORIENTED_EDGE ( 'NONE', *, *, #20, .T. ) ;
#41 = DIRECTION ( 'NONE',  ( -0.000000000000000000, -1.000000000000000000, -0.000000000000000000 ) ) ;
#42 = COLOUR_RGB ( '',1.000000000000000000, 0.000000000000000000, 0.000000000000000000 ) ;
#43 = PRESENTATION_LAYER_ASSIGNMENT (  '', '', ( #28 ) ) ;
#44 =( LENGTH_UNIT ( ) NAMED_UNIT ( * ) SI_UNIT ( $, .METRE. ) );
#45 = ORIENTED_EDGE ( 'NONE', *, *, #283, .F. ) ;
#46 = SURFACE_STYLE_FILL_AREA ( #118 ) ;
#47 =( LENGTH_UNIT ( ) NAMED_UNIT ( * ) SI_UNIT ( $, .METRE. ) );
#48 = FILL_AREA_STYLE_COLOUR ( '', #136 ) ;
#49 = DIMENSIONAL_EXPONENTS ( 1.000000000000000000, 0.000000000000000000, 0.000000000000000000, 0.000000000000000000, 0.000000000000000000, 0.000000000000000000, 0.000000000000000000 ) ;
#50 = EDGE_CURVE ( 'NONE', #23, #263, #223, .T. ) ;
#51 = SURFACE_SIDE_STYLE ('',( #218 ) ) ;
#52 = ORIENTED_EDGE ( 'NONE', *, *, #50, .F. ) ;
#53 = FACE_OUTER_BOUND ( 'NONE', #99, .T. ) ;
#54 = DIRECTION ( 'NONE',  ( -8.164311994315692567E-17, -1.000000000000000000, 0.000000000000000000 ) ) ;
#55 = ORIENTED_EDGE ( 'NONE', *, *, #250, .T. ) ;
#56 = CARTESIAN_POINT ( 'NONE',  ( 0.000000000000000000, 0.5000000000000000000, 0.000000000000000000 ) ) ;
#57 = DIRECTION ( 'NONE',  ( -1.000000000000000000, 0.000000000000000000, 0.000000000000000000 ) ) ;
#58 = VECTOR ( 'NONE', #198, 39.37007874015748143 ) ;
#59 = ORIENTED_EDGE ( 'NONE', *, *, #293, .T. ) ;
#60 = DIRECTION ( 'NONE',  ( -1.000000000000000000, 0.000000000000000000, 0.000000000000000000 ) ) ;
#61 = COLOUR_RGB ( '',0.7921568627450980005, 0.8196078431372548767, 0.9333333333333333481 ) ;
#62 = PRODUCT_DEFINITION ( 'UNKNOWN', '', #36, #116 ) ;
#63 = CARTESIAN_POINT ( 'NONE',  ( -0.1875000000000000555, 0.5000000000000001110, 0.000000000000000000 ) ) ;
#64 = SURFACE_STYLE_USAGE ( .BOTH. , #35 ) ;
#65 = ADVANCED_BREP_SHAPE_REPRESENTATION ( '48236', ( #138, #27, #132 ), #8 ) ;
#66 =( GEOMETRIC_REPRESENTATION_CONTEXT ( 3 ) GLOBAL_UNCERTAINTY_ASSIGNED_CONTEXT ( ( #14 ) ) GLOBAL_UNIT_ASSIGNED_CONTEXT ( ( #33, #135, #12 ) ) REPRESENTATION_CONTEXT ( 'NONE', 'WORKASPACE' ) );
#67 = MECHANICAL_DESIGN_GEOMETRIC_PRESENTATION_REPRESENTATION (  '', ( #28 ), #241 ) ;
#68 = CARTESIAN_POINT ( 'NONE',  ( 0.000000000000000000, 0.000000000000000000, 0.000000000000000000 ) ) ;
#69 = PRODUCT_DEFINITION_SHAPE ( 'NONE', 'NONE',  #62 ) ;
#70 = CIRCLE ( 'NONE', #141, 0.1875000000000000555 ) ;
#71 = ADVANCED_FACE ( 'NONE', ( #187 ), #211, .T. ) ;
#72 = DIMENSIONAL_EXPONENTS ( 1.000000000000000000, 0.000000000000000000, 0.000000000000000000, 0.000000000000000000, 0.000000000000000000, 0.000000000000000000, 0.000000000000000000 ) ;
#73 = FACE_OUTER_BOUND ( 'NONE', #102, .T. ) ;
#74 = ORIENTED_EDGE ( 'NONE', *, *, #271, .F. ) ;
#75 = CIRCLE ( 'NONE', #157, 0.1874999999999999167 ) ;
#76 = DIRECTION ( 'NONE',  ( 0.000000000000000000, 1.000000000000000000, 0.000000000000000000 ) ) ;
#77 = APPLICATION_CONTEXT ( 'automotive_design' ) ;
#78 = CARTESIAN_POINT ( 'NONE',  ( 1.224646799147353700E-16, 2.000000000000000000, 0.000000000000000000 ) ) ;
#79 = VERTEX_POINT ( 'NONE', #237 ) ;
#80 = CARTESIAN_POINT ( 'NONE',  ( 1.224646799147353700E-16, 2.000000000000000000, 0.000000000000000000 ) ) ;
#81 = MECHANICAL_DESIGN_GEOMETRIC_PRESENTATION_REPRESENTATION (  '', ( #216 ), #306 ) ;
#82 = FILL_AREA_STYLE ('',( #159 ) ) ;
#83 =( NAMED_UNIT ( * ) PLANE_ANGLE_UNIT ( ) SI_UNIT ( $, .RADIAN. ) );
#84 = SURFACE_STYLE_FILL_AREA ( #134 ) ;
#85 = DIRECTION ( 'NONE',  ( 8.164311994315692567E-17, 1.000000000000000000, -0.000000000000000000 ) ) ;
#86 = COLOUR_RGB ( '',1.000000000000000000, 0.000000000000000000, 0.000000000000000000 ) ;
#87 = PRESENTATION_LAYER_ASSIGNMENT (  '', '', ( #216 ) ) ;
#88 =( LENGTH_UNIT ( ) NAMED_UNIT ( * ) SI_UNIT ( $, .METRE. ) );
#89 = UNCERTAINTY_MEASURE_WITH_UNIT (LENGTH_MEASURE( 1.000000000000000082E-05 ), #291, 'distance_accuracy_value', 'NONE');
#90 = CARTESIAN_POINT ( 'NONE',  ( 0.000000000000000000, 0.000000000000000000, -0.1875000000000000555 ) ) ;
#91 = DIRECTION ( 'NONE',  ( 0.000000000000000000, 0.000000000000000000, -1.000000000000000000 ) ) ;
#92 = PRESENTATION_STYLE_ASSIGNMENT (( #206 ) ) ;
#93 = ADVANCED_FACE ( 'NONE', ( #53 ), #124, .T. ) ;
#94 = UNCERTAINTY_MEASURE_WITH_UNIT (LENGTH_MEASURE( 1.000000000000000082E-05 ), #275, 'distance_accuracy_value', 'NONE');
#95 = DIRECTION ( 'NONE',  ( 8.164311994315692567E-17, 1.000000000000000000, -0.000000000000000000 ) ) ;
#96 = DIRECTION ( 'NONE',  ( 0.000000000000000000, 0.000000000000000000, -1.000000000000000000 ) ) ;
#97 = DIMENSIONAL_EXPONENTS ( 1.000000000000000000, 0.000000000000000000, 0.000000000000000000, 0.000000000000000000, 0.000000000000000000, 0.000000000000000000, 0.000000000000000000 ) ;
#98 = CIRCLE ( 'NONE', #21, 0.1875000000000000555 ) ;
#99 = EDGE_LOOP ( 'NONE', ( #214, #188, #40, #45 ) ) ;
#100 = SURFACE_STYLE_USAGE ( .BOTH. , #51 ) ;
#101 = DIRECTION ( 'NONE',  ( 8.164311994315692567E-17, 1.000000000000000000, -0.000000000000000000 ) ) ;
#102 = EDGE_LOOP ( 'NONE', ( #131, #143 ) ) ;
#103 = DIRECTION ( 'NONE',  ( 8.164311994315692567E-17, 1.000000000000000000, -0.000000000000000000 ) ) ;
#104 = ORIENTED_EDGE ( 'NONE', *, *, #117, .F. ) ;
#105 = LENGTH_MEASURE_WITH_UNIT ( LENGTH_MEASURE( 0.02539999999999999897 ), #47 );
#106 = CARTESIAN_POINT ( 'NONE',  ( 2.296212748401288034E-17, 0.000000000000000000, 0.1875000000000000555 ) ) ;
#107 = CARTESIAN_POINT ( 'NONE',  ( 0.1875000000000000555, 2.000000000000000000, 2.296212748401287109E-17 ) ) ;
#108 = AXIS2_PLACEMENT_3D ( 'NONE', #273, #246, #267 ) ;
#109 =( CONVERSION_BASED_UNIT ( 'INCH', #222 ) LENGTH_UNIT ( ) NAMED_UNIT ( #72 ) );
#110 = SURFACE_STYLE_FILL_AREA ( #82 ) ;
#111 = SURFACE_SIDE_STYLE ('',( #84 ) ) ;
#112 = LENGTH_MEASURE_WITH_UNIT ( LENGTH_MEASURE( 0.02539999999999999897 ), #230 );
#113 =( NAMED_UNIT ( * ) PLANE_ANGLE_UNIT ( ) SI_UNIT ( $, .RADIAN. ) );
#114 = DIRECTION ( 'NONE',  ( -1.000000000000000000, 0.000000000000000000, 0.000000000000000000 ) ) ;
#115 = STYLED_ITEM ( 'NONE', ( #261 ), #71 ) ;
#116 = PRODUCT_DEFINITION_CONTEXT ( 'detailed design', #77, 'design' ) ;
#117 = EDGE_CURVE ( 'NONE', #79, #289, #155, .T. ) ;
#118 = FILL_AREA_STYLE ('',( #260 ) ) ;
#119 = AXIS2_PLACEMENT_3D ( 'NONE', #270, #254, #297 ) ;
#120 = LENGTH_MEASURE_WITH_UNIT ( LENGTH_MEASURE( 0.02539999999999999897 ), #123 );
#121 = DIRECTION ( 'NONE',  ( -1.000000000000000000, 0.000000000000000000, 0.000000000000000000 ) ) ;
#122 = ORIENTED_EDGE ( 'NONE', *, *, #13, .T. ) ;
#123 =( LENGTH_UNIT ( ) NAMED_UNIT ( * ) SI_UNIT ( $, .METRE. ) );
#124 = CYLINDRICAL_SURFACE ( 'NONE', #281, 0.1874999999999999722 ) ;
#125 = CARTESIAN_POINT ( 'NONE',  ( -0.1874999999999998335, 2.000000000000000000, 0.000000000000000000 ) ) ;
#126 = FILL_AREA_STYLE ('',( #262 ) ) ;
#127 = FACE_OUTER_BOUND ( 'NONE', #199, .T. ) ;
#128 = ORIENTED_EDGE ( 'NONE', *, *, #19, .T. ) ;
#129 = DIRECTION ( 'NONE',  ( 0.000000000000000000, 0.000000000000000000, -1.000000000000000000 ) ) ;
#130 = ADVANCED_FACE ( 'NONE', ( #127 ), #151, .F. ) ;
#131 = ORIENTED_EDGE ( 'NONE', *, *, #271, .T. ) ;
#132 = AXIS2_PLACEMENT_3D ( 'NONE', #68, #39, #163 ) ;
#133 = DIRECTION ( 'NONE',  ( 0.000000000000000000, 0.000000000000000000, -1.000000000000000000 ) ) ;
#134 = FILL_AREA_STYLE ('',( #252 ) ) ;
#135 =( NAMED_UNIT ( * ) PLANE_ANGLE_UNIT ( ) SI_UNIT ( $, .RADIAN. ) );
#136 = COLOUR_RGB ( '',1.000000000000000000, 0.000000000000000000, 0.000000000000000000 ) ;
#137 = FACE_OUTER_BOUND ( 'NONE', #245, .T. ) ;
#138 = MANIFOLD_SOLID_BREP ( 'Revolve - Cutting Edge', #29 ) ;
#139 = SURFACE_SIDE_STYLE ('',( #209 ) ) ;
#140 = DIMENSIONAL_EXPONENTS ( 1.000000000000000000, 0.000000000000000000, 0.000000000000000000, 0.000000000000000000, 0.000000000000000000, 0.000000000000000000, 0.000000000000000000 ) ;
#141 = AXIS2_PLACEMENT_3D ( 'NONE', #224, #274, #60 ) ;
#142 = DIMENSIONAL_EXPONENTS ( 1.000000000000000000, 0.000000000000000000, 0.000000000000000000, 0.000000000000000000, 0.000000000000000000, 0.000000000000000000, 0.000000000000000000 ) ;
#143 = ORIENTED_EDGE ( 'NONE', *, *, #117, .T. ) ;
#144 = PRESENTATION_LAYER_ASSIGNMENT (  '', '', ( #115 ) ) ;
#145 = ORIENTED_EDGE ( 'NONE', *, *, #283, .T. ) ;
#146 = ORIENTED_EDGE ( 'NONE', *, *, #250, .F. ) ;
#147 = DIRECTION ( 'NONE',  ( -1.000000000000000000, 0.000000000000000000, 0.000000000000000000 ) ) ;
#148 = DIRECTION ( 'NONE',  ( 1.000000000000000000, -8.164311994315692567E-17, 0.000000000000000000 ) ) ;
#149 = COLOUR_RGB ( '',0.7921568627450980005, 0.8196078431372548767, 0.9333333333333333481 ) ;
#150 = VERTEX_POINT ( 'NONE', #34 ) ;
#151 = PLANE ( 'NONE',  #119 ) ;
#152 = LINE ( 'NONE', #125, #15 ) ;
#153 = APPLICATION_CONTEXT ( 'automotive_design' ) ;
#154 = FILL_AREA_STYLE ('',( #280 ) ) ;
#155 = CIRCLE ( 'NONE', #108, 0.1875000000000000278 ) ;
#156 = CARTESIAN_POINT ( 'NONE',  ( 1.224646799147353700E-16, 2.000000000000000000, 0.000000000000000000 ) ) ;
#157 = AXIS2_PLACEMENT_3D ( 'NONE', #78, #171, #57 ) ;
#158 = SURFACE_STYLE_FILL_AREA ( #154 ) ;
#159 = FILL_AREA_STYLE_COLOUR ( '', #86 ) ;
#160 = PRODUCT_RELATED_PRODUCT_CATEGORY ( 'part', '', ( #213 ) ) ;
#161 =( LENGTH_UNIT ( ) NAMED_UNIT ( * ) SI_UNIT ( $, .METRE. ) );
#162 = AXIS2_PLACEMENT_3D ( 'NONE', #11, #221, #255 ) ;
#163 = DIRECTION ( 'NONE',  ( 1.000000000000000000, 0.000000000000000000, 0.000000000000000000 ) ) ;
#164 = SHAPE_DEFINITION_REPRESENTATION ( #69, #65 ) ;
#165 = AXIS2_PLACEMENT_3D ( 'NONE', #299, #41, #96 ) ;
#166 = EDGE_CURVE ( 'NONE', #150, #289, #256, .T. ) ;
#167 = DIMENSIONAL_EXPONENTS ( 1.000000000000000000, 0.000000000000000000, 0.000000000000000000, 0.000000000000000000, 0.000000000000000000, 0.000000000000000000, 0.000000000000000000 ) ;
#168 = CARTESIAN_POINT ( 'NONE',  ( 0.1875000000000000555, 0.5000000000000001110, 2.296212748401287109E-17 ) ) ;
#169 = CARTESIAN_POINT ( 'NONE',  ( 0.1875000000000000555, 2.000000000000000000, 0.000000000000000000 ) ) ;
#170 = VERTEX_POINT ( 'NONE', #173 ) ;
#171 = DIRECTION ( 'NONE',  ( 8.164311994315692567E-17, 1.000000000000000000, -0.000000000000000000 ) ) ;
#172 = AXIS2_PLACEMENT_3D ( 'NONE', #239, #22, #265 ) ;
#173 = CARTESIAN_POINT ( 'NONE',  ( 2.296212748401288034E-17, 0.5000000000000000000, 0.1875000000000000555 ) ) ;
#174 = EDGE_CURVE ( 'NONE', #263, #23, #70, .T. ) ;
#175 = UNCERTAINTY_MEASURE_WITH_UNIT (LENGTH_MEASURE( 1.000000000000000082E-05 ), #307, 'distance_accuracy_value', 'NONE');
#176 = SURFACE_SIDE_STYLE ('',( #110 ) ) ;
#177 = VECTOR ( 'NONE', #294, 39.37007874015748143 ) ;
#178 =( NAMED_UNIT ( * ) SI_UNIT ( $, .STERADIAN. ) SOLID_ANGLE_UNIT ( ) );
#179 = CARTESIAN_POINT ( 'NONE',  ( 0.000000000000000000, 0.000000000000000000, 0.000000000000000000 ) ) ;
#180 = MECHANICAL_DESIGN_GEOMETRIC_PRESENTATION_REPRESENTATION (  '', ( #115 ), #305 ) ;
#181 = LENGTH_MEASURE_WITH_UNIT ( LENGTH_MEASURE( 0.02539999999999999897 ), #44 );
#182 = CLOSED_SHELL ( 'NONE', ( #225, #130, #93, #219 ) ) ;
#183 = STYLED_ITEM ( 'NONE', ( #303 ), #259 ) ;
#184 = VECTOR ( 'NONE', #204, 39.37007874015748143 ) ;
#185 =( GEOMETRIC_REPRESENTATION_CONTEXT ( 3 ) GLOBAL_UNCERTAINTY_ASSIGNED_CONTEXT ( ( #226 ) ) GLOBAL_UNIT_ASSIGNED_CONTEXT ( ( #109, #83, #208 ) ) REPRESENTATION_CONTEXT ( 'NONE', 'WORKASPACE' ) );
#186 = SURFACE_SIDE_STYLE ('',( #46 ) ) ;
#187 = FACE_OUTER_BOUND ( 'NONE', #193, .T. ) ;
#188 = ORIENTED_EDGE ( 'NONE', *, *, #50, .T. ) ;
#189 = MECHANICAL_DESIGN_GEOMETRIC_PRESENTATION_REPRESENTATION (  '', ( #25 ), #229 ) ;
#190 = ORIENTED_EDGE ( 'NONE', *, *, #174, .F. ) ;
#191 = ADVANCED_FACE ( 'NONE', ( #137 ), #304, .T. ) ;
#192 = CARTESIAN_POINT ( 'NONE',  ( 0.1875000000000001110, 2.000000000000000000, 2.296212748401286801E-17 ) ) ;
#193 = EDGE_LOOP ( 'NONE', ( #242, #258 ) ) ;
#194 = PLANE ( 'NONE',  #285 ) ;
#195 = AXIS2_PLACEMENT_3D ( 'NONE', #56, #247, #129 ) ;
#196 = EDGE_LOOP ( 'NONE', ( #217, #122, #266, #243 ) ) ;
#197 = ORIENTED_EDGE ( 'NONE', *, *, #166, .F. ) ;
#198 = DIRECTION ( 'NONE',  ( -0.000000000000000000, -1.000000000000000000, -0.000000000000000000 ) ) ;
#199 = EDGE_LOOP ( 'NONE', ( #190, #52 ) ) ;
#200 = CYLINDRICAL_SURFACE ( 'NONE', #228, 0.1875000000000000555 ) ;
#201 = ADVANCED_FACE ( 'NONE', ( #73 ), #232, .T. ) ;
#202 = CIRCLE ( 'NONE', #195, 0.1875000000000000555 ) ;
#203 = PRESENTATION_LAYER_ASSIGNMENT (  '', '', ( #25 ) ) ;
#204 = DIRECTION ( 'NONE',  ( -0.000000000000000000, -1.000000000000000000, -0.000000000000000000 ) ) ;
#205 = CARTESIAN_POINT ( 'NONE',  ( 0.000000000000000000, 0.000000000000000000, -0.1875000000000000278 ) ) ;
#206 = SURFACE_STYLE_USAGE ( .BOTH. , #186 ) ;
#207 = FILL_AREA_STYLE ('',( #48 ) ) ;
#208 =( NAMED_UNIT ( * ) SI_UNIT ( $, .STERADIAN. ) SOLID_ANGLE_UNIT ( ) );
#209 = SURFACE_STYLE_FILL_AREA ( #207 ) ;
#210 = DIMENSIONAL_EXPONENTS ( 1.000000000000000000, 0.000000000000000000, 0.000000000000000000, 0.000000000000000000, 0.000000000000000000, 0.000000000000000000, 0.000000000000000000 ) ;
#211 = PLANE ( 'NONE',  #286 ) ;
#212 =( CONVERSION_BASED_UNIT ( 'INCH', #120 ) LENGTH_UNIT ( ) NAMED_UNIT ( #49 ) );
#213 = PRODUCT ( '48236', '48236', '', ( #38 ) ) ;
#214 = ORIENTED_EDGE ( 'NONE', *, *, #13, .F. ) ;
#215 = CYLINDRICAL_SURFACE ( 'NONE', #284, 0.1874999999999999722 ) ;
#216 = STYLED_ITEM ( 'NONE', ( #298 ), #191 ) ;
#217 = ORIENTED_EDGE ( 'NONE', *, *, #174, .T. ) ;
#218 = SURFACE_STYLE_FILL_AREA ( #126 ) ;
#219 = ADVANCED_FACE ( 'NONE', ( #268 ), #194, .F. ) ;
#220 = SURFACE_STYLE_USAGE ( .BOTH. , #139 ) ;
#221 = DIRECTION ( 'NONE',  ( -0.000000000000000000, -1.000000000000000000, -0.000000000000000000 ) ) ;
#222 = LENGTH_MEASURE_WITH_UNIT ( LENGTH_MEASURE( 0.02539999999999999897 ), #88 );
#223 = CIRCLE ( 'NONE', #288, 0.1875000000000000555 ) ;
#224 = CARTESIAN_POINT ( 'NONE',  ( 0.000000000000000000, 0.5000000000000001110, 0.000000000000000000 ) ) ;
#225 = ADVANCED_FACE ( 'NONE', ( #244 ), #215, .T. ) ;
#226 = UNCERTAINTY_MEASURE_WITH_UNIT (LENGTH_MEASURE( 1.000000000000000082E-05 ), #109, 'distance_accuracy_value', 'NONE');
#227 = LENGTH_MEASURE_WITH_UNIT ( LENGTH_MEASURE( 0.02539999999999999897 ), #231 );
#228 = AXIS2_PLACEMENT_3D ( 'NONE', #179, #279, #91 ) ;
#229 =( GEOMETRIC_REPRESENTATION_CONTEXT ( 3 ) GLOBAL_UNCERTAINTY_ASSIGNED_CONTEXT ( ( #301 ) ) GLOBAL_UNIT_ASSIGNED_CONTEXT ( ( #212, #249, #7 ) ) REPRESENTATION_CONTEXT ( 'NONE', 'WORKASPACE' ) );
#230 =( LENGTH_UNIT ( ) NAMED_UNIT ( * ) SI_UNIT ( $, .METRE. ) );
#231 =( LENGTH_UNIT ( ) NAMED_UNIT ( * ) SI_UNIT ( $, .METRE. ) );
#232 = PLANE ( 'NONE',  #172 ) ;
#233 = APPLICATION_PROTOCOL_DEFINITION ( 'draft international standard', 'automotive_design', 1998, #77 ) ;
#234 = CIRCLE ( 'NONE', #31, 0.1874999999999999167 ) ;
#235 = ORIENTED_EDGE ( 'NONE', *, *, #166, .T. ) ;
#236 = EDGE_CURVE ( 'NONE', #150, #170, #202, .T. ) ;
#237 = CARTESIAN_POINT ( 'NONE',  ( 2.296212748401287726E-17, 0.000000000000000000, 0.1875000000000000278 ) ) ;
#238 = CARTESIAN_POINT ( 'NONE',  ( 0.000000000000000000, 0.5000000000000001110, 0.000000000000000000 ) ) ;
#239 = CARTESIAN_POINT ( 'NONE',  ( 0.000000000000000000, 0.000000000000000000, 0.000000000000000000 ) ) ;
#240 = PRESENTATION_LAYER_ASSIGNMENT (  '', '', ( #183 ) ) ;
#241 =( GEOMETRIC_REPRESENTATION_CONTEXT ( 3 ) GLOBAL_UNCERTAINTY_ASSIGNED_CONTEXT ( ( #9 ) ) GLOBAL_UNIT_ASSIGNED_CONTEXT ( ( #300, #113, #178 ) ) REPRESENTATION_CONTEXT ( 'NONE', 'WORKASPACE' ) );
#242 = ORIENTED_EDGE ( 'NONE', *, *, #236, .F. ) ;
#243 = ORIENTED_EDGE ( 'NONE', *, *, #20, .F. ) ;
#244 = FACE_OUTER_BOUND ( 'NONE', #196, .T. ) ;
#245 = EDGE_LOOP ( 'NONE', ( #290, #55, #74, #197 ) ) ;
#246 = DIRECTION ( 'NONE',  ( -0.000000000000000000, -1.000000000000000000, -0.000000000000000000 ) ) ;
#247 = DIRECTION ( 'NONE',  ( -0.000000000000000000, -1.000000000000000000, -0.000000000000000000 ) ) ;
#248 = DIRECTION ( 'NONE',  ( 8.164311994315692567E-17, 1.000000000000000000, -0.000000000000000000 ) ) ;
#249 =( NAMED_UNIT ( * ) PLANE_ANGLE_UNIT ( ) SI_UNIT ( $, .RADIAN. ) );
#250 = EDGE_CURVE ( 'NONE', #170, #79, #5, .T. ) ;
#251 = CARTESIAN_POINT ( 'NONE',  ( 0.000000000000000000, 0.5000000000000000000, 0.000000000000000000 ) ) ;
#252 = FILL_AREA_STYLE_COLOUR ( '', #309 ) ;
#253 = SURFACE_STYLE_USAGE ( .BOTH. , #176 ) ;
#254 = DIRECTION ( 'NONE',  ( 8.164311994315692567E-17, 1.000000000000000000, -0.000000000000000000 ) ) ;
#255 = DIRECTION ( 'NONE',  ( 0.000000000000000000, 0.000000000000000000, -1.000000000000000000 ) ) ;
#256 = LINE ( 'NONE', #90, #184 ) ;
#257 = APPLICATION_PROTOCOL_DEFINITION ( 'draft international standard', 'automotive_design', 1998, #153 ) ;
#258 = ORIENTED_EDGE ( 'NONE', *, *, #293, .F. ) ;
#259 = ADVANCED_FACE ( 'NONE', ( #278 ), #200, .T. ) ;
#260 = FILL_AREA_STYLE_COLOUR ( '', #42 ) ;
#261 = PRESENTATION_STYLE_ASSIGNMENT (( #220 ) ) ;
#262 = FILL_AREA_STYLE_COLOUR ( '', #61 ) ;
#263 = VERTEX_POINT ( 'NONE', #63 ) ;
#264 =( NAMED_UNIT ( * ) SI_UNIT ( $, .STERADIAN. ) SOLID_ANGLE_UNIT ( ) );
#265 = DIRECTION ( 'NONE',  ( 0.000000000000000000, 0.000000000000000000, -1.000000000000000000 ) ) ;
#266 = ORIENTED_EDGE ( 'NONE', *, *, #19, .F. ) ;
#267 = DIRECTION ( 'NONE',  ( 0.000000000000000000, 0.000000000000000000, -1.000000000000000000 ) ) ;
#268 = FACE_OUTER_BOUND ( 'NONE', #308, .T. ) ;
#269 = CARTESIAN_POINT ( 'NONE',  ( -0.1874999999999997780, 2.000000000000000000, 0.000000000000000000 ) ) ;
#270 = CARTESIAN_POINT ( 'NONE',  ( 6.248999094424416107E-34, 0.5000000000000000000, 0.000000000000000000 ) ) ;
#271 = EDGE_CURVE ( 'NONE', #289, #79, #17, .T. ) ;
#272 = MECHANICAL_DESIGN_GEOMETRIC_PRESENTATION_REPRESENTATION (  '', ( #183 ), #66 ) ;
#273 = CARTESIAN_POINT ( 'NONE',  ( 0.000000000000000000, 0.000000000000000000, 0.000000000000000000 ) ) ;
#274 = DIRECTION ( 'NONE',  ( 8.164311994315692567E-17, 1.000000000000000000, -0.000000000000000000 ) ) ;
#275 =( CONVERSION_BASED_UNIT ( 'INCH', #227 ) LENGTH_UNIT ( ) NAMED_UNIT ( #210 ) );
#276 = STYLED_ITEM ( 'NONE', ( #6 ), #27 ) ;
#277 = SURFACE_STYLE_USAGE ( .BOTH. , #111 ) ;
#278 = FACE_OUTER_BOUND ( 'NONE', #4, .T. ) ;
#279 = DIRECTION ( 'NONE',  ( -0.000000000000000000, -1.000000000000000000, -0.000000000000000000 ) ) ;
#280 = FILL_AREA_STYLE_COLOUR ( '', #149 ) ;
#281 = AXIS2_PLACEMENT_3D ( 'NONE', #80, #101, #147 ) ;
#282 =( NAMED_UNIT ( * ) SI_UNIT ( $, .STERADIAN. ) SOLID_ANGLE_UNIT ( ) );
#283 = EDGE_CURVE ( 'NONE', #24, #1, #234, .T. ) ;
#284 = AXIS2_PLACEMENT_3D ( 'NONE', #3, #103, #292 ) ;
#285 = AXIS2_PLACEMENT_3D ( 'NONE', #169, #54, #148 ) ;
#286 = AXIS2_PLACEMENT_3D ( 'NONE', #18, #76, #296 ) ;
#287 =( NAMED_UNIT ( * ) PLANE_ANGLE_UNIT ( ) SI_UNIT ( $, .RADIAN. ) );
#288 = AXIS2_PLACEMENT_3D ( 'NONE', #238, #95, #121 ) ;
#289 = VERTEX_POINT ( 'NONE', #205 ) ;
#290 = ORIENTED_EDGE ( 'NONE', *, *, #236, .T. ) ;
#291 =( CONVERSION_BASED_UNIT ( 'INCH', #105 ) LENGTH_UNIT ( ) NAMED_UNIT ( #97 ) );
#292 = DIRECTION ( 'NONE',  ( -1.000000000000000000, 0.000000000000000000, 0.000000000000000000 ) ) ;
#293 = EDGE_CURVE ( 'NONE', #170, #150, #98, .T. ) ;
#294 = DIRECTION ( 'NONE',  ( 8.164311994315692567E-17, 1.000000000000000000, -0.000000000000000000 ) ) ;
#295 =( NAMED_UNIT ( * ) PLANE_ANGLE_UNIT ( ) SI_UNIT ( $, .RADIAN. ) );
#296 = DIRECTION ( 'NONE',  ( 0.000000000000000000, -0.000000000000000000, 1.000000000000000000 ) ) ;
#297 = DIRECTION ( 'NONE',  ( -1.000000000000000000, 8.164311994315692567E-17, 0.000000000000000000 ) ) ;
#298 = PRESENTATION_STYLE_ASSIGNMENT (( #277 ) ) ;
#299 = CARTESIAN_POINT ( 'NONE',  ( 0.000000000000000000, 0.000000000000000000, 0.000000000000000000 ) ) ;
#300 =( CONVERSION_BASED_UNIT ( 'INCH', #302 ) LENGTH_UNIT ( ) NAMED_UNIT ( #142 ) );
#301 = UNCERTAINTY_MEASURE_WITH_UNIT (LENGTH_MEASURE( 1.000000000000000082E-05 ), #212, 'distance_accuracy_value', 'NONE');
#302 = LENGTH_MEASURE_WITH_UNIT ( LENGTH_MEASURE( 0.02539999999999999897 ), #161 );
#303 = PRESENTATION_STYLE_ASSIGNMENT (( #253 ) ) ;
#304 = CYLINDRICAL_SURFACE ( 'NONE', #165, 0.1875000000000000555 ) ;
#305 =( GEOMETRIC_REPRESENTATION_CONTEXT ( 3 ) GLOBAL_UNCERTAINTY_ASSIGNED_CONTEXT ( ( #89 ) ) GLOBAL_UNIT_ASSIGNED_CONTEXT ( ( #291, #295, #264 ) ) REPRESENTATION_CONTEXT ( 'NONE', 'WORKASPACE' ) );
#306 =( GEOMETRIC_REPRESENTATION_CONTEXT ( 3 ) GLOBAL_UNCERTAINTY_ASSIGNED_CONTEXT ( ( #94 ) ) GLOBAL_UNIT_ASSIGNED_CONTEXT ( ( #275, #32, #10 ) ) REPRESENTATION_CONTEXT ( 'NONE', 'WORKASPACE' ) );
#307 =( CONVERSION_BASED_UNIT ( 'INCH', #181 ) LENGTH_UNIT ( ) NAMED_UNIT ( #140 ) );
#308 = EDGE_LOOP ( 'NONE', ( #128, #145 ) ) ;
#309 = COLOUR_RGB ( '',1.000000000000000000, 0.000000000000000000, 0.000000000000000000 ) ;
ENDSEC;
END-ISO-10303-21;
