ISO-10303-21;
HEADER;
FILE_DESCRIPTION (( 'STEP AP214' ),
    '1' );
FILE_NAME ('Micro_SME-014-2X.STEP',
    '2021-09-02T10:18:02',
    ( '' ),
    ( '' ),
    'SwSTEP 2.0',
    'SolidWorks 2020',
    '' );
FILE_SCHEMA (( 'AUTOMOTIVE_DESIGN' ));
ENDSEC;

DATA;
#1 = CARTESIAN_POINT ( 'NONE',  ( 0.0000000000000000000, 0.0000000000000000000, 0.0000000000000000000 ) ) ;
#2 = AXIS2_PLACEMENT_3D ( 'NONE', #205, #252, #275 ) ;
#3 = DIRECTION ( 'NONE',  ( 1.000000000000000000, 0.0000000000000000000, 0.0000000000000000000 ) ) ;
#4 = DIRECTION ( 'NONE',  ( 1.000000000000000000, 0.0000000000000000000, 0.0000000000000000000 ) ) ;
#5 = CARTESIAN_POINT ( 'NONE',  ( 0.0000000000000000000, 0.0000000000000000000, 0.0000000000000000000 ) ) ;
#6 = AXIS2_PLACEMENT_3D ( 'NONE', #59, #254, #298 ) ;
#7 = ORIENTED_EDGE ( 'NONE', *, *, #210, .F. ) ;
#8 = EDGE_CURVE ( 'NONE', #243, #56, #160, .T. ) ;
#9 = ORIENTED_EDGE ( 'NONE', *, *, #231, .T. ) ;
#10 = PRESENTATION_STYLE_ASSIGNMENT (( #218 ) ) ;
#11 = CIRCLE ( 'NONE', #258, 0.006992999999999998349 ) ;
#12 = EDGE_LOOP ( 'NONE', ( #219, #220 ) ) ;
#13 = PRODUCT_CONTEXT ( 'NONE', #208, 'mechanical' ) ;
#14 = ADVANCED_FACE ( 'NONE', ( #154 ), #44, .T. ) ;
#15 = ORIENTED_EDGE ( 'NONE', *, *, #292, .T. ) ;
#16 = LINE ( 'NONE', #226, #194 ) ;
#17 = DIRECTION ( 'NONE',  ( -0.0000000000000000000, -0.0000000000000000000, -1.000000000000000000 ) ) ;
#18 = EDGE_CURVE ( 'NONE', #35, #193, #42, .T. ) ;
#19 = MECHANICAL_DESIGN_GEOMETRIC_PRESENTATION_REPRESENTATION (  '', ( #221 ), #213 ) ;
#20 = CARTESIAN_POINT ( 'NONE',  ( 0.04750000000000064587, 6.735557395310483192E-18, 1.500000000000000222 ) ) ;
#21 = SURFACE_SIDE_STYLE ('',( #46 ) ) ;
#22 = CARTESIAN_POINT ( 'NONE',  ( -0.006992999999999996615, 8.563955066437439857E-19, 0.02100000000000000477 ) ) ;
#23 = DIRECTION ( 'NONE',  ( 1.224646799147353700E-16, 0.0000000000000000000, 1.000000000000000000 ) ) ;
#24 = DIRECTION ( 'NONE',  ( -1.224646799147353700E-16, -0.0000000000000000000, -1.000000000000000000 ) ) ;
#25 = CARTESIAN_POINT ( 'NONE',  ( 0.0000000000000000000, 0.0000000000000000000, 1.485000000000000764 ) ) ;
#26 = AXIS2_PLACEMENT_3D ( 'NONE', #238, #159, #30 ) ;
#27 = ADVANCED_FACE ( 'NONE', ( #296 ), #65, .T. ) ;
#28 = AXIS2_PLACEMENT_3D ( 'NONE', #129, #17, #294 ) ;
#29 = CIRCLE ( 'NONE', #36, 0.04750000000000064587 ) ;
#30 = DIRECTION ( 'NONE',  ( 1.000000000000000000, 0.0000000000000000000, 0.0000000000000000000 ) ) ;
#31 = SHAPE_DEFINITION_REPRESENTATION ( #80, #264 ) ;
#32 = EDGE_LOOP ( 'NONE', ( #148, #263, #33, #89 ) ) ;
#33 = ORIENTED_EDGE ( 'NONE', *, *, #97, .T. ) ;
#34 = DIRECTION ( 'NONE',  ( 0.0000000000000000000, 0.0000000000000000000, 1.000000000000000000 ) ) ;
#35 = VERTEX_POINT ( 'NONE', #200 ) ;
#36 = AXIS2_PLACEMENT_3D ( 'NONE', #152, #236, #3 ) ;
#37 = EDGE_LOOP ( 'NONE', ( #287, #39, #105, #172 ) ) ;
#38 = AXIS2_PLACEMENT_3D ( 'NONE', #237, #214, #102 ) ;
#39 = ORIENTED_EDGE ( 'NONE', *, *, #165, .T. ) ;
#40 = ADVANCED_FACE ( 'NONE', ( #151 ), #249, .T. ) ;
#41 = LINE ( 'NONE', #156, #85 ) ;
#42 = CIRCLE ( 'NONE', #212, 0.06250000000000002776 ) ;
#43 = LINE ( 'NONE', #269, #130 ) ;
#44 = CYLINDRICAL_SURFACE ( 'NONE', #74, 0.006992999999999998349 ) ;
#45 = EDGE_CURVE ( 'NONE', #193, #56, #43, .T. ) ;
#46 = SURFACE_STYLE_FILL_AREA ( #157 ) ;
#47 = DIRECTION ( 'NONE',  ( -1.000000000000000000, 0.0000000000000000000, 1.224646799147353700E-16 ) ) ;
#48 = DIMENSIONAL_EXPONENTS ( 1.000000000000000000, 0.0000000000000000000, 0.0000000000000000000, 0.0000000000000000000, 0.0000000000000000000, 0.0000000000000000000, 0.0000000000000000000 ) ;
#49 = FACE_OUTER_BOUND ( 'NONE', #64, .T. ) ;
#50 = EDGE_CURVE ( 'NONE', #145, #243, #270, .T. ) ;
#51 = FACE_OUTER_BOUND ( 'NONE', #32, .T. ) ;
#52 = DIRECTION ( 'NONE',  ( -1.224646799147353700E-16, -0.0000000000000000000, -1.000000000000000000 ) ) ;
#53 = CONICAL_SURFACE ( 'NONE', #58, 0.04750000000000064587, 0.7853981633974466137 ) ;
#54 = DIRECTION ( 'NONE',  ( 1.000000000000000000, 0.0000000000000000000, 0.0000000000000000000 ) ) ;
#55 = LENGTH_MEASURE_WITH_UNIT ( LENGTH_MEASURE( 0.02539999999999999897 ), #123 );
#56 = VERTEX_POINT ( 'NONE', #179 ) ;
#57 = APPLICATION_PROTOCOL_DEFINITION ( 'draft international standard', 'automotive_design', 1998, #208 ) ;
#58 = AXIS2_PLACEMENT_3D ( 'NONE', #79, #211, #141 ) ;
#59 = CARTESIAN_POINT ( 'NONE',  ( 4.112313005758708680E-17, 0.0000000000000000000, 0.3357958399615186829 ) ) ;
#60 =( CONVERSION_BASED_UNIT ( 'INCH', #55 ) LENGTH_UNIT ( ) NAMED_UNIT ( #142 ) );
#61 = VERTEX_POINT ( 'NONE', #20 ) ;
#62 = EDGE_CURVE ( 'NONE', #145, #191, #41, .T. ) ;
#63 = VERTEX_POINT ( 'NONE', #115 ) ;
#64 = EDGE_LOOP ( 'NONE', ( #174, #291, #173, #9 ) ) ;
#65 = CYLINDRICAL_SURFACE ( 'NONE', #2, 0.06250000000000002776 ) ;
#66 = DIRECTION ( 'NONE',  ( 0.7071067811865462405, 8.659560562354916834E-17, -0.7071067811865486830 ) ) ;
#67 = DIRECTION ( 'NONE',  ( 1.000000000000000000, 0.0000000000000000000, 0.0000000000000000000 ) ) ;
#68 = CIRCLE ( 'NONE', #242, 0.06250000000000002776 ) ;
#69 = AXIS2_PLACEMENT_3D ( 'NONE', #5, #223, #168 ) ;
#70 = CARTESIAN_POINT ( 'NONE',  ( 0.0000000000000000000, 0.0000000000000000000, 1.500000000000000222 ) ) ;
#71 = ADVANCED_FACE ( 'NONE', ( #112 ), #178, .T. ) ;
#72 = DIRECTION ( 'NONE',  ( -0.0000000000000000000, -0.0000000000000000000, -1.000000000000000000 ) ) ;
#73 = CARTESIAN_POINT ( 'NONE',  ( 0.06250000000000002776, 7.654042494670959086E-18, 1.485000000000000764 ) ) ;
#74 = AXIS2_PLACEMENT_3D ( 'NONE', #91, #114, #253 ) ;
#75 = VECTOR ( 'NONE', #66, 39.37007874015748854 ) ;
#76 = EDGE_CURVE ( 'NONE', #245, #56, #227, .T. ) ;
#77 = DIRECTION ( 'NONE',  ( -1.000000000000000000, 0.0000000000000000000, 0.0000000000000000000 ) ) ;
#78 = CARTESIAN_POINT ( 'NONE',  ( 1.048782016015437737E-34, 0.0000000000000000000, 8.563955066437442745E-19 ) ) ;
#79 = CARTESIAN_POINT ( 'NONE',  ( 0.0000000000000000000, 0.0000000000000000000, 1.500000000000000222 ) ) ;
#80 = PRODUCT_DEFINITION_SHAPE ( 'NONE', 'NONE',  #181 ) ;
#81 = DIRECTION ( 'NONE',  ( -1.000000000000000000, 0.0000000000000000000, 1.224646799147353700E-16 ) ) ;
#82 = ORIENTED_EDGE ( 'NONE', *, *, #113, .F. ) ;
#83 = FILL_AREA_STYLE_COLOUR ( '', #96 ) ;
#84 = ORIENTED_EDGE ( 'NONE', *, *, #134, .T. ) ;
#85 = VECTOR ( 'NONE', #232, 39.37007874015748143 ) ;
#86 = MECHANICAL_DESIGN_GEOMETRIC_PRESENTATION_REPRESENTATION (  '', ( #284 ), #184 ) ;
#87 = ORIENTED_EDGE ( 'NONE', *, *, #210, .T. ) ;
#88 = FILL_AREA_STYLE ('',( #83 ) ) ;
#89 = ORIENTED_EDGE ( 'NONE', *, *, #239, .F. ) ;
#90 = ORIENTED_EDGE ( 'NONE', *, *, #97, .F. ) ;
#91 = CARTESIAN_POINT ( 'NONE',  ( 0.0000000000000000000, 0.0000000000000000000, 0.0000000000000000000 ) ) ;
#92 = EDGE_CURVE ( 'NONE', #245, #267, #16, .T. ) ;
#93 = CARTESIAN_POINT ( 'NONE',  ( -0.04750000000000064587, 0.0000000000000000000, 1.500000000000000222 ) ) ;
#94 = PRESENTATION_STYLE_ASSIGNMENT (( #250 ) ) ;
#95 = DIRECTION ( 'NONE',  ( 1.000000000000000000, 0.0000000000000000000, -0.0000000000000000000 ) ) ;
#96 = COLOUR_RGB ( '',0.7921568627450980005, 0.8196078431372548767, 0.9333333333333333481 ) ;
#97 = EDGE_CURVE ( 'NONE', #63, #35, #110, .T. ) ;
#98 = DIRECTION ( 'NONE',  ( 0.0000000000000000000, 0.0000000000000000000, 1.000000000000000000 ) ) ;
#99 = DIRECTION ( 'NONE',  ( 1.000000000000000000, 0.0000000000000000000, -0.0000000000000000000 ) ) ;
#100 = CONICAL_SURFACE ( 'NONE', #26, 0.006992999999999998349, 0.1745329251994338637 ) ;
#101 =( NAMED_UNIT ( * ) PLANE_ANGLE_UNIT ( ) SI_UNIT ( $, .RADIAN. ) );
#102 = DIRECTION ( 'NONE',  ( -1.000000000000000000, 0.0000000000000000000, 0.0000000000000000000 ) ) ;
#103 = CARTESIAN_POINT ( 'NONE',  ( -0.06249999999999997918, 0.0000000000000000000, 0.3357958399615186829 ) ) ;
#104 = ORIENTED_EDGE ( 'NONE', *, *, #8, .T. ) ;
#105 = ORIENTED_EDGE ( 'NONE', *, *, #62, .T. ) ;
#106 = ORIENTED_EDGE ( 'NONE', *, *, #45, .F. ) ;
#107 = VECTOR ( 'NONE', #72, 39.37007874015748143 ) ;
#108 =( GEOMETRIC_REPRESENTATION_CONTEXT ( 3 ) GLOBAL_UNCERTAINTY_ASSIGNED_CONTEXT ( ( #118 ) ) GLOBAL_UNIT_ASSIGNED_CONTEXT ( ( #143, #192, #216 ) ) REPRESENTATION_CONTEXT ( 'NONE', 'WORKASPACE' ) );
#109 = ORIENTED_EDGE ( 'NONE', *, *, #239, .T. ) ;
#110 = LINE ( 'NONE', #93, #195 ) ;
#111 = DIRECTION ( 'NONE',  ( -1.224646799147353700E-16, -0.0000000000000000000, -1.000000000000000000 ) ) ;
#112 = FACE_OUTER_BOUND ( 'NONE', #150, .T. ) ;
#113 = EDGE_CURVE ( 'NONE', #35, #243, #229, .T. ) ;
#114 = DIRECTION ( 'NONE',  ( -1.224646799147353700E-16, -0.0000000000000000000, -1.000000000000000000 ) ) ;
#115 = CARTESIAN_POINT ( 'NONE',  ( -0.04750000000000064587, 0.0000000000000000000, 1.500000000000000222 ) ) ;
#116 = AXIS2_PLACEMENT_3D ( 'NONE', #278, #119, #77 ) ;
#117 = CARTESIAN_POINT ( 'NONE',  ( 0.006993000000000000951, 0.0000000000000000000, 0.02100000000000000477 ) ) ;
#118 = UNCERTAINTY_MEASURE_WITH_UNIT (LENGTH_MEASURE( 1.000000000000000082E-05 ), #143, 'distance_accuracy_value', 'NONE');
#119 = DIRECTION ( 'NONE',  ( 0.0000000000000000000, 0.0000000000000000000, -1.000000000000000000 ) ) ;
#120 = CARTESIAN_POINT ( 'NONE',  ( 2.571758278209443359E-18, 0.0000000000000000000, 0.02100000000000000477 ) ) ;
#121 = DIRECTION ( 'NONE',  ( -1.224646799147353700E-16, -0.0000000000000000000, -1.000000000000000000 ) ) ;
#122 = DIRECTION ( 'NONE',  ( 0.0000000000000000000, 0.0000000000000000000, -1.000000000000000000 ) ) ;
#123 =( LENGTH_UNIT ( ) NAMED_UNIT ( * ) SI_UNIT ( $, .METRE. ) );
#124 = ORIENTED_EDGE ( 'NONE', *, *, #92, .T. ) ;
#125 = CIRCLE ( 'NONE', #126, 0.04750000000000064587 ) ;
#126 = AXIS2_PLACEMENT_3D ( 'NONE', #171, #34, #54 ) ;
#127 = ORIENTED_EDGE ( 'NONE', *, *, #62, .F. ) ;
#128 = ORIENTED_EDGE ( 'NONE', *, *, #45, .T. ) ;
#129 = CARTESIAN_POINT ( 'NONE',  ( 0.0000000000000000000, 0.0000000000000000000, 1.500000000000000222 ) ) ;
#130 = VECTOR ( 'NONE', #133, 39.37007874015748143 ) ;
#131 = PRODUCT_DEFINITION_FORMATION_WITH_SPECIFIED_SOURCE ( 'ANY', '', #175, .NOT_KNOWN. ) ;
#132 = DIRECTION ( 'NONE',  ( -0.1736481776669311639, 2.126576849575783008E-17, 0.9848077530122080203 ) ) ;
#133 = DIRECTION ( 'NONE',  ( -0.0000000000000000000, -0.0000000000000000000, -1.000000000000000000 ) ) ;
#134 = EDGE_CURVE ( 'NONE', #61, #193, #201, .T. ) ;
#135 = MANIFOLD_SOLID_BREP ( 'Cut-Revolve1', #256 ) ;
#136 = DIRECTION ( 'NONE',  ( 0.0000000000000000000, 0.0000000000000000000, 1.000000000000000000 ) ) ;
#137 = DIRECTION ( 'NONE',  ( 1.000000000000000000, 0.0000000000000000000, 0.0000000000000000000 ) ) ;
#138 = DIRECTION ( 'NONE',  ( 1.000000000000000000, 0.0000000000000000000, 0.0000000000000000000 ) ) ;
#139 = DIRECTION ( 'NONE',  ( -1.224646799147353700E-16, -0.0000000000000000000, -1.000000000000000000 ) ) ;
#140 = AXIS2_PLACEMENT_3D ( 'NONE', #120, #23, #138 ) ;
#141 = DIRECTION ( 'NONE',  ( -1.000000000000000000, 0.0000000000000000000, 0.0000000000000000000 ) ) ;
#142 = DIMENSIONAL_EXPONENTS ( 1.000000000000000000, 0.0000000000000000000, 0.0000000000000000000, 0.0000000000000000000, 0.0000000000000000000, 0.0000000000000000000, 0.0000000000000000000 ) ;
#143 =( CONVERSION_BASED_UNIT ( 'INCH', #198 ) LENGTH_UNIT ( ) NAMED_UNIT ( #48 ) );
#144 = EDGE_CURVE ( 'NONE', #61, #63, #29, .T. ) ;
#145 = VERTEX_POINT ( 'NONE', #280 ) ;
#146 = AXIS2_PLACEMENT_3D ( 'NONE', #262, #121, #255 ) ;
#147 = ORIENTED_EDGE ( 'NONE', *, *, #113, .T. ) ;
#148 = ORIENTED_EDGE ( 'NONE', *, *, #134, .F. ) ;
#149 = ORIENTED_EDGE ( 'NONE', *, *, #18, .F. ) ;
#150 = EDGE_LOOP ( 'NONE', ( #197, #128, #268, #82 ) ) ;
#151 = FACE_OUTER_BOUND ( 'NONE', #169, .T. ) ;
#152 = CARTESIAN_POINT ( 'NONE',  ( 0.0000000000000000000, 0.0000000000000000000, 1.500000000000000222 ) ) ;
#153 = CIRCLE ( 'NONE', #38, 0.006992999999999998349 ) ;
#154 = FACE_OUTER_BOUND ( 'NONE', #37, .T. ) ;
#155 = CONICAL_SURFACE ( 'NONE', #140, 0.006992999999999998349, 0.1745329251994338637 ) ;
#156 = CARTESIAN_POINT ( 'NONE',  ( -0.006992999999999998349, 0.0000000000000000000, 8.563955066437442745E-19 ) ) ;
#157 = FILL_AREA_STYLE ('',( #202 ) ) ;
#158 = DIRECTION ( 'NONE',  ( -1.224646799147353700E-16, -0.0000000000000000000, -1.000000000000000000 ) ) ;
#159 = DIRECTION ( 'NONE',  ( 1.224646799147353700E-16, 0.0000000000000000000, 1.000000000000000000 ) ) ;
#160 = CIRCLE ( 'NONE', #6, 0.06250000000000002776 ) ;
#161 =( CONVERSION_BASED_UNIT ( 'INCH', #281 ) LENGTH_UNIT ( ) NAMED_UNIT ( #240 ) );
#162 = ADVANCED_FACE ( 'NONE', ( #257 ), #53, .T. ) ;
#163 = CIRCLE ( 'NONE', #228, 0.006992999999999998349 ) ;
#164 = FACE_OUTER_BOUND ( 'NONE', #12, .T. ) ;
#165 = EDGE_CURVE ( 'NONE', #245, #145, #163, .T. ) ;
#166 = SURFACE_SIDE_STYLE ('',( #289 ) ) ;
#167 = ORIENTED_EDGE ( 'NONE', *, *, #76, .F. ) ;
#168 = DIRECTION ( 'NONE',  ( 1.000000000000000000, 0.0000000000000000000, 0.0000000000000000000 ) ) ;
#169 = EDGE_LOOP ( 'NONE', ( #15, #290 ) ) ;
#170 = VECTOR ( 'NONE', #132, 39.37007874015747433 ) ;
#171 = CARTESIAN_POINT ( 'NONE',  ( 0.0000000000000000000, 0.0000000000000000000, 1.500000000000000222 ) ) ;
#172 = ORIENTED_EDGE ( 'NONE', *, *, #248, .F. ) ;
#173 = ORIENTED_EDGE ( 'NONE', *, *, #76, .T. ) ;
#174 = ORIENTED_EDGE ( 'NONE', *, *, #50, .F. ) ;
#175 = PRODUCT ( 'Micro_SME-014-2X', 'Micro_SME-014-2X', '', ( #13 ) ) ;
#176 = CARTESIAN_POINT ( 'NONE',  ( 0.0000000000000000000, 0.0000000000000000000, 1.485000000000000764 ) ) ;
#177 = CARTESIAN_POINT ( 'NONE',  ( 0.04750000000000064587, 5.817072295950006528E-18, 1.500000000000000222 ) ) ;
#178 = CYLINDRICAL_SURFACE ( 'NONE', #28, 0.06250000000000002776 ) ;
#179 = CARTESIAN_POINT ( 'NONE',  ( 0.06250000000000006939, 7.654042494670963708E-18, 0.3357958399615186829 ) ) ;
#180 = CARTESIAN_POINT ( 'NONE',  ( 0.006993000000000000951, 0.0000000000000000000, 0.02100000000000000477 ) ) ;
#181 = PRODUCT_DEFINITION ( 'UNKNOWN', '', #131, #299 ) ;
#182 = CYLINDRICAL_SURFACE ( 'NONE', #146, 0.006992999999999998349 ) ;
#183 = CARTESIAN_POINT ( 'NONE',  ( 0.006992999999999998349, 8.563955066437439857E-19, 0.0000000000000000000 ) ) ;
#184 =( GEOMETRIC_REPRESENTATION_CONTEXT ( 3 ) GLOBAL_UNCERTAINTY_ASSIGNED_CONTEXT ( ( #277 ) ) GLOBAL_UNIT_ASSIGNED_CONTEXT ( ( #161, #101, #186 ) ) REPRESENTATION_CONTEXT ( 'NONE', 'WORKASPACE' ) );
#185 = ADVANCED_FACE ( 'NONE', ( #51 ), #204, .T. ) ;
#186 =( NAMED_UNIT ( * ) SI_UNIT ( $, .STERADIAN. ) SOLID_ANGLE_UNIT ( ) );
#187 = ADVANCED_FACE ( 'NONE', ( #279 ), #182, .T. ) ;
#188 = CARTESIAN_POINT ( 'NONE',  ( 4.112313005758708680E-17, 0.0000000000000000000, 0.3357958399615186829 ) ) ;
#189 = EDGE_CURVE ( 'NONE', #191, #267, #222, .T. ) ;
#190 = EDGE_LOOP ( 'NONE', ( #7, #244, #104, #167 ) ) ;
#191 = VERTEX_POINT ( 'NONE', #207 ) ;
#192 =( NAMED_UNIT ( * ) PLANE_ANGLE_UNIT ( ) SI_UNIT ( $, .RADIAN. ) );
#193 = VERTEX_POINT ( 'NONE', #73 ) ;
#194 = VECTOR ( 'NONE', #111, 39.37007874015748143 ) ;
#195 = VECTOR ( 'NONE', #276, 39.37007874015748854 ) ;
#196 =( NAMED_UNIT ( * ) PLANE_ANGLE_UNIT ( ) SI_UNIT ( $, .RADIAN. ) );
#197 = ORIENTED_EDGE ( 'NONE', *, *, #18, .T. ) ;
#198 = LENGTH_MEASURE_WITH_UNIT ( LENGTH_MEASURE( 0.02539999999999999897 ), #285 );
#199 = ORIENTED_EDGE ( 'NONE', *, *, #189, .F. ) ;
#200 = CARTESIAN_POINT ( 'NONE',  ( -0.06250000000000002776, 0.0000000000000000000, 1.485000000000000764 ) ) ;
#201 = LINE ( 'NONE', #177, #75 ) ;
#202 = FILL_AREA_STYLE_COLOUR ( '', #251 ) ;
#203 = DIRECTION ( 'NONE',  ( 0.0000000000000000000, 0.0000000000000000000, -1.000000000000000000 ) ) ;
#204 = CONICAL_SURFACE ( 'NONE', #116, 0.04750000000000064587, 0.7853981633974466137 ) ;
#205 = CARTESIAN_POINT ( 'NONE',  ( 0.0000000000000000000, 0.0000000000000000000, 1.500000000000000222 ) ) ;
#206 = PRODUCT_RELATED_PRODUCT_CATEGORY ( 'part', '', ( #175 ) ) ;
#207 = CARTESIAN_POINT ( 'NONE',  ( -0.006992999999999998349, 0.0000000000000000000, 1.712791013287488549E-18 ) ) ;
#208 = APPLICATION_CONTEXT ( 'automotive_design' ) ;
#209 = FACE_OUTER_BOUND ( 'NONE', #190, .T. ) ;
#210 = EDGE_CURVE ( 'NONE', #145, #245, #153, .T. ) ;
#211 = DIRECTION ( 'NONE',  ( 0.0000000000000000000, 0.0000000000000000000, -1.000000000000000000 ) ) ;
#212 = AXIS2_PLACEMENT_3D ( 'NONE', #176, #203, #67 ) ;
#213 =( GEOMETRIC_REPRESENTATION_CONTEXT ( 3 ) GLOBAL_UNCERTAINTY_ASSIGNED_CONTEXT ( ( #234 ) ) GLOBAL_UNIT_ASSIGNED_CONTEXT ( ( #60, #196, #266 ) ) REPRESENTATION_CONTEXT ( 'NONE', 'WORKASPACE' ) );
#214 = DIRECTION ( 'NONE',  ( -1.224646799147353700E-16, -0.0000000000000000000, -1.000000000000000000 ) ) ;
#215 = APPLICATION_PROTOCOL_DEFINITION ( 'draft international standard', 'automotive_design', 1998, #230 ) ;
#216 =( NAMED_UNIT ( * ) SI_UNIT ( $, .STERADIAN. ) SOLID_ANGLE_UNIT ( ) );
#217 = ORIENTED_EDGE ( 'NONE', *, *, #231, .F. ) ;
#218 = SURFACE_STYLE_USAGE ( .BOTH. , #166 ) ;
#219 = ORIENTED_EDGE ( 'NONE', *, *, #189, .T. ) ;
#220 = ORIENTED_EDGE ( 'NONE', *, *, #248, .T. ) ;
#221 = STYLED_ITEM ( 'NONE', ( #10 ), #264 ) ;
#222 = CIRCLE ( 'NONE', #246, 0.006992999999999998349 ) ;
#223 = DIRECTION ( 'NONE',  ( 0.0000000000000000000, 0.0000000000000000000, 1.000000000000000000 ) ) ;
#224 = EDGE_LOOP ( 'NONE', ( #247, #84, #149, #90 ) ) ;
#225 = ADVANCED_FACE ( 'NONE', ( #209 ), #100, .T. ) ;
#226 = CARTESIAN_POINT ( 'NONE',  ( 0.006992999999999998349, 8.563955066437439857E-19, -8.563955066437442745E-19 ) ) ;
#227 = LINE ( 'NONE', #180, #288 ) ;
#228 = AXIS2_PLACEMENT_3D ( 'NONE', #259, #52, #233 ) ;
#229 = LINE ( 'NONE', #293, #107 ) ;
#230 = APPLICATION_CONTEXT ( 'automotive_design' ) ;
#231 = EDGE_CURVE ( 'NONE', #56, #243, #260, .T. ) ;
#232 = DIRECTION ( 'NONE',  ( -1.224646799147353700E-16, -0.0000000000000000000, -1.000000000000000000 ) ) ;
#233 = DIRECTION ( 'NONE',  ( -1.000000000000000000, 0.0000000000000000000, 0.0000000000000000000 ) ) ;
#234 = UNCERTAINTY_MEASURE_WITH_UNIT (LENGTH_MEASURE( 1.000000000000000082E-05 ), #60, 'distance_accuracy_value', 'NONE');
#235 = PLANE ( 'NONE',  #265 ) ;
#236 = DIRECTION ( 'NONE',  ( 0.0000000000000000000, 0.0000000000000000000, 1.000000000000000000 ) ) ;
#237 = CARTESIAN_POINT ( 'NONE',  ( 2.571758278209443359E-18, 0.0000000000000000000, 0.02100000000000000477 ) ) ;
#238 = CARTESIAN_POINT ( 'NONE',  ( 2.571758278209443359E-18, 0.0000000000000000000, 0.02100000000000000477 ) ) ;
#239 = EDGE_CURVE ( 'NONE', #193, #35, #68, .T. ) ;
#240 = DIMENSIONAL_EXPONENTS ( 1.000000000000000000, 0.0000000000000000000, 0.0000000000000000000, 0.0000000000000000000, 0.0000000000000000000, 0.0000000000000000000, 0.0000000000000000000 ) ;
#241 = EDGE_LOOP ( 'NONE', ( #87, #124, #199, #127 ) ) ;
#242 = AXIS2_PLACEMENT_3D ( 'NONE', #25, #122, #4 ) ;
#243 = VERTEX_POINT ( 'NONE', #103 ) ;
#244 = ORIENTED_EDGE ( 'NONE', *, *, #50, .T. ) ;
#245 = VERTEX_POINT ( 'NONE', #117 ) ;
#246 = AXIS2_PLACEMENT_3D ( 'NONE', #78, #139, #47 ) ;
#247 = ORIENTED_EDGE ( 'NONE', *, *, #144, .F. ) ;
#248 = EDGE_CURVE ( 'NONE', #267, #191, #11, .T. ) ;
#249 = PLANE ( 'NONE',  #283 ) ;
#250 = SURFACE_STYLE_USAGE ( .BOTH. , #21 ) ;
#251 = COLOUR_RGB ( '',0.7921568627450980005, 0.8196078431372548767, 0.9333333333333333481 ) ;
#252 = DIRECTION ( 'NONE',  ( -0.0000000000000000000, -0.0000000000000000000, -1.000000000000000000 ) ) ;
#253 = DIRECTION ( 'NONE',  ( -1.000000000000000000, 0.0000000000000000000, 1.224646799147353700E-16 ) ) ;
#254 = DIRECTION ( 'NONE',  ( -1.224646799147353700E-16, -0.0000000000000000000, -1.000000000000000000 ) ) ;
#255 = DIRECTION ( 'NONE',  ( -1.000000000000000000, 0.0000000000000000000, 1.224646799147353700E-16 ) ) ;
#256 = CLOSED_SHELL ( 'NONE', ( #187, #225, #162, #71, #27, #40, #185, #272, #14, #261 ) ) ;
#257 = FACE_OUTER_BOUND ( 'NONE', #224, .T. ) ;
#258 = AXIS2_PLACEMENT_3D ( 'NONE', #282, #24, #81 ) ;
#259 = CARTESIAN_POINT ( 'NONE',  ( 2.571758278209443359E-18, 0.0000000000000000000, 0.02100000000000000477 ) ) ;
#260 = CIRCLE ( 'NONE', #273, 0.06250000000000002776 ) ;
#261 = ADVANCED_FACE ( 'NONE', ( #164 ), #235, .F. ) ;
#262 = CARTESIAN_POINT ( 'NONE',  ( 0.0000000000000000000, 0.0000000000000000000, 0.0000000000000000000 ) ) ;
#263 = ORIENTED_EDGE ( 'NONE', *, *, #292, .F. ) ;
#264 = ADVANCED_BREP_SHAPE_REPRESENTATION ( 'Micro_SME-014-2X', ( #135, #69 ), #108 ) ;
#265 = AXIS2_PLACEMENT_3D ( 'NONE', #1, #136, #99 ) ;
#266 =( NAMED_UNIT ( * ) SI_UNIT ( $, .STERADIAN. ) SOLID_ANGLE_UNIT ( ) );
#267 = VERTEX_POINT ( 'NONE', #183 ) ;
#268 = ORIENTED_EDGE ( 'NONE', *, *, #8, .F. ) ;
#269 = CARTESIAN_POINT ( 'NONE',  ( 0.06250000000000002776, 7.654042494670959086E-18, 1.500000000000000222 ) ) ;
#270 = LINE ( 'NONE', #22, #170 ) ;
#271 =( LENGTH_UNIT ( ) NAMED_UNIT ( * ) SI_UNIT ( $, .METRE. ) );
#272 = ADVANCED_FACE ( 'NONE', ( #49 ), #155, .T. ) ;
#273 = AXIS2_PLACEMENT_3D ( 'NONE', #188, #158, #137 ) ;
#274 = PRESENTATION_LAYER_ASSIGNMENT (  '', '', ( #284 ) ) ;
#275 = DIRECTION ( 'NONE',  ( -1.000000000000000000, 0.0000000000000000000, 0.0000000000000000000 ) ) ;
#276 = DIRECTION ( 'NONE',  ( -0.7071067811865462405, 0.0000000000000000000, -0.7071067811865486830 ) ) ;
#277 = UNCERTAINTY_MEASURE_WITH_UNIT (LENGTH_MEASURE( 1.000000000000000082E-05 ), #161, 'distance_accuracy_value', 'NONE');
#278 = CARTESIAN_POINT ( 'NONE',  ( 0.0000000000000000000, 0.0000000000000000000, 1.500000000000000222 ) ) ;
#279 = FACE_OUTER_BOUND ( 'NONE', #241, .T. ) ;
#280 = CARTESIAN_POINT ( 'NONE',  ( -0.006992999999999996615, 4.255219000657352499E-18, 0.02100000000000000477 ) ) ;
#281 = LENGTH_MEASURE_WITH_UNIT ( LENGTH_MEASURE( 0.02539999999999999897 ), #271 );
#282 = CARTESIAN_POINT ( 'NONE',  ( 1.048782016015437737E-34, 0.0000000000000000000, 8.563955066437442745E-19 ) ) ;
#283 = AXIS2_PLACEMENT_3D ( 'NONE', #70, #98, #95 ) ;
#284 = STYLED_ITEM ( 'NONE', ( #94 ), #135 ) ;
#285 =( LENGTH_UNIT ( ) NAMED_UNIT ( * ) SI_UNIT ( $, .METRE. ) );
#286 = EDGE_LOOP ( 'NONE', ( #106, #109, #147, #217 ) ) ;
#287 = ORIENTED_EDGE ( 'NONE', *, *, #92, .F. ) ;
#288 = VECTOR ( 'NONE', #295, 39.37007874015748143 ) ;
#289 = SURFACE_STYLE_FILL_AREA ( #88 ) ;
#290 = ORIENTED_EDGE ( 'NONE', *, *, #144, .T. ) ;
#291 = ORIENTED_EDGE ( 'NONE', *, *, #165, .F. ) ;
#292 = EDGE_CURVE ( 'NONE', #63, #61, #125, .T. ) ;
#293 = CARTESIAN_POINT ( 'NONE',  ( -0.06250000000000002776, 0.0000000000000000000, 1.500000000000000222 ) ) ;
#294 = DIRECTION ( 'NONE',  ( -1.000000000000000000, 0.0000000000000000000, 0.0000000000000000000 ) ) ;
#295 = DIRECTION ( 'NONE',  ( 0.1736481776669313581, 0.0000000000000000000, 0.9848077530122077983 ) ) ;
#296 = FACE_OUTER_BOUND ( 'NONE', #286, .T. ) ;
#297 = PRESENTATION_LAYER_ASSIGNMENT (  '', '', ( #221 ) ) ;
#298 = DIRECTION ( 'NONE',  ( 1.000000000000000000, 0.0000000000000000000, 0.0000000000000000000 ) ) ;
#299 = PRODUCT_DEFINITION_CONTEXT ( 'detailed design', #230, 'design' ) ;
ENDSEC;
END-ISO-10303-21;
