ISO-10303-21;
HEADER;
FILE_DESCRIPTION (( 'STEP AP214' ),
    '1' );
FILE_NAME ('Micro_AEMM-020-4X.STEP',
    '2022-03-15T14:23:25',
    ( '' ),
    ( '' ),
    'SwSTEP 2.0',
    'SolidWorks 2022',
    '' );
FILE_SCHEMA (( 'AUTOMOTIVE_DESIGN' ));
ENDSEC;

DATA;
#1 = AXIS2_PLACEMENT_3D ( 'NONE', #139, #299, #253 ) ;
#2 = DIRECTION ( 'NONE',  ( 0.000000000000000000, 0.000000000000000000, 1.000000000000000000 ) ) ;
#3 = AXIS2_PLACEMENT_3D ( 'NONE', #222, #44, #52 ) ;
#4 = EDGE_LOOP ( 'NONE', ( #76, #232 ) ) ;
#5 = EDGE_CURVE ( 'NONE', #168, #284, #61, .T. ) ;
#6 = CARTESIAN_POINT ( 'NONE',  ( 0.000000000000000000, 0.000000000000000000, 0.000000000000000000 ) ) ;
#7 = DIRECTION ( 'NONE',  ( -1.224646799147353207E-16, -0.000000000000000000, -1.000000000000000000 ) ) ;
#8 = ORIENTED_EDGE ( 'NONE', *, *, #122, .F. ) ;
#9 = SURFACE_STYLE_USAGE ( .BOTH. , #259 ) ;
#10 = EDGE_LOOP ( 'NONE', ( #206, #49, #252, #59 ) ) ;
#11 = APPLICATION_CONTEXT ( 'automotive_design' ) ;
#12 = VERTEX_POINT ( 'NONE', #229 ) ;
#13 = EDGE_CURVE ( 'NONE', #284, #168, #103, .T. ) ;
#14 = PLANE ( 'NONE',  #188 ) ;
#15 = DIMENSIONAL_EXPONENTS ( 1.000000000000000000, 0.000000000000000000, 0.000000000000000000, 0.000000000000000000, 0.000000000000000000, 0.000000000000000000, 0.000000000000000000 ) ;
#16 = AXIS2_PLACEMENT_3D ( 'NONE', #264, #19, #47 ) ;
#17 = DIRECTION ( 'NONE',  ( 1.000000000000000000, 0.000000000000000000, -0.000000000000000000 ) ) ;
#18 = DIRECTION ( 'NONE',  ( -1.224646799147353207E-16, -0.000000000000000000, -1.000000000000000000 ) ) ;
#19 = DIRECTION ( 'NONE',  ( 0.000000000000000000, 0.000000000000000000, -1.000000000000000000 ) ) ;
#20 = AXIS2_PLACEMENT_3D ( 'NONE', #89, #159, #271 ) ;
#21 = CARTESIAN_POINT ( 'NONE',  ( -0.07874000000000000443, 0.000000000000000000, 1.953504000000000129 ) ) ;
#22 = ADVANCED_FACE ( 'NONE', ( #114 ), #88, .T. ) ;
#23 = LINE ( 'NONE', #203, #180 ) ;
#24 = DIRECTION ( 'NONE',  ( 0.000000000000000000, 0.000000000000000000, 1.000000000000000000 ) ) ;
#25 = STYLED_ITEM ( 'NONE', ( #39 ), #41 ) ;
#26 = DIRECTION ( 'NONE',  ( -1.000000000000000000, 0.000000000000000000, 1.224646799147353207E-16 ) ) ;
#27 = APPLICATION_CONTEXT ( 'automotive_design' ) ;
#28 = CARTESIAN_POINT ( 'NONE',  ( 0.06374000000000018540, 7.805898697765251255E-18, 1.968503999999999809 ) ) ;
#29 = ORIENTED_EDGE ( 'NONE', *, *, #151, .T. ) ;
#30 = DIRECTION ( 'NONE',  ( 0.000000000000000000, 0.000000000000000000, -1.000000000000000000 ) ) ;
#31 = ADVANCED_FACE ( 'NONE', ( #90 ), #14, .F. ) ;
#32 = CARTESIAN_POINT ( 'NONE',  ( 2.410717224121564935E-17, 0.000000000000000000, 0.1968500000000000250 ) ) ;
#33 = EDGE_LOOP ( 'NONE', ( #81, #186, #278, #58 ) ) ;
#34 = VECTOR ( 'NONE', #118, 39.37007874015748143 ) ;
#35 = ORIENTED_EDGE ( 'NONE', *, *, #208, .T. ) ;
#36 = SURFACE_STYLE_FILL_AREA ( #87 ) ;
#37 = CARTESIAN_POINT ( 'NONE',  ( 0.000000000000000000, 0.000000000000000000, 1.968503999999999809 ) ) ;
#38 = CARTESIAN_POINT ( 'NONE',  ( 0.000000000000000000, 0.000000000000000000, 0.000000000000000000 ) ) ;
#39 = PRESENTATION_STYLE_ASSIGNMENT (( #83 ) ) ;
#40 = CONICAL_SURFACE ( 'NONE', #173, 0.06374000000000018540, 0.7853981633974522758 ) ;
#41 = MANIFOLD_SOLID_BREP ( 'Cut-Revolve1', #187 ) ;
#42 = UNCERTAINTY_MEASURE_WITH_UNIT (LENGTH_MEASURE( 1.000000000000000082E-05 ), #191, 'distance_accuracy_value', 'NONE');
#43 = DIRECTION ( 'NONE',  ( 1.000000000000000000, 0.000000000000000000, 0.000000000000000000 ) ) ;
#44 = DIRECTION ( 'NONE',  ( -1.224646799147353207E-16, -0.000000000000000000, -1.000000000000000000 ) ) ;
#45 = ADVANCED_FACE ( 'NONE', ( #296 ), #192, .T. ) ;
#46 = AXIS2_PLACEMENT_3D ( 'NONE', #50, #201, #223 ) ;
#47 = DIRECTION ( 'NONE',  ( -1.000000000000000000, 0.000000000000000000, 0.000000000000000000 ) ) ;
#48 = CARTESIAN_POINT ( 'NONE',  ( 0.06374000000000018540, 8.724383797125754882E-18, 1.968503999999999809 ) ) ;
#49 = ORIENTED_EDGE ( 'NONE', *, *, #216, .T. ) ;
#50 = CARTESIAN_POINT ( 'NONE',  ( 0.000000000000000000, 0.000000000000000000, 1.968503999999999809 ) ) ;
#51 = DIMENSIONAL_EXPONENTS ( 1.000000000000000000, 0.000000000000000000, 0.000000000000000000, 0.000000000000000000, 0.000000000000000000, 0.000000000000000000, 0.000000000000000000 ) ;
#52 = DIRECTION ( 'NONE',  ( -1.000000000000000000, 0.000000000000000000, 1.224646799147352961E-16 ) ) ;
#53 = ORIENTED_EDGE ( 'NONE', *, *, #200, .F. ) ;
#54 = CYLINDRICAL_SURFACE ( 'NONE', #46, 0.07874000000000000443 ) ;
#55 = AXIS2_PLACEMENT_3D ( 'NONE', #268, #195, #142 ) ;
#56 = ORIENTED_EDGE ( 'NONE', *, *, #140, .T. ) ;
#57 = ORIENTED_EDGE ( 'NONE', *, *, #64, .F. ) ;
#58 = ORIENTED_EDGE ( 'NONE', *, *, #151, .F. ) ;
#59 = ORIENTED_EDGE ( 'NONE', *, *, #167, .F. ) ;
#60 =( LENGTH_UNIT ( ) NAMED_UNIT ( * ) SI_UNIT ( $, .METRE. ) );
#61 = CIRCLE ( 'NONE', #275, 0.03933063000000000531 ) ;
#62 = PRESENTATION_LAYER_ASSIGNMENT (  '', '', ( #25 ) ) ;
#63 = CARTESIAN_POINT ( 'NONE',  ( 0.03933062999999999837, 4.816613013794885432E-18, -9.478001694819074349E-34 ) ) ;
#64 = EDGE_CURVE ( 'NONE', #169, #245, #129, .T. ) ;
#65 = CARTESIAN_POINT ( 'NONE',  ( -0.07874000000000000443, 0.000000000000000000, 1.968503999999999809 ) ) ;
#66 = CARTESIAN_POINT ( 'NONE',  ( -0.03933062999999999837, 0.000000000000000000, 9.633226027589770864E-18 ) ) ;
#67 = AXIS2_PLACEMENT_3D ( 'NONE', #32, #134, #219 ) ;
#68 = LINE ( 'NONE', #273, #146 ) ;
#69 = ORIENTED_EDGE ( 'NONE', *, *, #248, .F. ) ;
#70 = CARTESIAN_POINT ( 'NONE',  ( 0.07874000000000004607, 9.642868896486264672E-18, 0.4203516436035862891 ) ) ;
#71 =( CONVERSION_BASED_UNIT ( 'INCH', #274 ) LENGTH_UNIT ( ) NAMED_UNIT ( #101 ) );
#72 = PRESENTATION_LAYER_ASSIGNMENT (  '', '', ( #197 ) ) ;
#73 =( NAMED_UNIT ( * ) SI_UNIT ( $, .STERADIAN. ) SOLID_ANGLE_UNIT ( ) );
#74 = ADVANCED_FACE ( 'NONE', ( #119 ), #54, .T. ) ;
#75 = ORIENTED_EDGE ( 'NONE', *, *, #272, .T. ) ;
#76 = ORIENTED_EDGE ( 'NONE', *, *, #100, .T. ) ;
#77 = AXIS2_PLACEMENT_3D ( 'NONE', #117, #18, #174 ) ;
#78 = ORIENTED_EDGE ( 'NONE', *, *, #122, .T. ) ;
#79 = ORIENTED_EDGE ( 'NONE', *, *, #272, .F. ) ;
#80 = DIRECTION ( 'NONE',  ( 1.000000000000000000, 0.000000000000000000, 0.000000000000000000 ) ) ;
#81 = ORIENTED_EDGE ( 'NONE', *, *, #248, .T. ) ;
#82 = CIRCLE ( 'NONE', #270, 0.07874000000000000443 ) ;
#83 = SURFACE_STYLE_USAGE ( .BOTH. , #237 ) ;
#84 = SHAPE_DEFINITION_REPRESENTATION ( #210, #239 ) ;
#85 = EDGE_CURVE ( 'NONE', #231, #104, #194, .T. ) ;
#86 = CARTESIAN_POINT ( 'NONE',  ( -0.06374000000000018540, 0.000000000000000000, 1.968503999999999809 ) ) ;
#87 = FILL_AREA_STYLE ('',( #131 ) ) ;
#88 = CYLINDRICAL_SURFACE ( 'NONE', #107, 0.07874000000000000443 ) ;
#89 = CARTESIAN_POINT ( 'NONE',  ( 5.898649710075393742E-34, 0.000000000000000000, 4.816613013794885432E-18 ) ) ;
#90 = FACE_OUTER_BOUND ( 'NONE', #106, .T. ) ;
#91 = AXIS2_PLACEMENT_3D ( 'NONE', #6, #7, #26 ) ;
#92 = AXIS2_PLACEMENT_3D ( 'NONE', #38, #190, #80 ) ;
#93 = DIRECTION ( 'NONE',  ( 0.000000000000000000, 0.000000000000000000, -1.000000000000000000 ) ) ;
#94 = DIRECTION ( 'NONE',  ( 0.000000000000000000, 0.000000000000000000, 1.000000000000000000 ) ) ;
#95 = LINE ( 'NONE', #112, #233 ) ;
#96 = LINE ( 'NONE', #157, #34 ) ;
#97 = CIRCLE ( 'NONE', #1, 0.07874000000000000443 ) ;
#98 = PRODUCT_DEFINITION_FORMATION_WITH_SPECIFIED_SOURCE ( 'ANY', '', #132, .NOT_KNOWN. ) ;
#99 = CARTESIAN_POINT ( 'NONE',  ( -0.06374000000000018540, 0.000000000000000000, 1.968503999999999809 ) ) ;
#100 = EDGE_CURVE ( 'NONE', #169, #150, #220, .T. ) ;
#101 = DIMENSIONAL_EXPONENTS ( 1.000000000000000000, 0.000000000000000000, 0.000000000000000000, 0.000000000000000000, 0.000000000000000000, 0.000000000000000000, 0.000000000000000000 ) ;
#102 = EDGE_CURVE ( 'NONE', #150, #169, #111, .T. ) ;
#103 = CIRCLE ( 'NONE', #67, 0.03933063000000000531 ) ;
#104 = VERTEX_POINT ( 'NONE', #66 ) ;
#105 = CARTESIAN_POINT ( 'NONE',  ( 2.410717224121564935E-17, 0.000000000000000000, 0.1968500000000000250 ) ) ;
#106 = EDGE_LOOP ( 'NONE', ( #211, #224 ) ) ;
#107 = AXIS2_PLACEMENT_3D ( 'NONE', #288, #156, #235 ) ;
#108 = ORIENTED_EDGE ( 'NONE', *, *, #216, .F. ) ;
#109 = VERTEX_POINT ( 'NONE', #160 ) ;
#110 = EDGE_CURVE ( 'NONE', #12, #185, #95, .T. ) ;
#111 = CIRCLE ( 'NONE', #147, 0.06374000000000018540 ) ;
#112 = CARTESIAN_POINT ( 'NONE',  ( 0.07874000000000000443, 9.642868896486258509E-18, 1.968503999999999809 ) ) ;
#113 = CARTESIAN_POINT ( 'NONE',  ( 2.410717224121564935E-17, 0.000000000000000000, 0.1968500000000000250 ) ) ;
#114 = FACE_OUTER_BOUND ( 'NONE', #163, .T. ) ;
#115 = CIRCLE ( 'NONE', #55, 0.07874000000000000443 ) ;
#116 = CARTESIAN_POINT ( 'NONE',  ( 5.147822948554609098E-17, 0.000000000000000000, 0.4203516436035862891 ) ) ;
#117 = CARTESIAN_POINT ( 'NONE',  ( 0.000000000000000000, 0.000000000000000000, 0.000000000000000000 ) ) ;
#118 = DIRECTION ( 'NONE',  ( -1.224646799147353207E-16, -0.000000000000000000, -1.000000000000000000 ) ) ;
#119 = FACE_OUTER_BOUND ( 'NONE', #33, .T. ) ;
#120 = CONICAL_SURFACE ( 'NONE', #281, 0.03933063000000000531, 0.1745329251994339192 ) ;
#121 = CARTESIAN_POINT ( 'NONE',  ( 0.000000000000000000, 0.000000000000000000, 1.968503999999999809 ) ) ;
#122 = EDGE_CURVE ( 'NONE', #284, #185, #23, .T. ) ;
#123 = ORIENTED_EDGE ( 'NONE', *, *, #100, .F. ) ;
#124 = AXIS2_PLACEMENT_3D ( 'NONE', #113, #221, #198 ) ;
#125 = FACE_OUTER_BOUND ( 'NONE', #166, .T. ) ;
#126 = ORIENTED_EDGE ( 'NONE', *, *, #110, .F. ) ;
#127 = ORIENTED_EDGE ( 'NONE', *, *, #64, .T. ) ;
#128 = LENGTH_MEASURE_WITH_UNIT ( LENGTH_MEASURE( 0.02539999999999999897 ), #60 );
#129 = LINE ( 'NONE', #86, #242 ) ;
#130 = EDGE_CURVE ( 'NONE', #185, #109, #115, .T. ) ;
#131 = FILL_AREA_STYLE_COLOUR ( '', #258 ) ;
#132 = PRODUCT ( 'Micro_AEMM-020-4X', 'Micro_AEMM-020-4X', '', ( #193 ) ) ;
#133 = AXIS2_PLACEMENT_3D ( 'NONE', #297, #24, #241 ) ;
#134 = DIRECTION ( 'NONE',  ( -1.224646799147353207E-16, -0.000000000000000000, -1.000000000000000000 ) ) ;
#135 = DIRECTION ( 'NONE',  ( -1.224646799147353207E-16, -0.000000000000000000, -1.000000000000000000 ) ) ;
#136 = UNCERTAINTY_MEASURE_WITH_UNIT (LENGTH_MEASURE( 1.000000000000000082E-05 ), #71, 'distance_accuracy_value', 'NONE');
#137 = FACE_OUTER_BOUND ( 'NONE', #282, .T. ) ;
#138 = MECHANICAL_DESIGN_GEOMETRIC_PRESENTATION_REPRESENTATION (  '', ( #197 ), #283 ) ;
#139 = CARTESIAN_POINT ( 'NONE',  ( 0.000000000000000000, 0.000000000000000000, 1.953504000000000129 ) ) ;
#140 = EDGE_CURVE ( 'NONE', #109, #185, #82, .T. ) ;
#141 = PRODUCT_RELATED_PRODUCT_CATEGORY ( 'part', '', ( #132 ) ) ;
#142 = DIRECTION ( 'NONE',  ( 1.000000000000000000, 0.000000000000000000, 0.000000000000000000 ) ) ;
#143 = DIRECTION ( 'NONE',  ( 1.000000000000000000, 0.000000000000000000, 0.000000000000000000 ) ) ;
#144 = CIRCLE ( 'NONE', #3, 0.03933062999999999837 ) ;
#145 = DIRECTION ( 'NONE',  ( -1.224646799147353207E-16, -0.000000000000000000, -1.000000000000000000 ) ) ;
#146 = VECTOR ( 'NONE', #162, 39.37007874015747433 ) ;
#147 = AXIS2_PLACEMENT_3D ( 'NONE', #175, #2, #43 ) ;
#148 = LINE ( 'NONE', #28, #289 ) ;
#149 = DIRECTION ( 'NONE',  ( -1.000000000000000000, 0.000000000000000000, 0.000000000000000000 ) ) ;
#150 = VERTEX_POINT ( 'NONE', #48 ) ;
#151 = EDGE_CURVE ( 'NONE', #245, #109, #266, .T. ) ;
#152 = ORIENTED_EDGE ( 'NONE', *, *, #208, .F. ) ;
#153 = VECTOR ( 'NONE', #295, 39.37007874015748143 ) ;
#154 = EDGE_CURVE ( 'NONE', #104, #231, #144, .T. ) ;
#155 = ORIENTED_EDGE ( 'NONE', *, *, #5, .F. ) ;
#156 = DIRECTION ( 'NONE',  ( -0.000000000000000000, -0.000000000000000000, -1.000000000000000000 ) ) ;
#157 = CARTESIAN_POINT ( 'NONE',  ( -0.03933063000000000531, 0.000000000000000000, 4.816613013794886973E-18 ) ) ;
#158 =( NAMED_UNIT ( * ) SI_UNIT ( $, .STERADIAN. ) SOLID_ANGLE_UNIT ( ) );
#159 = DIRECTION ( 'NONE',  ( -1.224646799147353207E-16, -0.000000000000000000, -1.000000000000000000 ) ) ;
#160 = CARTESIAN_POINT ( 'NONE',  ( -0.07873999999999994892, 0.000000000000000000, 0.4203516436035862891 ) ) ;
#161 = PRODUCT_DEFINITION ( 'UNKNOWN', '', #98, #199 ) ;
#162 = DIRECTION ( 'NONE',  ( -0.1736481776669312194, 2.126576849575783625E-17, 0.9848077530122080203 ) ) ;
#163 = EDGE_LOOP ( 'NONE', ( #126, #214, #29, #280 ) ) ;
#164 = LINE ( 'NONE', #240, #213 ) ;
#165 = DIRECTION ( 'NONE',  ( -1.000000000000000000, 0.000000000000000000, 0.000000000000000000 ) ) ;
#166 = EDGE_LOOP ( 'NONE', ( #155, #35, #56, #8 ) ) ;
#167 = EDGE_CURVE ( 'NONE', #168, #104, #96, .T. ) ;
#168 = VERTEX_POINT ( 'NONE', #218 ) ;
#169 = VERTEX_POINT ( 'NONE', #99 ) ;
#170 = EDGE_LOOP ( 'NONE', ( #212, #75, #69, #57 ) ) ;
#171 = AXIS2_PLACEMENT_3D ( 'NONE', #181, #93, #244 ) ;
#172 = APPLICATION_PROTOCOL_DEFINITION ( 'draft international standard', 'automotive_design', 1998, #27 ) ;
#173 = AXIS2_PLACEMENT_3D ( 'NONE', #121, #30, #165 ) ;
#174 = DIRECTION ( 'NONE',  ( -1.000000000000000000, 0.000000000000000000, 1.224646799147353207E-16 ) ) ;
#175 = CARTESIAN_POINT ( 'NONE',  ( 0.000000000000000000, 0.000000000000000000, 1.968503999999999809 ) ) ;
#176 = DIRECTION ( 'NONE',  ( 1.000000000000000000, 0.000000000000000000, -0.000000000000000000 ) ) ;
#177 = ADVANCED_FACE ( 'NONE', ( #137 ), #179, .T. ) ;
#178 = DIRECTION ( 'NONE',  ( 0.1736481776669314137, 0.000000000000000000, 0.9848077530122077983 ) ) ;
#179 = CYLINDRICAL_SURFACE ( 'NONE', #77, 0.03933063000000000531 ) ;
#180 = VECTOR ( 'NONE', #178, 39.37007874015748143 ) ;
#181 = CARTESIAN_POINT ( 'NONE',  ( 0.000000000000000000, 0.000000000000000000, 1.953504000000000129 ) ) ;
#182 = DIRECTION ( 'NONE',  ( -0.7071067811865502373, 0.000000000000000000, -0.7071067811865446862 ) ) ;
#183 = COLOUR_RGB ( '',0.7921568627450980005, 0.8196078431372548767, 0.9333333333333333481 ) ;
#184 = FACE_OUTER_BOUND ( 'NONE', #10, .T. ) ;
#185 = VERTEX_POINT ( 'NONE', #70 ) ;
#186 = ORIENTED_EDGE ( 'NONE', *, *, #110, .T. ) ;
#187 = CLOSED_SHELL ( 'NONE', ( #260, #298, #226, #74, #22, #45, #287, #236, #177, #31 ) ) ;
#188 = AXIS2_PLACEMENT_3D ( 'NONE', #234, #238, #17 ) ;
#189 = ORIENTED_EDGE ( 'NONE', *, *, #130, .T. ) ;
#190 = DIRECTION ( 'NONE',  ( 0.000000000000000000, 0.000000000000000000, 1.000000000000000000 ) ) ;
#191 =( CONVERSION_BASED_UNIT ( 'INCH', #128 ) LENGTH_UNIT ( ) NAMED_UNIT ( #51 ) );
#192 = PLANE ( 'NONE',  #263 ) ;
#193 = PRODUCT_CONTEXT ( 'NONE', #11, 'mechanical' ) ;
#194 = CIRCLE ( 'NONE', #20, 0.03933062999999999837 ) ;
#195 = DIRECTION ( 'NONE',  ( -1.224646799147353207E-16, -0.000000000000000000, -1.000000000000000000 ) ) ;
#196 = SURFACE_STYLE_FILL_AREA ( #292 ) ;
#197 = STYLED_ITEM ( 'NONE', ( #285 ), #239 ) ;
#198 = DIRECTION ( 'NONE',  ( 1.000000000000000000, 0.000000000000000000, 0.000000000000000000 ) ) ;
#199 = PRODUCT_DEFINITION_CONTEXT ( 'detailed design', #27, 'design' ) ;
#200 = EDGE_CURVE ( 'NONE', #12, #245, #251, .T. ) ;
#201 = DIRECTION ( 'NONE',  ( -0.000000000000000000, -0.000000000000000000, -1.000000000000000000 ) ) ;
#202 = FACE_OUTER_BOUND ( 'NONE', #256, .T. ) ;
#203 = CARTESIAN_POINT ( 'NONE',  ( 0.03933063000000002613, 0.000000000000000000, 0.1968500000000000250 ) ) ;
#204 = DIRECTION ( 'NONE',  ( 1.000000000000000000, 0.000000000000000000, 0.000000000000000000 ) ) ;
#205 =( NAMED_UNIT ( * ) PLANE_ANGLE_UNIT ( ) SI_UNIT ( $, .RADIAN. ) );
#206 = ORIENTED_EDGE ( 'NONE', *, *, #5, .T. ) ;
#207 = MECHANICAL_DESIGN_GEOMETRIC_PRESENTATION_REPRESENTATION (  '', ( #25 ), #276 ) ;
#208 = EDGE_CURVE ( 'NONE', #168, #109, #68, .T. ) ;
#209 = EDGE_LOOP ( 'NONE', ( #79, #123, #127, #53 ) ) ;
#210 = PRODUCT_DEFINITION_SHAPE ( 'NONE', 'NONE',  #161 ) ;
#211 = ORIENTED_EDGE ( 'NONE', *, *, #154, .T. ) ;
#212 = ORIENTED_EDGE ( 'NONE', *, *, #102, .F. ) ;
#213 = VECTOR ( 'NONE', #246, 39.37007874015748143 ) ;
#214 = ORIENTED_EDGE ( 'NONE', *, *, #200, .T. ) ;
#215 = LENGTH_MEASURE_WITH_UNIT ( LENGTH_MEASURE( 0.02539999999999999897 ), #261 );
#216 = EDGE_CURVE ( 'NONE', #284, #231, #164, .T. ) ;
#217 = CONICAL_SURFACE ( 'NONE', #124, 0.03933063000000000531, 0.1745329251994339192 ) ;
#218 = CARTESIAN_POINT ( 'NONE',  ( -0.03933062999999997755, 7.229740955140571970E-18, 0.1968500000000000250 ) ) ;
#219 = DIRECTION ( 'NONE',  ( -1.000000000000000000, 0.000000000000000000, 0.000000000000000000 ) ) ;
#220 = CIRCLE ( 'NONE', #133, 0.06374000000000018540 ) ;
#221 = DIRECTION ( 'NONE',  ( 1.224646799147353207E-16, 0.000000000000000000, 1.000000000000000000 ) ) ;
#222 = CARTESIAN_POINT ( 'NONE',  ( 5.898649710075393742E-34, 0.000000000000000000, 4.816613013794885432E-18 ) ) ;
#223 = DIRECTION ( 'NONE',  ( -1.000000000000000000, 0.000000000000000000, 0.000000000000000000 ) ) ;
#224 = ORIENTED_EDGE ( 'NONE', *, *, #85, .T. ) ;
#225 = CYLINDRICAL_SURFACE ( 'NONE', #91, 0.03933063000000000531 ) ;
#226 = ADVANCED_FACE ( 'NONE', ( #291 ), #269, .T. ) ;
#227 = FACE_OUTER_BOUND ( 'NONE', #209, .T. ) ;
#228 = CARTESIAN_POINT ( 'NONE',  ( 0.03933063000000002613, 0.000000000000000000, 0.1968500000000000250 ) ) ;
#229 = CARTESIAN_POINT ( 'NONE',  ( 0.07874000000000000443, 9.642868896486258509E-18, 1.953504000000000129 ) ) ;
#230 =( NAMED_UNIT ( * ) SI_UNIT ( $, .STERADIAN. ) SOLID_ANGLE_UNIT ( ) );
#231 = VERTEX_POINT ( 'NONE', #63 ) ;
#232 = ORIENTED_EDGE ( 'NONE', *, *, #102, .T. ) ;
#233 = VECTOR ( 'NONE', #243, 39.37007874015748143 ) ;
#234 = CARTESIAN_POINT ( 'NONE',  ( 0.000000000000000000, 0.000000000000000000, 0.000000000000000000 ) ) ;
#235 = DIRECTION ( 'NONE',  ( -1.000000000000000000, 0.000000000000000000, 0.000000000000000000 ) ) ;
#236 = ADVANCED_FACE ( 'NONE', ( #202 ), #217, .T. ) ;
#237 = SURFACE_SIDE_STYLE ('',( #196 ) ) ;
#238 = DIRECTION ( 'NONE',  ( 0.000000000000000000, 0.000000000000000000, 1.000000000000000000 ) ) ;
#239 = ADVANCED_BREP_SHAPE_REPRESENTATION ( 'Micro_AEMM-020-4X', ( #41, #92 ), #294 ) ;
#240 = CARTESIAN_POINT ( 'NONE',  ( 0.03933063000000000531, 4.816613013794886973E-18, -4.816613013794886973E-18 ) ) ;
#241 = DIRECTION ( 'NONE',  ( 1.000000000000000000, 0.000000000000000000, 0.000000000000000000 ) ) ;
#242 = VECTOR ( 'NONE', #182, 39.37007874015748854 ) ;
#243 = DIRECTION ( 'NONE',  ( -0.000000000000000000, -0.000000000000000000, -1.000000000000000000 ) ) ;
#244 = DIRECTION ( 'NONE',  ( 1.000000000000000000, 0.000000000000000000, 0.000000000000000000 ) ) ;
#245 = VERTEX_POINT ( 'NONE', #21 ) ;
#246 = DIRECTION ( 'NONE',  ( -1.224646799147353207E-16, -0.000000000000000000, -1.000000000000000000 ) ) ;
#247 = DIRECTION ( 'NONE',  ( 1.224646799147353207E-16, 0.000000000000000000, 1.000000000000000000 ) ) ;
#248 = EDGE_CURVE ( 'NONE', #245, #12, #97, .T. ) ;
#249 = ORIENTED_EDGE ( 'NONE', *, *, #13, .T. ) ;
#250 =( LENGTH_UNIT ( ) NAMED_UNIT ( * ) SI_UNIT ( $, .METRE. ) );
#251 = CIRCLE ( 'NONE', #171, 0.07874000000000000443 ) ;
#252 = ORIENTED_EDGE ( 'NONE', *, *, #154, .F. ) ;
#253 = DIRECTION ( 'NONE',  ( 1.000000000000000000, 0.000000000000000000, 0.000000000000000000 ) ) ;
#254 = ORIENTED_EDGE ( 'NONE', *, *, #13, .F. ) ;
#255 =( NAMED_UNIT ( * ) PLANE_ANGLE_UNIT ( ) SI_UNIT ( $, .RADIAN. ) );
#256 = EDGE_LOOP ( 'NONE', ( #152, #254, #78, #189 ) ) ;
#257 = ORIENTED_EDGE ( 'NONE', *, *, #167, .T. ) ;
#258 = COLOUR_RGB ( '',0.7921568627450980005, 0.8196078431372548767, 0.9333333333333333481 ) ;
#259 = SURFACE_SIDE_STYLE ('',( #36 ) ) ;
#260 = ADVANCED_FACE ( 'NONE', ( #184 ), #225, .T. ) ;
#261 =( LENGTH_UNIT ( ) NAMED_UNIT ( * ) SI_UNIT ( $, .METRE. ) );
#262 =( CONVERSION_BASED_UNIT ( 'INCH', #215 ) LENGTH_UNIT ( ) NAMED_UNIT ( #15 ) );
#263 = AXIS2_PLACEMENT_3D ( 'NONE', #37, #94, #176 ) ;
#264 = CARTESIAN_POINT ( 'NONE',  ( 0.000000000000000000, 0.000000000000000000, 1.968503999999999809 ) ) ;
#265 =( NAMED_UNIT ( * ) PLANE_ANGLE_UNIT ( ) SI_UNIT ( $, .RADIAN. ) );
#266 = LINE ( 'NONE', #65, #153 ) ;
#267 = FILL_AREA_STYLE_COLOUR ( '', #183 ) ;
#268 = CARTESIAN_POINT ( 'NONE',  ( 5.147822948554609098E-17, 0.000000000000000000, 0.4203516436035862891 ) ) ;
#269 = CONICAL_SURFACE ( 'NONE', #16, 0.06374000000000018540, 0.7853981633974522758 ) ;
#270 = AXIS2_PLACEMENT_3D ( 'NONE', #116, #135, #143 ) ;
#271 = DIRECTION ( 'NONE',  ( -1.000000000000000000, 0.000000000000000000, 1.224646799147352961E-16 ) ) ;
#272 = EDGE_CURVE ( 'NONE', #150, #12, #148, .T. ) ;
#273 = CARTESIAN_POINT ( 'NONE',  ( -0.03933062999999997755, 4.816613013794886973E-18, 0.1968500000000000250 ) ) ;
#274 = LENGTH_MEASURE_WITH_UNIT ( LENGTH_MEASURE( 0.02539999999999999897 ), #250 );
#275 = AXIS2_PLACEMENT_3D ( 'NONE', #105, #145, #149 ) ;
#276 =( GEOMETRIC_REPRESENTATION_CONTEXT ( 3 ) GLOBAL_UNCERTAINTY_ASSIGNED_CONTEXT ( ( #293 ) ) GLOBAL_UNIT_ASSIGNED_CONTEXT ( ( #262, #265, #158 ) ) REPRESENTATION_CONTEXT ( 'NONE', 'WORKASPACE' ) );
#277 = DIRECTION ( 'NONE',  ( 0.7071067811865502373, 8.659560562354966138E-17, -0.7071067811865446862 ) ) ;
#278 = ORIENTED_EDGE ( 'NONE', *, *, #140, .F. ) ;
#279 = CARTESIAN_POINT ( 'NONE',  ( 2.410717224121564935E-17, 0.000000000000000000, 0.1968500000000000250 ) ) ;
#280 = ORIENTED_EDGE ( 'NONE', *, *, #130, .F. ) ;
#281 = AXIS2_PLACEMENT_3D ( 'NONE', #279, #247, #204 ) ;
#282 = EDGE_LOOP ( 'NONE', ( #108, #249, #257, #286 ) ) ;
#283 =( GEOMETRIC_REPRESENTATION_CONTEXT ( 3 ) GLOBAL_UNCERTAINTY_ASSIGNED_CONTEXT ( ( #42 ) ) GLOBAL_UNIT_ASSIGNED_CONTEXT ( ( #191, #255, #230 ) ) REPRESENTATION_CONTEXT ( 'NONE', 'WORKASPACE' ) );
#284 = VERTEX_POINT ( 'NONE', #228 ) ;
#285 = PRESENTATION_STYLE_ASSIGNMENT (( #9 ) ) ;
#286 = ORIENTED_EDGE ( 'NONE', *, *, #85, .F. ) ;
#287 = ADVANCED_FACE ( 'NONE', ( #227 ), #40, .T. ) ;
#288 = CARTESIAN_POINT ( 'NONE',  ( 0.000000000000000000, 0.000000000000000000, 1.968503999999999809 ) ) ;
#289 = VECTOR ( 'NONE', #277, 39.37007874015748854 ) ;
#290 = APPLICATION_PROTOCOL_DEFINITION ( 'draft international standard', 'automotive_design', 1998, #11 ) ;
#291 = FACE_OUTER_BOUND ( 'NONE', #170, .T. ) ;
#292 = FILL_AREA_STYLE ('',( #267 ) ) ;
#293 = UNCERTAINTY_MEASURE_WITH_UNIT (LENGTH_MEASURE( 1.000000000000000082E-05 ), #262, 'distance_accuracy_value', 'NONE');
#294 =( GEOMETRIC_REPRESENTATION_CONTEXT ( 3 ) GLOBAL_UNCERTAINTY_ASSIGNED_CONTEXT ( ( #136 ) ) GLOBAL_UNIT_ASSIGNED_CONTEXT ( ( #71, #205, #73 ) ) REPRESENTATION_CONTEXT ( 'NONE', 'WORKASPACE' ) );
#295 = DIRECTION ( 'NONE',  ( -0.000000000000000000, -0.000000000000000000, -1.000000000000000000 ) ) ;
#296 = FACE_OUTER_BOUND ( 'NONE', #4, .T. ) ;
#297 = CARTESIAN_POINT ( 'NONE',  ( 0.000000000000000000, 0.000000000000000000, 1.968503999999999809 ) ) ;
#298 = ADVANCED_FACE ( 'NONE', ( #125 ), #120, .T. ) ;
#299 = DIRECTION ( 'NONE',  ( 0.000000000000000000, 0.000000000000000000, -1.000000000000000000 ) ) ;
ENDSEC;
END-ISO-10303-21;
