ISO-10303-21;
HEADER;
FILE_DESCRIPTION (( 'STEP AP214' ),
    '1' );
FILE_NAME ('84765.STEP',
    '2023-06-30T23:51:06',
    ( '' ),
    ( '' ),
    'SwSTEP 2.0',
    'SolidWorks 2023',
    '' );
FILE_SCHEMA (( 'AUTOMOTIVE_DESIGN' ));
ENDSEC;

DATA;
#1 = ADVANCED_FACE ( 'NONE', ( #173 ), #117, .T. ) ;
#2 = ORIENTED_EDGE ( 'NONE', *, *, #118, .T. ) ;
#3 = UNCERTAINTY_MEASURE_WITH_UNIT (LENGTH_MEASURE( 1.000000000000000082E-05 ), #28, 'distance_accuracy_value', 'NONE');
#4 = CYLINDRICAL_SURFACE ( 'NONE', #191, 0.2187499999999999445 ) ;
#5 = FILL_AREA_STYLE_COLOUR ( '', #246 ) ;
#6 = AXIS2_PLACEMENT_3D ( 'NONE', #57, #172, #146 ) ;
#7 =( NAMED_UNIT ( * ) PLANE_ANGLE_UNIT ( ) SI_UNIT ( $, .RADIAN. ) );
#8 = DIRECTION ( 'NONE',  ( -0.000000000000000000, -1.000000000000000000, -0.000000000000000000 ) ) ;
#9 = DIRECTION ( 'NONE',  ( 0.000000000000000000, 0.000000000000000000, 1.000000000000000000 ) ) ;
#10 = CLOSED_SHELL ( 'NONE', ( #243, #335, #182, #205 ) ) ;
#11 = AXIS2_PLACEMENT_3D ( 'NONE', #328, #358, #198 ) ;
#12 =( GEOMETRIC_REPRESENTATION_CONTEXT ( 3 ) GLOBAL_UNCERTAINTY_ASSIGNED_CONTEXT ( ( #314 ) ) GLOBAL_UNIT_ASSIGNED_CONTEXT ( ( #103, #161, #321 ) ) REPRESENTATION_CONTEXT ( 'NONE', 'WORKASPACE' ) );
#13 = SURFACE_SIDE_STYLE ('',( #271 ) ) ;
#14 = CARTESIAN_POINT ( 'NONE',  ( -0.2187500000000000278, 0.2187500000000000278, 2.678914873134835372E-17 ) ) ;
#15 = EDGE_CURVE ( 'NONE', #152, #234, #174, .T. ) ;
#16 = PRODUCT_DEFINITION_SHAPE ( 'NONE', 'NONE',  #46 ) ;
#17 = DIRECTION ( 'NONE',  ( -0.000000000000000000, -1.000000000000000000, -0.000000000000000000 ) ) ;
#18 = SPHERICAL_SURFACE ( 'NONE', #330, 0.2187500000000000278 ) ;
#19 = ORIENTED_EDGE ( 'NONE', *, *, #30, .F. ) ;
#20 = SURFACE_STYLE_FILL_AREA ( #87 ) ;
#21 = EDGE_CURVE ( 'NONE', #61, #171, #363, .T. ) ;
#22 = MANIFOLD_SOLID_BREP ( 'Revolve - Cutting Edge', #281 ) ;
#23 = AXIS2_PLACEMENT_3D ( 'NONE', #266, #8, #131 ) ;
#24 = FILL_AREA_STYLE_COLOUR ( '', #134 ) ;
#25 = AXIS2_PLACEMENT_3D ( 'NONE', #70, #240, #105 ) ;
#26 = SURFACE_STYLE_FILL_AREA ( #84 ) ;
#27 = EDGE_LOOP ( 'NONE', ( #31, #2, #181, #85 ) ) ;
#28 =( CONVERSION_BASED_UNIT ( 'INCH', #253 ) LENGTH_UNIT ( ) NAMED_UNIT ( #357 ) );
#29 = VERTEX_POINT ( 'NONE', #192 ) ;
#30 = EDGE_CURVE ( 'NONE', #114, #225, #223, .T. ) ;
#31 = ORIENTED_EDGE ( 'NONE', *, *, #369, .F. ) ;
#32 = STYLED_ITEM ( 'NONE', ( #112 ), #299 ) ;
#33 = LENGTH_MEASURE_WITH_UNIT ( LENGTH_MEASURE( 0.02539999999999999897 ), #300 );
#34 = AXIS2_PLACEMENT_3D ( 'NONE', #43, #158, #38 ) ;
#35 = PLANE ( 'NONE',  #207 ) ;
#36 = PRESENTATION_STYLE_ASSIGNMENT (( #71 ) ) ;
#37 = DIRECTION ( 'NONE',  ( 0.000000000000000000, 0.000000000000000000, -1.000000000000000000 ) ) ;
#38 = DIRECTION ( 'NONE',  ( 1.000000000000000000, 0.000000000000000000, -1.224646799147353207E-16 ) ) ;
#39 = EDGE_CURVE ( 'NONE', #209, #114, #126, .T. ) ;
#40 =( GEOMETRIC_REPRESENTATION_CONTEXT ( 3 ) GLOBAL_UNCERTAINTY_ASSIGNED_CONTEXT ( ( #346 ) ) GLOBAL_UNIT_ASSIGNED_CONTEXT ( ( #124, #102, #290 ) ) REPRESENTATION_CONTEXT ( 'NONE', 'WORKASPACE' ) );
#41 =( GEOMETRIC_REPRESENTATION_CONTEXT ( 3 ) GLOBAL_UNCERTAINTY_ASSIGNED_CONTEXT ( ( #129 ) ) GLOBAL_UNIT_ASSIGNED_CONTEXT ( ( #311, #64, #116 ) ) REPRESENTATION_CONTEXT ( 'NONE', 'WORKASPACE' ) );
#42 = SURFACE_SIDE_STYLE ('',( #318 ) ) ;
#43 = CARTESIAN_POINT ( 'NONE',  ( -2.678914873134835064E-17, 0.2187500000000000000, 0.000000000000000000 ) ) ;
#44 = CARTESIAN_POINT ( 'NONE',  ( -0.2187499999999999167, 3.500000000000000000, 0.000000000000000000 ) ) ;
#45 = PRESENTATION_STYLE_ASSIGNMENT (( #287 ) ) ;
#46 = PRODUCT_DEFINITION ( 'UNKNOWN', '', #100, #214 ) ;
#47 = CARTESIAN_POINT ( 'NONE',  ( 0.000000000000000000, 0.2187500000000000278, -0.2187500000000000278 ) ) ;
#48 = APPLICATION_PROTOCOL_DEFINITION ( 'draft international standard', 'automotive_design', 1998, #273 ) ;
#49 = DIRECTION ( 'NONE',  ( -1.000000000000000000, -1.224646799147353454E-16, 0.000000000000000000 ) ) ;
#50 =( GEOMETRIC_REPRESENTATION_CONTEXT ( 3 ) GLOBAL_UNCERTAINTY_ASSIGNED_CONTEXT ( ( #83 ) ) GLOBAL_UNIT_ASSIGNED_CONTEXT ( ( #355, #53, #277 ) ) REPRESENTATION_CONTEXT ( 'NONE', 'WORKASPACE' ) );
#51 = CIRCLE ( 'NONE', #34, 0.2187500000000000278 ) ;
#52 = DIRECTION ( 'NONE',  ( -1.000000000000000000, 0.000000000000000000, 0.000000000000000000 ) ) ;
#53 =( NAMED_UNIT ( * ) PLANE_ANGLE_UNIT ( ) SI_UNIT ( $, .RADIAN. ) );
#54 = CIRCLE ( 'NONE', #23, 0.2187500000000000278 ) ;
#55 = PRODUCT ( '84765', '84765', '', ( #218 ) ) ;
#56 = LENGTH_MEASURE_WITH_UNIT ( LENGTH_MEASURE( 0.02539999999999999897 ), #78 );
#57 = CARTESIAN_POINT ( 'NONE',  ( -2.678914873134835064E-17, 0.2187500000000000000, 0.000000000000000000 ) ) ;
#58 = VERTEX_POINT ( 'NONE', #69 ) ;
#59 = ORIENTED_EDGE ( 'NONE', *, *, #199, .T. ) ;
#60 = FILL_AREA_STYLE_COLOUR ( '', #320 ) ;
#61 = VERTEX_POINT ( 'NONE', #187 ) ;
#62 = SURFACE_STYLE_FILL_AREA ( #309 ) ;
#63 = SURFACE_SIDE_STYLE ('',( #368 ) ) ;
#64 =( NAMED_UNIT ( * ) PLANE_ANGLE_UNIT ( ) SI_UNIT ( $, .RADIAN. ) );
#65 = ORIENTED_EDGE ( 'NONE', *, *, #264, .F. ) ;
#66 = MECHANICAL_DESIGN_GEOMETRIC_PRESENTATION_REPRESENTATION (  '', ( #329 ), #40 ) ;
#67 = CIRCLE ( 'NONE', #220, 0.2187499999999996392 ) ;
#68 = UNCERTAINTY_MEASURE_WITH_UNIT (LENGTH_MEASURE( 1.000000000000000082E-05 ), #282, 'distance_accuracy_value', 'NONE');
#69 = CARTESIAN_POINT ( 'NONE',  ( -1.339457436567417378E-17, -3.414809992080329023E-17, 0.000000000000000000 ) ) ;
#70 = CARTESIAN_POINT ( 'NONE',  ( 0.000000000000000000, 0.000000000000000000, 0.000000000000000000 ) ) ;
#71 = SURFACE_STYLE_USAGE ( .BOTH. , #42 ) ;
#72 = CIRCLE ( 'NONE', #276, 0.2187499999999999445 ) ;
#73 = VECTOR ( 'NONE', #165, 39.37007874015748143 ) ;
#74 = FACE_OUTER_BOUND ( 'NONE', #251, .T. ) ;
#75 = CARTESIAN_POINT ( 'NONE',  ( 0.2187499999999998057, 3.500000000000000000, 2.678914873134833523E-17 ) ) ;
#76 = PLANE ( 'NONE',  #95 ) ;
#77 =( GEOMETRIC_REPRESENTATION_CONTEXT ( 3 ) GLOBAL_UNCERTAINTY_ASSIGNED_CONTEXT ( ( #336 ) ) GLOBAL_UNIT_ASSIGNED_CONTEXT ( ( #236, #7, #157 ) ) REPRESENTATION_CONTEXT ( 'NONE', 'WORKASPACE' ) );
#78 =( LENGTH_UNIT ( ) NAMED_UNIT ( * ) SI_UNIT ( $, .METRE. ) );
#79 = CARTESIAN_POINT ( 'NONE',  ( 0.000000000000000000, 1.125000000000000000, 0.000000000000000000 ) ) ;
#80 = EDGE_CURVE ( 'NONE', #171, #234, #265, .T. ) ;
#81 = CARTESIAN_POINT ( 'NONE',  ( 0.000000000000000000, 1.125000000000000000, -0.2187499999999998612 ) ) ;
#82 = ORIENTED_EDGE ( 'NONE', *, *, #39, .T. ) ;
#83 = UNCERTAINTY_MEASURE_WITH_UNIT (LENGTH_MEASURE( 1.000000000000000082E-05 ), #355, 'distance_accuracy_value', 'NONE');
#84 = FILL_AREA_STYLE ('',( #60 ) ) ;
#85 = ORIENTED_EDGE ( 'NONE', *, *, #264, .T. ) ;
#86 =( NAMED_UNIT ( * ) SI_UNIT ( $, .STERADIAN. ) SOLID_ANGLE_UNIT ( ) );
#87 = FILL_AREA_STYLE ('',( #150 ) ) ;
#88 = CIRCLE ( 'NONE', #119, 0.2187499999999998612 ) ;
#89 = FILL_AREA_STYLE ('',( #24 ) ) ;
#90 = EDGE_LOOP ( 'NONE', ( #306, #280 ) ) ;
#91 = ORIENTED_EDGE ( 'NONE', *, *, #313, .F. ) ;
#92 = DIRECTION ( 'NONE',  ( -1.224646799147353454E-16, 1.000000000000000000, 0.000000000000000000 ) ) ;
#93 = LENGTH_MEASURE_WITH_UNIT ( LENGTH_MEASURE( 0.02539999999999999897 ), #133 );
#94 = AXIS2_PLACEMENT_3D ( 'NONE', #288, #125, #184 ) ;
#95 = AXIS2_PLACEMENT_3D ( 'NONE', #327, #168, #219 ) ;
#96 = PRESENTATION_LAYER_ASSIGNMENT (  '', '', ( #166 ) ) ;
#97 = FILL_AREA_STYLE ('',( #5 ) ) ;
#98 = STYLED_ITEM ( 'NONE', ( #45 ), #317 ) ;
#99 =( CONVERSION_BASED_UNIT ( 'INCH', #106 ) LENGTH_UNIT ( ) NAMED_UNIT ( #138 ) );
#100 = PRODUCT_DEFINITION_FORMATION_WITH_SPECIFIED_SOURCE ( 'ANY', '', #55, .NOT_KNOWN. ) ;
#101 = DIMENSIONAL_EXPONENTS ( 1.000000000000000000, 0.000000000000000000, 0.000000000000000000, 0.000000000000000000, 0.000000000000000000, 0.000000000000000000, 0.000000000000000000 ) ;
#102 =( NAMED_UNIT ( * ) PLANE_ANGLE_UNIT ( ) SI_UNIT ( $, .RADIAN. ) );
#103 =( CONVERSION_BASED_UNIT ( 'INCH', #137 ) LENGTH_UNIT ( ) NAMED_UNIT ( #156 ) );
#104 = DIRECTION ( 'NONE',  ( -0.000000000000000000, -1.000000000000000000, -0.000000000000000000 ) ) ;
#105 = DIRECTION ( 'NONE',  ( 1.000000000000000000, 0.000000000000000000, 0.000000000000000000 ) ) ;
#106 = LENGTH_MEASURE_WITH_UNIT ( LENGTH_MEASURE( 0.02539999999999999897 ), #354 );
#107 = FACE_OUTER_BOUND ( 'NONE', #206, .T. ) ;
#108 = AXIS2_PLACEMENT_3D ( 'NONE', #244, #289, #37 ) ;
#109 = CIRCLE ( 'NONE', #211, 0.2187499999999998612 ) ;
#110 = DIRECTION ( 'NONE',  ( -1.224646799147353454E-16, 1.000000000000000000, -0.000000000000000000 ) ) ;
#111 = PRESENTATION_STYLE_ASSIGNMENT (( #200 ) ) ;
#112 = PRESENTATION_STYLE_ASSIGNMENT (( #372 ) ) ;
#113 = DIRECTION ( 'NONE',  ( 0.000000000000000000, 0.000000000000000000, 1.000000000000000000 ) ) ;
#114 = VERTEX_POINT ( 'NONE', #292 ) ;
#115 = PRESENTATION_STYLE_ASSIGNMENT (( #351 ) ) ;
#116 =( NAMED_UNIT ( * ) SI_UNIT ( $, .STERADIAN. ) SOLID_ANGLE_UNIT ( ) );
#117 = PLANE ( 'NONE',  #319 ) ;
#118 = EDGE_CURVE ( 'NONE', #225, #204, #54, .T. ) ;
#119 = AXIS2_PLACEMENT_3D ( 'NONE', #79, #162, #323 ) ;
#120 = CIRCLE ( 'NONE', #252, 0.2187500000000000278 ) ;
#121 = EDGE_LOOP ( 'NONE', ( #338, #59, #364, #91 ) ) ;
#122 = ORIENTED_EDGE ( 'NONE', *, *, #356, .F. ) ;
#123 = FILL_AREA_STYLE_COLOUR ( '', #297 ) ;
#124 =( CONVERSION_BASED_UNIT ( 'INCH', #93 ) LENGTH_UNIT ( ) NAMED_UNIT ( #229 ) );
#125 = DIRECTION ( 'NONE',  ( -1.224646799147353454E-16, 1.000000000000000000, -0.000000000000000000 ) ) ;
#126 = CIRCLE ( 'NONE', #326, 0.2187500000000000278 ) ;
#127 = APPLICATION_PROTOCOL_DEFINITION ( 'draft international standard', 'automotive_design', 1998, #353 ) ;
#128 = CARTESIAN_POINT ( 'NONE',  ( 0.2187499999999997224, 3.500000000000000000, 2.678914873134832907E-17 ) ) ;
#129 = UNCERTAINTY_MEASURE_WITH_UNIT (LENGTH_MEASURE( 1.000000000000000082E-05 ), #311, 'distance_accuracy_value', 'NONE');
#130 = EDGE_CURVE ( 'NONE', #29, #114, #217, .T. ) ;
#131 = DIRECTION ( 'NONE',  ( 0.000000000000000000, 0.000000000000000000, -1.000000000000000000 ) ) ;
#132 = CARTESIAN_POINT ( 'NONE',  ( -2.678914873134835064E-17, 0.2187500000000000000, 0.000000000000000000 ) ) ;
#133 =( LENGTH_UNIT ( ) NAMED_UNIT ( * ) SI_UNIT ( $, .METRE. ) );
#134 = COLOUR_RGB ( '',1.000000000000000000, 0.000000000000000000, 0.000000000000000000 ) ;
#135 =( GEOMETRIC_REPRESENTATION_CONTEXT ( 3 ) GLOBAL_UNCERTAINTY_ASSIGNED_CONTEXT ( ( #3 ) ) GLOBAL_UNIT_ASSIGNED_CONTEXT ( ( #28, #176, #170 ) ) REPRESENTATION_CONTEXT ( 'NONE', 'WORKASPACE' ) );
#136 = DIRECTION ( 'NONE',  ( 0.000000000000000000, 0.000000000000000000, -1.000000000000000000 ) ) ;
#137 = LENGTH_MEASURE_WITH_UNIT ( LENGTH_MEASURE( 0.02539999999999999897 ), #267 );
#138 = DIMENSIONAL_EXPONENTS ( 1.000000000000000000, 0.000000000000000000, 0.000000000000000000, 0.000000000000000000, 0.000000000000000000, 0.000000000000000000, 0.000000000000000000 ) ;
#139 = CARTESIAN_POINT ( 'NONE',  ( 0.000000000000000000, 1.125000000000000000, 0.000000000000000000 ) ) ;
#140 = FILL_AREA_STYLE_COLOUR ( '', #164 ) ;
#141 = CARTESIAN_POINT ( 'NONE',  ( 0.000000000000000000, 0.000000000000000000, 0.000000000000000000 ) ) ;
#142 = CARTESIAN_POINT ( 'NONE',  ( 0.2187499999999998057, 1.125000000000000222, 2.678914873134833523E-17 ) ) ;
#143 = CARTESIAN_POINT ( 'NONE',  ( -2.678914873134835064E-17, 0.2187500000000000000, 0.000000000000000000 ) ) ;
#144 = ORIENTED_EDGE ( 'NONE', *, *, #313, .T. ) ;
#145 = PRESENTATION_LAYER_ASSIGNMENT (  '', '', ( #295 ) ) ;
#146 = DIRECTION ( 'NONE',  ( -1.000000000000000000, 0.000000000000000000, 0.000000000000000000 ) ) ;
#147 = SURFACE_STYLE_USAGE ( .BOTH. , #63 ) ;
#148 = ORIENTED_EDGE ( 'NONE', *, *, #130, .T. ) ;
#149 = SURFACE_SIDE_STYLE ('',( #20 ) ) ;
#150 = FILL_AREA_STYLE_COLOUR ( '', #201 ) ;
#151 = COLOUR_RGB ( '',1.000000000000000000, 0.000000000000000000, 0.000000000000000000 ) ;
#152 = VERTEX_POINT ( 'NONE', #196 ) ;
#153 = DIRECTION ( 'NONE',  ( -0.000000000000000000, -1.000000000000000000, -0.000000000000000000 ) ) ;
#154 = CARTESIAN_POINT ( 'NONE',  ( 0.000000000000000000, 1.125000000000000000, 0.000000000000000000 ) ) ;
#155 = DIRECTION ( 'NONE',  ( -0.000000000000000000, -1.000000000000000000, -0.000000000000000000 ) ) ;
#156 = DIMENSIONAL_EXPONENTS ( 1.000000000000000000, 0.000000000000000000, 0.000000000000000000, 0.000000000000000000, 0.000000000000000000, 0.000000000000000000, 0.000000000000000000 ) ;
#157 =( NAMED_UNIT ( * ) SI_UNIT ( $, .STERADIAN. ) SOLID_ANGLE_UNIT ( ) );
#158 = DIRECTION ( 'NONE',  ( 1.224646799147353207E-16, -0.000000000000000000, 1.000000000000000000 ) ) ;
#159 = FILL_AREA_STYLE ('',( #123 ) ) ;
#160 =( LENGTH_UNIT ( ) NAMED_UNIT ( * ) SI_UNIT ( $, .METRE. ) );
#161 =( NAMED_UNIT ( * ) PLANE_ANGLE_UNIT ( ) SI_UNIT ( $, .RADIAN. ) );
#162 = DIRECTION ( 'NONE',  ( -0.000000000000000000, -1.000000000000000000, -0.000000000000000000 ) ) ;
#163 = AXIS2_PLACEMENT_3D ( 'NONE', #348, #213, #262 ) ;
#164 = COLOUR_RGB ( '',1.000000000000000000, 0.000000000000000000, 0.000000000000000000 ) ;
#165 = DIRECTION ( 'NONE',  ( -1.224646799147353454E-16, 1.000000000000000000, -0.000000000000000000 ) ) ;
#166 = STYLED_ITEM ( 'NONE', ( #115 ), #360 ) ;
#167 = CARTESIAN_POINT ( 'NONE',  ( -9.184850993605152135E-17, 3.500000000000000000, 0.000000000000000000 ) ) ;
#168 = DIRECTION ( 'NONE',  ( 1.224646799147353454E-16, -1.000000000000000000, 0.000000000000000000 ) ) ;
#169 = CIRCLE ( 'NONE', #6, 0.2187500000000000278 ) ;
#170 =( NAMED_UNIT ( * ) SI_UNIT ( $, .STERADIAN. ) SOLID_ANGLE_UNIT ( ) );
#171 = VERTEX_POINT ( 'NONE', #142 ) ;
#172 = DIRECTION ( 'NONE',  ( 0.000000000000000000, 0.000000000000000000, -1.000000000000000000 ) ) ;
#173 = FACE_OUTER_BOUND ( 'NONE', #255, .T. ) ;
#174 = CIRCLE ( 'NONE', #163, 0.2187499999999999445 ) ;
#175 = VECTOR ( 'NONE', #241, 39.37007874015748143 ) ;
#176 =( NAMED_UNIT ( * ) PLANE_ANGLE_UNIT ( ) SI_UNIT ( $, .RADIAN. ) );
#177 = PRODUCT_RELATED_PRODUCT_CATEGORY ( 'part', '', ( #55 ) ) ;
#178 = PRESENTATION_STYLE_ASSIGNMENT (( #362 ) ) ;
#179 = ORIENTED_EDGE ( 'NONE', *, *, #118, .F. ) ;
#180 =( LENGTH_UNIT ( ) NAMED_UNIT ( * ) SI_UNIT ( $, .METRE. ) );
#181 = ORIENTED_EDGE ( 'NONE', *, *, #356, .T. ) ;
#182 = ADVANCED_FACE ( 'NONE', ( #274 ), #249, .T. ) ;
#183 = AXIS2_PLACEMENT_3D ( 'NONE', #167, #245, #52 ) ;
#184 = DIRECTION ( 'NONE',  ( -1.000000000000000000, 0.000000000000000000, 0.000000000000000000 ) ) ;
#185 =( NAMED_UNIT ( * ) PLANE_ANGLE_UNIT ( ) SI_UNIT ( $, .RADIAN. ) );
#186 = FACE_OUTER_BOUND ( 'NONE', #90, .T. ) ;
#187 = CARTESIAN_POINT ( 'NONE',  ( -0.2187499999999994449, 1.125000000000000222, 0.000000000000000000 ) ) ;
#188 = SHAPE_DEFINITION_REPRESENTATION ( #16, #250 ) ;
#189 = PRESENTATION_LAYER_ASSIGNMENT (  '', '', ( #329 ) ) ;
#190 = EDGE_CURVE ( 'NONE', #29, #312, #109, .T. ) ;
#191 = AXIS2_PLACEMENT_3D ( 'NONE', #237, #259, #242 ) ;
#192 = CARTESIAN_POINT ( 'NONE',  ( 2.678914873134834447E-17, 1.125000000000000000, 0.2187499999999998612 ) ) ;
#193 = CARTESIAN_POINT ( 'NONE',  ( 0.000000000000000000, 0.000000000000000000, -0.2187499999999999445 ) ) ;
#194 = CYLINDRICAL_SURFACE ( 'NONE', #183, 0.2187499999999998057 ) ;
#195 = LINE ( 'NONE', #44, #73 ) ;
#196 = CARTESIAN_POINT ( 'NONE',  ( -0.2187500000000000555, 3.500000000000000000, 0.000000000000000000 ) ) ;
#197 =( NAMED_UNIT ( * ) PLANE_ANGLE_UNIT ( ) SI_UNIT ( $, .RADIAN. ) );
#198 = DIRECTION ( 'NONE',  ( -1.000000000000000000, 0.000000000000000000, 0.000000000000000000 ) ) ;
#199 = EDGE_CURVE ( 'NONE', #171, #61, #67, .T. ) ;
#200 = SURFACE_STYLE_USAGE ( .BOTH. , #13 ) ;
#201 = COLOUR_RGB ( '',0.7921568627450980005, 0.8196078431372548767, 0.9333333333333333481 ) ;
#202 = LENGTH_MEASURE_WITH_UNIT ( LENGTH_MEASURE( 0.02539999999999999897 ), #305 );
#203 = DIRECTION ( 'NONE',  ( -1.224646799147353454E-16, 1.000000000000000000, -0.000000000000000000 ) ) ;
#204 = VERTEX_POINT ( 'NONE', #47 ) ;
#205 = ADVANCED_FACE ( 'NONE', ( #221 ), #76, .F. ) ;
#206 = EDGE_LOOP ( 'NONE', ( #332, #148, #342, #122, #230 ) ) ;
#207 = AXIS2_PLACEMENT_3D ( 'NONE', #216, #92, #49 ) ;
#208 = ORIENTED_EDGE ( 'NONE', *, *, #190, .F. ) ;
#209 = VERTEX_POINT ( 'NONE', #215 ) ;
#210 = EDGE_LOOP ( 'NONE', ( #373, #285, #65, #82 ) ) ;
#211 = AXIS2_PLACEMENT_3D ( 'NONE', #139, #104, #136 ) ;
#212 = MECHANICAL_DESIGN_GEOMETRIC_PRESENTATION_REPRESENTATION (  '', ( #166 ), #347 ) ;
#213 = DIRECTION ( 'NONE',  ( -1.224646799147353454E-16, 1.000000000000000000, -0.000000000000000000 ) ) ;
#214 = PRODUCT_DEFINITION_CONTEXT ( 'detailed design', #353, 'design' ) ;
#215 = CARTESIAN_POINT ( 'NONE',  ( 0.2187500000000000278, 0.2187500000000000278, 0.000000000000000000 ) ) ;
#216 = CARTESIAN_POINT ( 'NONE',  ( 1.990051048614448376E-16, 1.125000000000000000, 0.000000000000000000 ) ) ;
#217 = LINE ( 'NONE', #324, #307 ) ;
#218 = PRODUCT_CONTEXT ( 'NONE', #273, 'mechanical' ) ;
#219 = DIRECTION ( 'NONE',  ( 1.000000000000000000, 1.224646799147353454E-16, 0.000000000000000000 ) ) ;
#220 = AXIS2_PLACEMENT_3D ( 'NONE', #248, #110, #361 ) ;
#221 = FACE_OUTER_BOUND ( 'NONE', #258, .T. ) ;
#222 = DIRECTION ( 'NONE',  ( -0.000000000000000000, -1.000000000000000000, -0.000000000000000000 ) ) ;
#223 = CIRCLE ( 'NONE', #108, 0.2187500000000000278 ) ;
#224 =( GEOMETRIC_REPRESENTATION_CONTEXT ( 3 ) GLOBAL_UNCERTAINTY_ASSIGNED_CONTEXT ( ( #366 ) ) GLOBAL_UNIT_ASSIGNED_CONTEXT ( ( #99, #197, #298 ) ) REPRESENTATION_CONTEXT ( 'NONE', 'WORKASPACE' ) );
#225 = VERTEX_POINT ( 'NONE', #14 ) ;
#226 = EDGE_CURVE ( 'NONE', #312, #29, #88, .T. ) ;
#227 = SURFACE_SIDE_STYLE ('',( #62 ) ) ;
#228 = EDGE_LOOP ( 'NONE', ( #278, #260, #340, #283 ) ) ;
#229 = DIMENSIONAL_EXPONENTS ( 1.000000000000000000, 0.000000000000000000, 0.000000000000000000, 0.000000000000000000, 0.000000000000000000, 0.000000000000000000, 0.000000000000000000 ) ;
#230 = ORIENTED_EDGE ( 'NONE', *, *, #325, .F. ) ;
#231 = DIMENSIONAL_EXPONENTS ( 1.000000000000000000, 0.000000000000000000, 0.000000000000000000, 0.000000000000000000, 0.000000000000000000, 0.000000000000000000, 0.000000000000000000 ) ;
#232 = ORIENTED_EDGE ( 'NONE', *, *, #130, .F. ) ;
#233 = CARTESIAN_POINT ( 'NONE',  ( 0.000000000000000000, 0.2187500000000000278, 0.000000000000000000 ) ) ;
#234 = VERTEX_POINT ( 'NONE', #75 ) ;
#235 = SPHERICAL_SURFACE ( 'NONE', #359, 0.2187500000000000278 ) ;
#236 =( CONVERSION_BASED_UNIT ( 'INCH', #349 ) LENGTH_UNIT ( ) NAMED_UNIT ( #231 ) );
#237 = CARTESIAN_POINT ( 'NONE',  ( 0.000000000000000000, 0.000000000000000000, 0.000000000000000000 ) ) ;
#238 = PRESENTATION_LAYER_ASSIGNMENT (  '', '', ( #345 ) ) ;
#239 = DIRECTION ( 'NONE',  ( 0.000000000000000000, 1.000000000000000000, 0.000000000000000000 ) ) ;
#240 = DIRECTION ( 'NONE',  ( 0.000000000000000000, 0.000000000000000000, 1.000000000000000000 ) ) ;
#241 = DIRECTION ( 'NONE',  ( -1.224646799147353454E-16, 1.000000000000000000, -0.000000000000000000 ) ) ;
#242 = DIRECTION ( 'NONE',  ( 0.000000000000000000, 0.000000000000000000, -1.000000000000000000 ) ) ;
#243 = ADVANCED_FACE ( 'NONE', ( #275 ), #194, .T. ) ;
#244 = CARTESIAN_POINT ( 'NONE',  ( 0.000000000000000000, 0.2187500000000000278, 0.000000000000000000 ) ) ;
#245 = DIRECTION ( 'NONE',  ( -1.224646799147353454E-16, 1.000000000000000000, -0.000000000000000000 ) ) ;
#246 = COLOUR_RGB ( '',0.7921568627450980005, 0.8196078431372548767, 0.9333333333333333481 ) ;
#247 = PRESENTATION_LAYER_ASSIGNMENT (  '', '', ( #32 ) ) ;
#248 = CARTESIAN_POINT ( 'NONE',  ( 1.990051048614449116E-16, 1.125000000000000222, 0.000000000000000000 ) ) ;
#249 = CYLINDRICAL_SURFACE ( 'NONE', #11, 0.2187499999999998057 ) ;
#250 = ADVANCED_BREP_SHAPE_REPRESENTATION ( '84765', ( #22, #270, #25 ), #12 ) ;
#251 = EDGE_LOOP ( 'NONE', ( #232, #304, #371, #179, #19 ) ) ;
#252 = AXIS2_PLACEMENT_3D ( 'NONE', #233, #153, #322 ) ;
#253 = LENGTH_MEASURE_WITH_UNIT ( LENGTH_MEASURE( 0.02539999999999999897 ), #180 );
#254 = PRESENTATION_STYLE_ASSIGNMENT (( #147 ) ) ;
#255 = EDGE_LOOP ( 'NONE', ( #310, #208 ) ) ;
#256 = ADVANCED_FACE ( 'NONE', ( #107 ), #294, .T. ) ;
#257 = DIRECTION ( 'NONE',  ( 0.000000000000000000, 0.000000000000000000, -1.000000000000000000 ) ) ;
#258 = EDGE_LOOP ( 'NONE', ( #334, #144 ) ) ;
#259 = DIRECTION ( 'NONE',  ( -0.000000000000000000, -1.000000000000000000, -0.000000000000000000 ) ) ;
#260 = ORIENTED_EDGE ( 'NONE', *, *, #80, .T. ) ;
#261 = DIRECTION ( 'NONE',  ( 1.000000000000000000, 0.000000000000000000, 0.000000000000000000 ) ) ;
#262 = DIRECTION ( 'NONE',  ( -1.000000000000000000, 0.000000000000000000, 0.000000000000000000 ) ) ;
#263 = DIRECTION ( 'NONE',  ( 0.000000000000000000, 0.000000000000000000, -1.000000000000000000 ) ) ;
#264 = EDGE_CURVE ( 'NONE', #209, #58, #169, .T. ) ;
#265 = LINE ( 'NONE', #128, #175 ) ;
#266 = CARTESIAN_POINT ( 'NONE',  ( 0.000000000000000000, 0.2187500000000000278, 0.000000000000000000 ) ) ;
#267 =( LENGTH_UNIT ( ) NAMED_UNIT ( * ) SI_UNIT ( $, .METRE. ) );
#268 = DIMENSIONAL_EXPONENTS ( 1.000000000000000000, 0.000000000000000000, 0.000000000000000000, 0.000000000000000000, 0.000000000000000000, 0.000000000000000000, 0.000000000000000000 ) ;
#269 = SURFACE_SIDE_STYLE ('',( #315 ) ) ;
#270 = MANIFOLD_SOLID_BREP ( 'Revolve - Tool Body (Straight Shanked)', #10 ) ;
#271 = SURFACE_STYLE_FILL_AREA ( #301 ) ;
#272 = MECHANICAL_DESIGN_GEOMETRIC_PRESENTATION_REPRESENTATION (  '', ( #345 ), #50 ) ;
#273 = APPLICATION_CONTEXT ( 'automotive_design' ) ;
#274 = FACE_OUTER_BOUND ( 'NONE', #121, .T. ) ;
#275 = FACE_OUTER_BOUND ( 'NONE', #228, .T. ) ;
#276 = AXIS2_PLACEMENT_3D ( 'NONE', #337, #203, #303 ) ;
#277 =( NAMED_UNIT ( * ) SI_UNIT ( $, .STERADIAN. ) SOLID_ANGLE_UNIT ( ) );
#278 = ORIENTED_EDGE ( 'NONE', *, *, #21, .T. ) ;
#279 = FACE_OUTER_BOUND ( 'NONE', #210, .T. ) ;
#280 = ORIENTED_EDGE ( 'NONE', *, *, #199, .F. ) ;
#281 = CLOSED_SHELL ( 'NONE', ( #299, #256, #1, #360, #317 ) ) ;
#282 =( CONVERSION_BASED_UNIT ( 'INCH', #33 ) LENGTH_UNIT ( ) NAMED_UNIT ( #101 ) );
#283 = ORIENTED_EDGE ( 'NONE', *, *, #343, .F. ) ;
#284 = FILL_AREA_STYLE_COLOUR ( '', #151 ) ;
#285 = ORIENTED_EDGE ( 'NONE', *, *, #369, .T. ) ;
#286 = PRESENTATION_LAYER_ASSIGNMENT (  '', '', ( #339 ) ) ;
#287 = SURFACE_STYLE_USAGE ( .BOTH. , #370 ) ;
#288 = CARTESIAN_POINT ( 'NONE',  ( 1.990051048614449116E-16, 1.125000000000000222, 0.000000000000000000 ) ) ;
#289 = DIRECTION ( 'NONE',  ( -0.000000000000000000, -1.000000000000000000, -0.000000000000000000 ) ) ;
#290 =( NAMED_UNIT ( * ) SI_UNIT ( $, .STERADIAN. ) SOLID_ANGLE_UNIT ( ) );
#291 = MECHANICAL_DESIGN_GEOMETRIC_PRESENTATION_REPRESENTATION (  '', ( #32 ), #135 ) ;
#292 = CARTESIAN_POINT ( 'NONE',  ( 2.678914873134835372E-17, 0.2187500000000000278, 0.2187500000000000000 ) ) ;
#293 = CARTESIAN_POINT ( 'NONE',  ( 0.000000000000000000, 0.2187500000000000278, 0.000000000000000000 ) ) ;
#294 = CYLINDRICAL_SURFACE ( 'NONE', #296, 0.2187499999999999445 ) ;
#295 = STYLED_ITEM ( 'NONE', ( #36 ), #22 ) ;
#296 = AXIS2_PLACEMENT_3D ( 'NONE', #141, #222, #257 ) ;
#297 = COLOUR_RGB ( '',1.000000000000000000, 0.000000000000000000, 0.000000000000000000 ) ;
#298 =( NAMED_UNIT ( * ) SI_UNIT ( $, .STERADIAN. ) SOLID_ANGLE_UNIT ( ) );
#299 = ADVANCED_FACE ( 'NONE', ( #279 ), #18, .T. ) ;
#300 =( LENGTH_UNIT ( ) NAMED_UNIT ( * ) SI_UNIT ( $, .METRE. ) );
#301 = FILL_AREA_STYLE ('',( #140 ) ) ;
#302 = PRESENTATION_LAYER_ASSIGNMENT (  '', '', ( #98 ) ) ;
#303 = DIRECTION ( 'NONE',  ( -1.000000000000000000, 0.000000000000000000, 0.000000000000000000 ) ) ;
#304 = ORIENTED_EDGE ( 'NONE', *, *, #190, .T. ) ;
#305 =( LENGTH_UNIT ( ) NAMED_UNIT ( * ) SI_UNIT ( $, .METRE. ) );
#306 = ORIENTED_EDGE ( 'NONE', *, *, #21, .F. ) ;
#307 = VECTOR ( 'NONE', #17, 39.37007874015748143 ) ;
#308 = MECHANICAL_DESIGN_GEOMETRIC_PRESENTATION_REPRESENTATION (  '', ( #339 ), #41 ) ;
#309 = FILL_AREA_STYLE ('',( #284 ) ) ;
#310 = ORIENTED_EDGE ( 'NONE', *, *, #226, .F. ) ;
#311 =( CONVERSION_BASED_UNIT ( 'INCH', #202 ) LENGTH_UNIT ( ) NAMED_UNIT ( #268 ) );
#312 = VERTEX_POINT ( 'NONE', #81 ) ;
#313 = EDGE_CURVE ( 'NONE', #234, #152, #72, .T. ) ;
#314 = UNCERTAINTY_MEASURE_WITH_UNIT (LENGTH_MEASURE( 1.000000000000000082E-05 ), #103, 'distance_accuracy_value', 'NONE');
#315 = SURFACE_STYLE_FILL_AREA ( #159 ) ;
#316 = DIMENSIONAL_EXPONENTS ( 1.000000000000000000, 0.000000000000000000, 0.000000000000000000, 0.000000000000000000, 0.000000000000000000, 0.000000000000000000, 0.000000000000000000 ) ;
#317 = ADVANCED_FACE ( 'NONE', ( #367 ), #235, .T. ) ;
#318 = SURFACE_STYLE_FILL_AREA ( #97 ) ;
#319 = AXIS2_PLACEMENT_3D ( 'NONE', #154, #239, #350 ) ;
#320 = COLOUR_RGB ( '',1.000000000000000000, 0.000000000000000000, 0.000000000000000000 ) ;
#321 =( NAMED_UNIT ( * ) SI_UNIT ( $, .STERADIAN. ) SOLID_ANGLE_UNIT ( ) );
#322 = DIRECTION ( 'NONE',  ( 0.000000000000000000, 0.000000000000000000, -1.000000000000000000 ) ) ;
#323 = DIRECTION ( 'NONE',  ( 0.000000000000000000, 0.000000000000000000, -1.000000000000000000 ) ) ;
#324 = CARTESIAN_POINT ( 'NONE',  ( 2.678914873134834756E-17, 0.000000000000000000, 0.2187499999999999445 ) ) ;
#325 = EDGE_CURVE ( 'NONE', #312, #204, #333, .T. ) ;
#326 = AXIS2_PLACEMENT_3D ( 'NONE', #293, #155, #263 ) ;
#327 = CARTESIAN_POINT ( 'NONE',  ( 0.2187499999999998612, 3.500000000000000000, 0.000000000000000000 ) ) ;
#328 = CARTESIAN_POINT ( 'NONE',  ( -9.184850993605152135E-17, 3.500000000000000000, 0.000000000000000000 ) ) ;
#329 = STYLED_ITEM ( 'NONE', ( #254 ), #1 ) ;
#330 = AXIS2_PLACEMENT_3D ( 'NONE', #143, #113, #331 ) ;
#331 = DIRECTION ( 'NONE',  ( 1.000000000000000000, 0.000000000000000000, 0.000000000000000000 ) ) ;
#332 = ORIENTED_EDGE ( 'NONE', *, *, #226, .T. ) ;
#333 = LINE ( 'NONE', #193, #365 ) ;
#334 = ORIENTED_EDGE ( 'NONE', *, *, #15, .T. ) ;
#335 = ADVANCED_FACE ( 'NONE', ( #186 ), #35, .F. ) ;
#336 = UNCERTAINTY_MEASURE_WITH_UNIT (LENGTH_MEASURE( 1.000000000000000082E-05 ), #236, 'distance_accuracy_value', 'NONE');
#337 = CARTESIAN_POINT ( 'NONE',  ( -9.184850993605152135E-17, 3.500000000000000000, 0.000000000000000000 ) ) ;
#338 = ORIENTED_EDGE ( 'NONE', *, *, #80, .F. ) ;
#339 = STYLED_ITEM ( 'NONE', ( #178 ), #270 ) ;
#340 = ORIENTED_EDGE ( 'NONE', *, *, #15, .F. ) ;
#341 = DIRECTION ( 'NONE',  ( -0.000000000000000000, -1.000000000000000000, -0.000000000000000000 ) ) ;
#342 = ORIENTED_EDGE ( 'NONE', *, *, #39, .F. ) ;
#343 = EDGE_CURVE ( 'NONE', #61, #152, #195, .T. ) ;
#344 = MECHANICAL_DESIGN_GEOMETRIC_PRESENTATION_REPRESENTATION (  '', ( #295 ), #77 ) ;
#345 = STYLED_ITEM ( 'NONE', ( #111 ), #256 ) ;
#346 = UNCERTAINTY_MEASURE_WITH_UNIT (LENGTH_MEASURE( 1.000000000000000082E-05 ), #124, 'distance_accuracy_value', 'NONE');
#347 =( GEOMETRIC_REPRESENTATION_CONTEXT ( 3 ) GLOBAL_UNCERTAINTY_ASSIGNED_CONTEXT ( ( #68 ) ) GLOBAL_UNIT_ASSIGNED_CONTEXT ( ( #282, #185, #86 ) ) REPRESENTATION_CONTEXT ( 'NONE', 'WORKASPACE' ) );
#348 = CARTESIAN_POINT ( 'NONE',  ( -9.184850993605152135E-17, 3.500000000000000000, 0.000000000000000000 ) ) ;
#349 = LENGTH_MEASURE_WITH_UNIT ( LENGTH_MEASURE( 0.02539999999999999897 ), #160 );
#350 = DIRECTION ( 'NONE',  ( 0.000000000000000000, -0.000000000000000000, 1.000000000000000000 ) ) ;
#351 = SURFACE_STYLE_USAGE ( .BOTH. , #269 ) ;
#352 = MECHANICAL_DESIGN_GEOMETRIC_PRESENTATION_REPRESENTATION (  '', ( #98 ), #224 ) ;
#353 = APPLICATION_CONTEXT ( 'automotive_design' ) ;
#354 =( LENGTH_UNIT ( ) NAMED_UNIT ( * ) SI_UNIT ( $, .METRE. ) );
#355 =( CONVERSION_BASED_UNIT ( 'INCH', #56 ) LENGTH_UNIT ( ) NAMED_UNIT ( #316 ) );
#356 = EDGE_CURVE ( 'NONE', #204, #209, #120, .T. ) ;
#357 = DIMENSIONAL_EXPONENTS ( 1.000000000000000000, 0.000000000000000000, 0.000000000000000000, 0.000000000000000000, 0.000000000000000000, 0.000000000000000000, 0.000000000000000000 ) ;
#358 = DIRECTION ( 'NONE',  ( -1.224646799147353454E-16, 1.000000000000000000, -0.000000000000000000 ) ) ;
#359 = AXIS2_PLACEMENT_3D ( 'NONE', #132, #9, #261 ) ;
#360 = ADVANCED_FACE ( 'NONE', ( #74 ), #4, .T. ) ;
#361 = DIRECTION ( 'NONE',  ( -1.000000000000000000, 0.000000000000000000, 0.000000000000000000 ) ) ;
#362 = SURFACE_STYLE_USAGE ( .BOTH. , #149 ) ;
#363 = CIRCLE ( 'NONE', #94, 0.2187499999999996392 ) ;
#364 = ORIENTED_EDGE ( 'NONE', *, *, #343, .T. ) ;
#365 = VECTOR ( 'NONE', #341, 39.37007874015748143 ) ;
#366 = UNCERTAINTY_MEASURE_WITH_UNIT (LENGTH_MEASURE( 1.000000000000000082E-05 ), #99, 'distance_accuracy_value', 'NONE');
#367 = FACE_OUTER_BOUND ( 'NONE', #27, .T. ) ;
#368 = SURFACE_STYLE_FILL_AREA ( #89 ) ;
#369 = EDGE_CURVE ( 'NONE', #225, #58, #51, .T. ) ;
#370 = SURFACE_SIDE_STYLE ('',( #26 ) ) ;
#371 = ORIENTED_EDGE ( 'NONE', *, *, #325, .T. ) ;
#372 = SURFACE_STYLE_USAGE ( .BOTH. , #227 ) ;
#373 = ORIENTED_EDGE ( 'NONE', *, *, #30, .T. ) ;
ENDSEC;
END-ISO-10303-21;
