ISO-10303-21;
HEADER;
FILE_DESCRIPTION (( 'STEP AP214' ),
    '1' );
FILE_NAME ('23330.STEP',
    '2023-06-22T16:49:13',
    ( '' ),
    ( '' ),
    'SwSTEP 2.0',
    'SolidWorks 2023',
    '' );
FILE_SCHEMA (( 'AUTOMOTIVE_DESIGN' ));
ENDSEC;

DATA;
#1 = VERTEX_POINT ( 'NONE', #138 ) ;
#2 =( GEOMETRIC_REPRESENTATION_CONTEXT ( 3 ) GLOBAL_UNCERTAINTY_ASSIGNED_CONTEXT ( ( #290 ) ) GLOBAL_UNIT_ASSIGNED_CONTEXT ( ( #150, #255, #77 ) ) REPRESENTATION_CONTEXT ( 'NONE', 'WORKASPACE' ) );
#3 = DIMENSIONAL_EXPONENTS ( 1.000000000000000000, 0.000000000000000000, 0.000000000000000000, 0.000000000000000000, 0.000000000000000000, 0.000000000000000000, 0.000000000000000000 ) ;
#4 = ORIENTED_EDGE ( 'NONE', *, *, #181, .T. ) ;
#5 = ADVANCED_FACE ( 'NONE', ( #165 ), #212, .T. ) ;
#6 = CIRCLE ( 'NONE', #249, 0.4999999999999998335 ) ;
#7 = LINE ( 'NONE', #199, #275 ) ;
#8 = EDGE_CURVE ( 'NONE', #80, #203, #7, .T. ) ;
#9 = FILL_AREA_STYLE ('',( #276 ) ) ;
#10 = CYLINDRICAL_SURFACE ( 'NONE', #163, 0.4999999999999999445 ) ;
#11 = EDGE_CURVE ( 'NONE', #289, #175, #31, .T. ) ;
#12 = FILL_AREA_STYLE ('',( #133 ) ) ;
#13 = COLOUR_RGB ( '',0.7921568627450980005, 0.8196078431372548767, 0.9333333333333333481 ) ;
#14 = SURFACE_STYLE_USAGE ( .BOTH. , #299 ) ;
#15 = ORIENTED_EDGE ( 'NONE', *, *, #104, .F. ) ;
#16 = ADVANCED_FACE ( 'NONE', ( #87 ), #36, .T. ) ;
#17 = EDGE_LOOP ( 'NONE', ( #260, #277 ) ) ;
#18 = SURFACE_STYLE_FILL_AREA ( #91 ) ;
#19 = CIRCLE ( 'NONE', #298, 0.5000000000000000000 ) ;
#20 = SURFACE_STYLE_USAGE ( .BOTH. , #291 ) ;
#21 = FILL_AREA_STYLE_COLOUR ( '', #96 ) ;
#22 = FACE_OUTER_BOUND ( 'NONE', #251, .T. ) ;
#23 = ORIENTED_EDGE ( 'NONE', *, *, #170, .T. ) ;
#24 = AXIS2_PLACEMENT_3D ( 'NONE', #218, #161, #214 ) ;
#25 = CIRCLE ( 'NONE', #242, 0.5000000000000000000 ) ;
#26 = EDGE_LOOP ( 'NONE', ( #280, #294, #71, #100 ) ) ;
#27 = CARTESIAN_POINT ( 'NONE',  ( 4.957883579047464389E-34, 1.250000000000000000, 0.000000000000000000 ) ) ;
#28 = ORIENTED_EDGE ( 'NONE', *, *, #240, .F. ) ;
#29 = SURFACE_STYLE_FILL_AREA ( #241 ) ;
#30 = DIMENSIONAL_EXPONENTS ( 1.000000000000000000, 0.000000000000000000, 0.000000000000000000, 0.000000000000000000, 0.000000000000000000, 0.000000000000000000, 0.000000000000000000 ) ;
#31 = CIRCLE ( 'NONE', #127, 0.5000000000000000000 ) ;
#32 = CYLINDRICAL_SURFACE ( 'NONE', #168, 0.5000000000000000000 ) ;
#33 = AXIS2_PLACEMENT_3D ( 'NONE', #185, #89, #156 ) ;
#34 = FACE_OUTER_BOUND ( 'NONE', #196, .T. ) ;
#35 = ADVANCED_BREP_SHAPE_REPRESENTATION ( '23330', ( #113, #108, #226 ), #198 ) ;
#36 = PLANE ( 'NONE',  #33 ) ;
#37 = SURFACE_STYLE_FILL_AREA ( #12 ) ;
#38 = SURFACE_STYLE_USAGE ( .BOTH. , #158 ) ;
#39 =( CONVERSION_BASED_UNIT ( 'INCH', #253 ) LENGTH_UNIT ( ) NAMED_UNIT ( #56 ) );
#40 = DIRECTION ( 'NONE',  ( -0.000000000000000000, -1.000000000000000000, -0.000000000000000000 ) ) ;
#41 = CARTESIAN_POINT ( 'NONE',  ( 1.224646799147353207E-16, 4.000000000000000000, 0.000000000000000000 ) ) ;
#42 = AXIS2_PLACEMENT_3D ( 'NONE', #43, #306, #51 ) ;
#43 = CARTESIAN_POINT ( 'NONE',  ( 1.224646799147353207E-16, 4.000000000000000000, 0.000000000000000000 ) ) ;
#44 = PRESENTATION_STYLE_ASSIGNMENT (( #20 ) ) ;
#45 = LENGTH_MEASURE_WITH_UNIT ( LENGTH_MEASURE( 0.02539999999999999897 ), #166 );
#46 = ORIENTED_EDGE ( 'NONE', *, *, #240, .T. ) ;
#47 = DIMENSIONAL_EXPONENTS ( 1.000000000000000000, 0.000000000000000000, 0.000000000000000000, 0.000000000000000000, 0.000000000000000000, 0.000000000000000000, 0.000000000000000000 ) ;
#48 =( NAMED_UNIT ( * ) PLANE_ANGLE_UNIT ( ) SI_UNIT ( $, .RADIAN. ) );
#49 = CARTESIAN_POINT ( 'NONE',  ( 0.5000000000000000000, 1.250000000000000000, 6.123233995736764803E-17 ) ) ;
#50 = DIMENSIONAL_EXPONENTS ( 1.000000000000000000, 0.000000000000000000, 0.000000000000000000, 0.000000000000000000, 0.000000000000000000, 0.000000000000000000, 0.000000000000000000 ) ;
#51 = DIRECTION ( 'NONE',  ( -1.000000000000000000, 0.000000000000000000, 0.000000000000000000 ) ) ;
#52 = STYLED_ITEM ( 'NONE', ( #67 ), #108 ) ;
#53 = ORIENTED_EDGE ( 'NONE', *, *, #228, .T. ) ;
#54 = DIMENSIONAL_EXPONENTS ( 1.000000000000000000, 0.000000000000000000, 0.000000000000000000, 0.000000000000000000, 0.000000000000000000, 0.000000000000000000, 0.000000000000000000 ) ;
#55 = ADVANCED_FACE ( 'NONE', ( #182 ), #279, .T. ) ;
#56 = DIMENSIONAL_EXPONENTS ( 1.000000000000000000, 0.000000000000000000, 0.000000000000000000, 0.000000000000000000, 0.000000000000000000, 0.000000000000000000, 0.000000000000000000 ) ;
#57 = DIRECTION ( 'NONE',  ( -0.000000000000000000, -1.000000000000000000, -0.000000000000000000 ) ) ;
#58 =( GEOMETRIC_REPRESENTATION_CONTEXT ( 3 ) GLOBAL_UNCERTAINTY_ASSIGNED_CONTEXT ( ( #142 ) ) GLOBAL_UNIT_ASSIGNED_CONTEXT ( ( #39, #297, #88 ) ) REPRESENTATION_CONTEXT ( 'NONE', 'WORKASPACE' ) );
#59 = APPLICATION_PROTOCOL_DEFINITION ( 'draft international standard', 'automotive_design', 1998, #149 ) ;
#60 = DIRECTION ( 'NONE',  ( 4.453261087808557677E-17, 1.000000000000000000, -0.000000000000000000 ) ) ;
#61 = LINE ( 'NONE', #129, #157 ) ;
#62 = ORIENTED_EDGE ( 'NONE', *, *, #82, .T. ) ;
#63 = VECTOR ( 'NONE', #152, 39.37007874015748143 ) ;
#64 =( LENGTH_UNIT ( ) NAMED_UNIT ( * ) SI_UNIT ( $, .METRE. ) );
#65 =( NAMED_UNIT ( * ) SI_UNIT ( $, .STERADIAN. ) SOLID_ANGLE_UNIT ( ) );
#66 = SURFACE_SIDE_STYLE ('',( #18 ) ) ;
#67 = PRESENTATION_STYLE_ASSIGNMENT (( #250 ) ) ;
#68 = CARTESIAN_POINT ( 'NONE',  ( 0.000000000000000000, 0.000000000000000000, 0.000000000000000000 ) ) ;
#69 = ORIENTED_EDGE ( 'NONE', *, *, #8, .T. ) ;
#70 = SURFACE_STYLE_FILL_AREA ( #264 ) ;
#71 = ORIENTED_EDGE ( 'NONE', *, *, #272, .F. ) ;
#72 = DIRECTION ( 'NONE',  ( 0.000000000000000000, 0.000000000000000000, -1.000000000000000000 ) ) ;
#73 = CARTESIAN_POINT ( 'NONE',  ( 6.123233995736766036E-17, 0.000000000000000000, 0.5000000000000000000 ) ) ;
#74 = DIRECTION ( 'NONE',  ( 4.453261087808557677E-17, 1.000000000000000000, -0.000000000000000000 ) ) ;
#75 = ORIENTED_EDGE ( 'NONE', *, *, #228, .F. ) ;
#76 = CIRCLE ( 'NONE', #42, 0.4999999999999998335 ) ;
#77 =( NAMED_UNIT ( * ) SI_UNIT ( $, .STERADIAN. ) SOLID_ANGLE_UNIT ( ) );
#78 = PRODUCT_DEFINITION_SHAPE ( 'NONE', 'NONE',  #143 ) ;
#79 =( NAMED_UNIT ( * ) SI_UNIT ( $, .STERADIAN. ) SOLID_ANGLE_UNIT ( ) );
#80 = VERTEX_POINT ( 'NONE', #49 ) ;
#81 = CIRCLE ( 'NONE', #140, 0.5000000000000000000 ) ;
#82 = EDGE_CURVE ( 'NONE', #175, #1, #209, .T. ) ;
#83 =( NAMED_UNIT ( * ) PLANE_ANGLE_UNIT ( ) SI_UNIT ( $, .RADIAN. ) );
#84 = LENGTH_MEASURE_WITH_UNIT ( LENGTH_MEASURE( 0.02539999999999999897 ), #229 );
#85 = COLOUR_RGB ( '',1.000000000000000000, 0.000000000000000000, 0.000000000000000000 ) ;
#86 = STYLED_ITEM ( 'NONE', ( #283 ), #55 ) ;
#87 = FACE_OUTER_BOUND ( 'NONE', #105, .T. ) ;
#88 =( NAMED_UNIT ( * ) SI_UNIT ( $, .STERADIAN. ) SOLID_ANGLE_UNIT ( ) );
#89 = DIRECTION ( 'NONE',  ( 0.000000000000000000, -1.000000000000000000, -0.000000000000000000 ) ) ;
#90 = CIRCLE ( 'NONE', #245, 0.5000000000000000000 ) ;
#91 = FILL_AREA_STYLE ('',( #230 ) ) ;
#92 = LENGTH_MEASURE_WITH_UNIT ( LENGTH_MEASURE( 0.02539999999999999897 ), #174 );
#93 = FACE_OUTER_BOUND ( 'NONE', #233, .T. ) ;
#94 = DIRECTION ( 'NONE',  ( -1.000000000000000000, 0.000000000000000000, 0.000000000000000000 ) ) ;
#95 = DIRECTION ( 'NONE',  ( -1.000000000000000000, 0.000000000000000000, 0.000000000000000000 ) ) ;
#96 = COLOUR_RGB ( '',1.000000000000000000, 0.000000000000000000, 0.000000000000000000 ) ;
#97 = COLOUR_RGB ( '',1.000000000000000000, 0.000000000000000000, 0.000000000000000000 ) ;
#98 =( LENGTH_UNIT ( ) NAMED_UNIT ( * ) SI_UNIT ( $, .METRE. ) );
#99 = DIRECTION ( 'NONE',  ( 4.453261087808557677E-17, 1.000000000000000000, -0.000000000000000000 ) ) ;
#100 = ORIENTED_EDGE ( 'NONE', *, *, #82, .F. ) ;
#101 = CLOSED_SHELL ( 'NONE', ( #195, #153, #270, #232 ) ) ;
#102 =( GEOMETRIC_REPRESENTATION_CONTEXT ( 3 ) GLOBAL_UNCERTAINTY_ASSIGNED_CONTEXT ( ( #130 ) ) GLOBAL_UNIT_ASSIGNED_CONTEXT ( ( #231, #48, #164 ) ) REPRESENTATION_CONTEXT ( 'NONE', 'WORKASPACE' ) );
#103 = PRODUCT_DEFINITION_FORMATION_WITH_SPECIFIED_SOURCE ( 'ANY', '', #244, .NOT_KNOWN. ) ;
#104 = EDGE_CURVE ( 'NONE', #289, #227, #288, .T. ) ;
#105 = EDGE_LOOP ( 'NONE', ( #141, #207 ) ) ;
#106 = DIRECTION ( 'NONE',  ( 0.000000000000000000, 0.000000000000000000, -1.000000000000000000 ) ) ;
#107 = DIRECTION ( 'NONE',  ( 0.000000000000000000, 0.000000000000000000, -1.000000000000000000 ) ) ;
#108 = MANIFOLD_SOLID_BREP ( 'Revolve - Tool Body (Straight Shanked)', #101 ) ;
#109 = UNCERTAINTY_MEASURE_WITH_UNIT (LENGTH_MEASURE( 1.000000000000000082E-05 ), #180, 'distance_accuracy_value', 'NONE');
#110 = DIRECTION ( 'NONE',  ( -0.000000000000000000, -1.000000000000000000, -0.000000000000000000 ) ) ;
#111 = AXIS2_PLACEMENT_3D ( 'NONE', #126, #223, #132 ) ;
#112 = SURFACE_SIDE_STYLE ('',( #151 ) ) ;
#113 = MANIFOLD_SOLID_BREP ( 'Revolve - Cutting Edge', #305 ) ;
#114 =( GEOMETRIC_REPRESENTATION_CONTEXT ( 3 ) GLOBAL_UNCERTAINTY_ASSIGNED_CONTEXT ( ( #221 ) ) GLOBAL_UNIT_ASSIGNED_CONTEXT ( ( #201, #178, #172 ) ) REPRESENTATION_CONTEXT ( 'NONE', 'WORKASPACE' ) );
#115 = COLOUR_RGB ( '',0.7921568627450980005, 0.8196078431372548767, 0.9333333333333333481 ) ;
#116 = CARTESIAN_POINT ( 'NONE',  ( -0.4999999999999997224, 4.000000000000000000, 0.000000000000000000 ) ) ;
#117 = CARTESIAN_POINT ( 'NONE',  ( 0.000000000000000000, 1.250000000000000000, 0.000000000000000000 ) ) ;
#118 =( CONVERSION_BASED_UNIT ( 'INCH', #135 ) LENGTH_UNIT ( ) NAMED_UNIT ( #47 ) );
#119 = STYLED_ITEM ( 'NONE', ( #222 ), #16 ) ;
#120 = AXIS2_PLACEMENT_3D ( 'NONE', #68, #254, #176 ) ;
#121 = CARTESIAN_POINT ( 'NONE',  ( 0.5000000000000000000, 4.000000000000000000, 6.123233995736764803E-17 ) ) ;
#122 = DIRECTION ( 'NONE',  ( -1.000000000000000000, 0.000000000000000000, 0.000000000000000000 ) ) ;
#123 = SURFACE_SIDE_STYLE ('',( #29 ) ) ;
#124 = MECHANICAL_DESIGN_GEOMETRIC_PRESENTATION_REPRESENTATION (  '', ( #257 ), #210 ) ;
#125 = AXIS2_PLACEMENT_3D ( 'NONE', #27, #74, #261 ) ;
#126 = CARTESIAN_POINT ( 'NONE',  ( 0.5000000000000000000, 4.000000000000000000, 0.000000000000000000 ) ) ;
#127 = AXIS2_PLACEMENT_3D ( 'NONE', #248, #110, #131 ) ;
#128 = DIRECTION ( 'NONE',  ( 1.000000000000000000, 0.000000000000000000, 0.000000000000000000 ) ) ;
#129 = CARTESIAN_POINT ( 'NONE',  ( -0.4999999999999997780, 4.000000000000000000, 0.000000000000000000 ) ) ;
#130 = UNCERTAINTY_MEASURE_WITH_UNIT (LENGTH_MEASURE( 1.000000000000000082E-05 ), #231, 'distance_accuracy_value', 'NONE');
#131 = DIRECTION ( 'NONE',  ( 0.000000000000000000, 0.000000000000000000, -1.000000000000000000 ) ) ;
#132 = DIRECTION ( 'NONE',  ( 1.000000000000000000, -4.453261087808557677E-17, 0.000000000000000000 ) ) ;
#133 = FILL_AREA_STYLE_COLOUR ( '', #265 ) ;
#134 = ORIENTED_EDGE ( 'NONE', *, *, #204, .T. ) ;
#135 = LENGTH_MEASURE_WITH_UNIT ( LENGTH_MEASURE( 0.02539999999999999897 ), #258 );
#136 = CARTESIAN_POINT ( 'NONE',  ( 0.000000000000000000, 0.000000000000000000, 0.000000000000000000 ) ) ;
#137 = PLANE ( 'NONE',  #125 ) ;
#138 = CARTESIAN_POINT ( 'NONE',  ( 0.000000000000000000, 0.000000000000000000, -0.5000000000000000000 ) ) ;
#139 = CARTESIAN_POINT ( 'NONE',  ( 0.000000000000000000, 0.000000000000000000, 0.000000000000000000 ) ) ;
#140 = AXIS2_PLACEMENT_3D ( 'NONE', #117, #287, #72 ) ;
#141 = ORIENTED_EDGE ( 'NONE', *, *, #272, .T. ) ;
#142 = UNCERTAINTY_MEASURE_WITH_UNIT (LENGTH_MEASURE( 1.000000000000000082E-05 ), #39, 'distance_accuracy_value', 'NONE');
#143 = PRODUCT_DEFINITION ( 'UNKNOWN', '', #103, #169 ) ;
#144 = SHAPE_DEFINITION_REPRESENTATION ( #78, #35 ) ;
#145 = CARTESIAN_POINT ( 'NONE',  ( 0.000000000000000000, 0.000000000000000000, 0.000000000000000000 ) ) ;
#146 = DIRECTION ( 'NONE',  ( 4.453261087808557677E-17, 1.000000000000000000, -0.000000000000000000 ) ) ;
#147 = PRESENTATION_LAYER_ASSIGNMENT (  '', '', ( #86 ) ) ;
#148 = VECTOR ( 'NONE', #40, 39.37007874015748143 ) ;
#149 = APPLICATION_CONTEXT ( 'automotive_design' ) ;
#150 =( CONVERSION_BASED_UNIT ( 'INCH', #274 ) LENGTH_UNIT ( ) NAMED_UNIT ( #50 ) );
#151 = SURFACE_STYLE_FILL_AREA ( #9 ) ;
#152 = DIRECTION ( 'NONE',  ( -0.000000000000000000, -1.000000000000000000, -0.000000000000000000 ) ) ;
#153 = ADVANCED_FACE ( 'NONE', ( #22 ), #137, .F. ) ;
#154 = DIRECTION ( 'NONE',  ( 4.453261087808557677E-17, 1.000000000000000000, -0.000000000000000000 ) ) ;
#155 = EDGE_CURVE ( 'NONE', #175, #289, #81, .T. ) ;
#156 = DIRECTION ( 'NONE',  ( 0.000000000000000000, 0.000000000000000000, -1.000000000000000000 ) ) ;
#157 = VECTOR ( 'NONE', #146, 39.37007874015748143 ) ;
#158 = SURFACE_SIDE_STYLE ('',( #262 ) ) ;
#159 = VERTEX_POINT ( 'NONE', #116 ) ;
#160 = CARTESIAN_POINT ( 'NONE',  ( 1.224646799147353207E-16, 4.000000000000000000, 0.000000000000000000 ) ) ;
#161 = DIRECTION ( 'NONE',  ( 0.000000000000000000, 1.000000000000000000, 0.000000000000000000 ) ) ;
#162 = MECHANICAL_DESIGN_GEOMETRIC_PRESENTATION_REPRESENTATION (  '', ( #119 ), #114 ) ;
#163 = AXIS2_PLACEMENT_3D ( 'NONE', #41, #202, #94 ) ;
#164 =( NAMED_UNIT ( * ) SI_UNIT ( $, .STERADIAN. ) SOLID_ANGLE_UNIT ( ) );
#165 = FACE_OUTER_BOUND ( 'NONE', #17, .T. ) ;
#166 =( LENGTH_UNIT ( ) NAMED_UNIT ( * ) SI_UNIT ( $, .METRE. ) );
#167 = PRESENTATION_LAYER_ASSIGNMENT (  '', '', ( #257 ) ) ;
#168 = AXIS2_PLACEMENT_3D ( 'NONE', #197, #57, #106 ) ;
#169 = PRODUCT_DEFINITION_CONTEXT ( 'detailed design', #149, 'design' ) ;
#170 = EDGE_CURVE ( 'NONE', #203, #159, #76, .T. ) ;
#171 = APPLICATION_PROTOCOL_DEFINITION ( 'draft international standard', 'automotive_design', 1998, #216 ) ;
#172 =( NAMED_UNIT ( * ) SI_UNIT ( $, .STERADIAN. ) SOLID_ANGLE_UNIT ( ) );
#173 = MECHANICAL_DESIGN_GEOMETRIC_PRESENTATION_REPRESENTATION (  '', ( #86 ), #267 ) ;
#174 =( LENGTH_UNIT ( ) NAMED_UNIT ( * ) SI_UNIT ( $, .METRE. ) );
#175 = VERTEX_POINT ( 'NONE', #303 ) ;
#176 = DIRECTION ( 'NONE',  ( 0.000000000000000000, 0.000000000000000000, -1.000000000000000000 ) ) ;
#177 = AXIS2_PLACEMENT_3D ( 'NONE', #136, #184, #107 ) ;
#178 =( NAMED_UNIT ( * ) PLANE_ANGLE_UNIT ( ) SI_UNIT ( $, .RADIAN. ) );
#179 = PRESENTATION_STYLE_ASSIGNMENT (( #208 ) ) ;
#180 =( CONVERSION_BASED_UNIT ( 'INCH', #92 ) LENGTH_UNIT ( ) NAMED_UNIT ( #54 ) );
#181 = EDGE_CURVE ( 'NONE', #159, #203, #6, .T. ) ;
#182 = FACE_OUTER_BOUND ( 'NONE', #286, .T. ) ;
#183 = ORIENTED_EDGE ( 'NONE', *, *, #204, .F. ) ;
#184 = DIRECTION ( 'NONE',  ( -0.000000000000000000, -1.000000000000000000, -0.000000000000000000 ) ) ;
#185 = CARTESIAN_POINT ( 'NONE',  ( 0.000000000000000000, 0.000000000000000000, 0.000000000000000000 ) ) ;
#186 = STYLED_ITEM ( 'NONE', ( #44 ), #113 ) ;
#187 = PLANE ( 'NONE',  #111 ) ;
#188 = CARTESIAN_POINT ( 'NONE',  ( 1.224646799147353207E-16, 4.000000000000000000, 0.000000000000000000 ) ) ;
#189 = CARTESIAN_POINT ( 'NONE',  ( 0.000000000000000000, 0.000000000000000000, -0.5000000000000000000 ) ) ;
#190 = FILL_AREA_STYLE_COLOUR ( '', #13 ) ;
#191 = EDGE_LOOP ( 'NONE', ( #53, #69, #263, #28 ) ) ;
#192 = DIRECTION ( 'NONE',  ( -1.000000000000000000, 0.000000000000000000, 0.000000000000000000 ) ) ;
#193 = STYLED_ITEM ( 'NONE', ( #179 ), #302 ) ;
#194 = PRESENTATION_STYLE_ASSIGNMENT (( #217 ) ) ;
#195 = ADVANCED_FACE ( 'NONE', ( #282 ), #213, .T. ) ;
#196 = EDGE_LOOP ( 'NONE', ( #237, #134, #46, #304 ) ) ;
#197 = CARTESIAN_POINT ( 'NONE',  ( 0.000000000000000000, 0.000000000000000000, 0.000000000000000000 ) ) ;
#198 =( GEOMETRIC_REPRESENTATION_CONTEXT ( 3 ) GLOBAL_UNCERTAINTY_ASSIGNED_CONTEXT ( ( #109 ) ) GLOBAL_UNIT_ASSIGNED_CONTEXT ( ( #180, #83, #79 ) ) REPRESENTATION_CONTEXT ( 'NONE', 'WORKASPACE' ) );
#199 = CARTESIAN_POINT ( 'NONE',  ( 0.5000000000000001110, 4.000000000000000000, 6.123233995736764803E-17 ) ) ;
#200 = CARTESIAN_POINT ( 'NONE',  ( -0.5000000000000000000, 1.250000000000000000, 0.000000000000000000 ) ) ;
#201 =( CONVERSION_BASED_UNIT ( 'INCH', #84 ) LENGTH_UNIT ( ) NAMED_UNIT ( #3 ) );
#202 = DIRECTION ( 'NONE',  ( 4.453261087808557677E-17, 1.000000000000000000, -0.000000000000000000 ) ) ;
#203 = VERTEX_POINT ( 'NONE', #121 ) ;
#204 = EDGE_CURVE ( 'NONE', #80, #284, #90, .T. ) ;
#205 = PRESENTATION_LAYER_ASSIGNMENT (  '', '', ( #186 ) ) ;
#206 = DIRECTION ( 'NONE',  ( 4.453261087808557677E-17, 1.000000000000000000, -0.000000000000000000 ) ) ;
#207 = ORIENTED_EDGE ( 'NONE', *, *, #220, .T. ) ;
#208 = SURFACE_STYLE_USAGE ( .BOTH. , #66 ) ;
#209 = LINE ( 'NONE', #189, #63 ) ;
#210 =( GEOMETRIC_REPRESENTATION_CONTEXT ( 3 ) GLOBAL_UNCERTAINTY_ASSIGNED_CONTEXT ( ( #296 ) ) GLOBAL_UNIT_ASSIGNED_CONTEXT ( ( #247, #215, #243 ) ) REPRESENTATION_CONTEXT ( 'NONE', 'WORKASPACE' ) );
#211 = DIRECTION ( 'NONE',  ( -0.000000000000000000, -1.000000000000000000, -0.000000000000000000 ) ) ;
#212 = PLANE ( 'NONE',  #24 ) ;
#213 = CYLINDRICAL_SURFACE ( 'NONE', #271, 0.4999999999999999445 ) ;
#214 = DIRECTION ( 'NONE',  ( 0.000000000000000000, -0.000000000000000000, 1.000000000000000000 ) ) ;
#215 =( NAMED_UNIT ( * ) PLANE_ANGLE_UNIT ( ) SI_UNIT ( $, .RADIAN. ) );
#216 = APPLICATION_CONTEXT ( 'automotive_design' ) ;
#217 = SURFACE_STYLE_USAGE ( .BOTH. , #123 ) ;
#218 = CARTESIAN_POINT ( 'NONE',  ( 0.000000000000000000, 1.250000000000000000, 0.000000000000000000 ) ) ;
#219 = MECHANICAL_DESIGN_GEOMETRIC_PRESENTATION_REPRESENTATION (  '', ( #52 ), #58 ) ;
#220 = EDGE_CURVE ( 'NONE', #227, #1, #19, .T. ) ;
#221 = UNCERTAINTY_MEASURE_WITH_UNIT (LENGTH_MEASURE( 1.000000000000000082E-05 ), #201, 'distance_accuracy_value', 'NONE');
#222 = PRESENTATION_STYLE_ASSIGNMENT (( #14 ) ) ;
#223 = DIRECTION ( 'NONE',  ( -4.453261087808557677E-17, -1.000000000000000000, 0.000000000000000000 ) ) ;
#224 = PRESENTATION_LAYER_ASSIGNMENT (  '', '', ( #193 ) ) ;
#225 = MECHANICAL_DESIGN_GEOMETRIC_PRESENTATION_REPRESENTATION (  '', ( #186 ), #102 ) ;
#226 = AXIS2_PLACEMENT_3D ( 'NONE', #145, #246, #128 ) ;
#227 = VERTEX_POINT ( 'NONE', #307 ) ;
#228 = EDGE_CURVE ( 'NONE', #284, #80, #25, .T. ) ;
#229 =( LENGTH_UNIT ( ) NAMED_UNIT ( * ) SI_UNIT ( $, .METRE. ) );
#230 = FILL_AREA_STYLE_COLOUR ( '', #97 ) ;
#231 =( CONVERSION_BASED_UNIT ( 'INCH', #234 ) LENGTH_UNIT ( ) NAMED_UNIT ( #30 ) );
#232 = ADVANCED_FACE ( 'NONE', ( #93 ), #187, .F. ) ;
#233 = EDGE_LOOP ( 'NONE', ( #4, #23 ) ) ;
#234 = LENGTH_MEASURE_WITH_UNIT ( LENGTH_MEASURE( 0.02539999999999999897 ), #98 );
#235 = FILL_AREA_STYLE ('',( #21 ) ) ;
#236 = FILL_AREA_STYLE_COLOUR ( '', #85 ) ;
#237 = ORIENTED_EDGE ( 'NONE', *, *, #8, .F. ) ;
#238 = DIRECTION ( 'NONE',  ( 4.453261087808557677E-17, 1.000000000000000000, -0.000000000000000000 ) ) ;
#239 = ORIENTED_EDGE ( 'NONE', *, *, #11, .T. ) ;
#240 = EDGE_CURVE ( 'NONE', #284, #159, #61, .T. ) ;
#241 = FILL_AREA_STYLE ('',( #236 ) ) ;
#242 = AXIS2_PLACEMENT_3D ( 'NONE', #268, #206, #301 ) ;
#243 =( NAMED_UNIT ( * ) SI_UNIT ( $, .STERADIAN. ) SOLID_ANGLE_UNIT ( ) );
#244 = PRODUCT ( '23330', '23330', '', ( #273 ) ) ;
#245 = AXIS2_PLACEMENT_3D ( 'NONE', #309, #99, #192 ) ;
#246 = DIRECTION ( 'NONE',  ( 0.000000000000000000, 0.000000000000000000, 1.000000000000000000 ) ) ;
#247 =( CONVERSION_BASED_UNIT ( 'INCH', #45 ) LENGTH_UNIT ( ) NAMED_UNIT ( #308 ) );
#248 = CARTESIAN_POINT ( 'NONE',  ( 0.000000000000000000, 1.250000000000000000, 0.000000000000000000 ) ) ;
#249 = AXIS2_PLACEMENT_3D ( 'NONE', #188, #238, #122 ) ;
#250 = SURFACE_STYLE_USAGE ( .BOTH. , #112 ) ;
#251 = EDGE_LOOP ( 'NONE', ( #75, #183 ) ) ;
#252 = CARTESIAN_POINT ( 'NONE',  ( 6.123233995736766036E-17, 1.250000000000000000, 0.5000000000000000000 ) ) ;
#253 = LENGTH_MEASURE_WITH_UNIT ( LENGTH_MEASURE( 0.02539999999999999897 ), #64 );
#254 = DIRECTION ( 'NONE',  ( -0.000000000000000000, -1.000000000000000000, -0.000000000000000000 ) ) ;
#255 =( NAMED_UNIT ( * ) PLANE_ANGLE_UNIT ( ) SI_UNIT ( $, .RADIAN. ) );
#256 = DIRECTION ( 'NONE',  ( 0.000000000000000000, 0.000000000000000000, -1.000000000000000000 ) ) ;
#257 = STYLED_ITEM ( 'NONE', ( #194 ), #5 ) ;
#258 =( LENGTH_UNIT ( ) NAMED_UNIT ( * ) SI_UNIT ( $, .METRE. ) );
#259 = PRESENTATION_LAYER_ASSIGNMENT (  '', '', ( #52 ) ) ;
#260 = ORIENTED_EDGE ( 'NONE', *, *, #155, .F. ) ;
#261 = DIRECTION ( 'NONE',  ( -1.000000000000000000, 4.453261087808557677E-17, 0.000000000000000000 ) ) ;
#262 = SURFACE_STYLE_FILL_AREA ( #235 ) ;
#263 = ORIENTED_EDGE ( 'NONE', *, *, #181, .F. ) ;
#264 = FILL_AREA_STYLE ('',( #190 ) ) ;
#265 = COLOUR_RGB ( '',1.000000000000000000, 0.000000000000000000, 0.000000000000000000 ) ;
#266 = ORIENTED_EDGE ( 'NONE', *, *, #220, .F. ) ;
#267 =( GEOMETRIC_REPRESENTATION_CONTEXT ( 3 ) GLOBAL_UNCERTAINTY_ASSIGNED_CONTEXT ( ( #269 ) ) GLOBAL_UNIT_ASSIGNED_CONTEXT ( ( #118, #278, #65 ) ) REPRESENTATION_CONTEXT ( 'NONE', 'WORKASPACE' ) );
#268 = CARTESIAN_POINT ( 'NONE',  ( -1.516480271171051896E-32, 1.250000000000000000, 0.000000000000000000 ) ) ;
#269 = UNCERTAINTY_MEASURE_WITH_UNIT (LENGTH_MEASURE( 1.000000000000000082E-05 ), #118, 'distance_accuracy_value', 'NONE');
#270 = ADVANCED_FACE ( 'NONE', ( #34 ), #10, .T. ) ;
#271 = AXIS2_PLACEMENT_3D ( 'NONE', #160, #154, #95 ) ;
#272 = EDGE_CURVE ( 'NONE', #1, #227, #292, .T. ) ;
#273 = PRODUCT_CONTEXT ( 'NONE', #216, 'mechanical' ) ;
#274 = LENGTH_MEASURE_WITH_UNIT ( LENGTH_MEASURE( 0.02539999999999999897 ), #300 );
#275 = VECTOR ( 'NONE', #60, 39.37007874015748143 ) ;
#276 = FILL_AREA_STYLE_COLOUR ( '', #115 ) ;
#277 = ORIENTED_EDGE ( 'NONE', *, *, #11, .F. ) ;
#278 =( NAMED_UNIT ( * ) PLANE_ANGLE_UNIT ( ) SI_UNIT ( $, .RADIAN. ) );
#279 = CYLINDRICAL_SURFACE ( 'NONE', #120, 0.5000000000000000000 ) ;
#280 = ORIENTED_EDGE ( 'NONE', *, *, #155, .T. ) ;
#281 = FACE_OUTER_BOUND ( 'NONE', #26, .T. ) ;
#282 = FACE_OUTER_BOUND ( 'NONE', #191, .T. ) ;
#283 = PRESENTATION_STYLE_ASSIGNMENT (( #38 ) ) ;
#284 = VERTEX_POINT ( 'NONE', #200 ) ;
#285 = MECHANICAL_DESIGN_GEOMETRIC_PRESENTATION_REPRESENTATION (  '', ( #193 ), #2 ) ;
#286 = EDGE_LOOP ( 'NONE', ( #15, #239, #62, #266 ) ) ;
#287 = DIRECTION ( 'NONE',  ( -0.000000000000000000, -1.000000000000000000, -0.000000000000000000 ) ) ;
#288 = LINE ( 'NONE', #73, #148 ) ;
#289 = VERTEX_POINT ( 'NONE', #252 ) ;
#290 = UNCERTAINTY_MEASURE_WITH_UNIT (LENGTH_MEASURE( 1.000000000000000082E-05 ), #150, 'distance_accuracy_value', 'NONE');
#291 = SURFACE_SIDE_STYLE ('',( #70 ) ) ;
#292 = CIRCLE ( 'NONE', #177, 0.5000000000000000000 ) ;
#293 = PRODUCT_RELATED_PRODUCT_CATEGORY ( 'part', '', ( #244 ) ) ;
#294 = ORIENTED_EDGE ( 'NONE', *, *, #104, .T. ) ;
#295 = PRESENTATION_LAYER_ASSIGNMENT (  '', '', ( #119 ) ) ;
#296 = UNCERTAINTY_MEASURE_WITH_UNIT (LENGTH_MEASURE( 1.000000000000000082E-05 ), #247, 'distance_accuracy_value', 'NONE');
#297 =( NAMED_UNIT ( * ) PLANE_ANGLE_UNIT ( ) SI_UNIT ( $, .RADIAN. ) );
#298 = AXIS2_PLACEMENT_3D ( 'NONE', #139, #211, #256 ) ;
#299 = SURFACE_SIDE_STYLE ('',( #37 ) ) ;
#300 =( LENGTH_UNIT ( ) NAMED_UNIT ( * ) SI_UNIT ( $, .METRE. ) );
#301 = DIRECTION ( 'NONE',  ( -1.000000000000000000, 0.000000000000000000, 0.000000000000000000 ) ) ;
#302 = ADVANCED_FACE ( 'NONE', ( #281 ), #32, .T. ) ;
#303 = CARTESIAN_POINT ( 'NONE',  ( 0.000000000000000000, 1.250000000000000000, -0.5000000000000000000 ) ) ;
#304 = ORIENTED_EDGE ( 'NONE', *, *, #170, .F. ) ;
#305 = CLOSED_SHELL ( 'NONE', ( #302, #5, #55, #16 ) ) ;
#306 = DIRECTION ( 'NONE',  ( 4.453261087808557677E-17, 1.000000000000000000, -0.000000000000000000 ) ) ;
#307 = CARTESIAN_POINT ( 'NONE',  ( 6.123233995736766036E-17, 0.000000000000000000, 0.5000000000000000000 ) ) ;
#308 = DIMENSIONAL_EXPONENTS ( 1.000000000000000000, 0.000000000000000000, 0.000000000000000000, 0.000000000000000000, 0.000000000000000000, 0.000000000000000000, 0.000000000000000000 ) ;
#309 = CARTESIAN_POINT ( 'NONE',  ( -1.516480271171051896E-32, 1.250000000000000000, 0.000000000000000000 ) ) ;
ENDSEC;
END-ISO-10303-21;
