ISO-10303-21;
HEADER;
FILE_DESCRIPTION (( 'STEP AP214' ),
    '1' );
FILE_NAME ('00572.STEP',
    '2023-06-22T14:11:26',
    ( '' ),
    ( '' ),
    'SwSTEP 2.0',
    'SolidWorks 2023',
    '' );
FILE_SCHEMA (( 'AUTOMOTIVE_DESIGN' ));
ENDSEC;

DATA;
#1 = CARTESIAN_POINT ( 'NONE',  ( 0.000000000000000000, 0.000000000000000000, -0.3125000000000000000 ) ) ;
#2 = VERTEX_POINT ( 'NONE', #11 ) ;
#3 = ADVANCED_FACE ( 'NONE', ( #105 ), #188, .T. ) ;
#4 = DIRECTION ( 'NONE',  ( 3.265724797726272713E-17, -1.000000000000000000, 0.000000000000000000 ) ) ;
#5 = EDGE_CURVE ( 'NONE', #16, #108, #150, .T. ) ;
#6 = FILL_AREA_STYLE_COLOUR ( '', #26 ) ;
#7 = CARTESIAN_POINT ( 'NONE',  ( 0.000000000000000000, 1.625000000000000000, 0.000000000000000000 ) ) ;
#8 = FILL_AREA_STYLE_COLOUR ( '', #145 ) ;
#9 = AXIS2_PLACEMENT_3D ( 'NONE', #7, #99, #216 ) ;
#10 = MECHANICAL_DESIGN_GEOMETRIC_PRESENTATION_REPRESENTATION (  '', ( #254 ), #111 ) ;
#11 = CARTESIAN_POINT ( 'NONE',  ( -0.3125000000000001665, 3.500000000000000000, 0.000000000000000000 ) ) ;
#12 = FILL_AREA_STYLE_COLOUR ( '', #277 ) ;
#13 = PRESENTATION_STYLE_ASSIGNMENT (( #200 ) ) ;
#14 = CYLINDRICAL_SURFACE ( 'NONE', #272, 0.3125000000000000000 ) ;
#15 = ADVANCED_BREP_SHAPE_REPRESENTATION ( '00572', ( #241, #231, #161 ), #77 ) ;
#16 = VERTEX_POINT ( 'NONE', #173 ) ;
#17 = EDGE_LOOP ( 'NONE', ( #53, #222 ) ) ;
#18 = AXIS2_PLACEMENT_3D ( 'NONE', #303, #87, #184 ) ;
#19 = DIRECTION ( 'NONE',  ( -1.000000000000000000, -3.265724797726272713E-17, 0.000000000000000000 ) ) ;
#20 = APPLICATION_PROTOCOL_DEFINITION ( 'draft international standard', 'automotive_design', 1998, #30 ) ;
#21 =( CONVERSION_BASED_UNIT ( 'INCH', #227 ) LENGTH_UNIT ( ) NAMED_UNIT ( #46 ) );
#22 = MECHANICAL_DESIGN_GEOMETRIC_PRESENTATION_REPRESENTATION (  '', ( #283 ), #292 ) ;
#23 =( NAMED_UNIT ( * ) SI_UNIT ( $, .STERADIAN. ) SOLID_ANGLE_UNIT ( ) );
#24 = EDGE_CURVE ( 'NONE', #113, #16, #147, .T. ) ;
#25 = FACE_OUTER_BOUND ( 'NONE', #134, .T. ) ;
#26 = COLOUR_RGB ( '',0.7921568627450980005, 0.8196078431372548767, 0.9333333333333333481 ) ;
#27 = CARTESIAN_POINT ( 'NONE',  ( -6.123233995736759873E-17, 3.500000000000000000, 0.000000000000000000 ) ) ;
#28 = CARTESIAN_POINT ( 'NONE',  ( -0.3125000000000000000, 1.625000000000000000, 0.000000000000000000 ) ) ;
#29 = PLANE ( 'NONE',  #301 ) ;
#30 = APPLICATION_CONTEXT ( 'automotive_design' ) ;
#31 = DIRECTION ( 'NONE',  ( -3.265724797726272713E-17, 1.000000000000000000, -0.000000000000000000 ) ) ;
#32 = PRESENTATION_STYLE_ASSIGNMENT (( #155 ) ) ;
#33 = AXIS2_PLACEMENT_3D ( 'NONE', #197, #149, #171 ) ;
#34 = COLOUR_RGB ( '',1.000000000000000000, 0.000000000000000000, 0.000000000000000000 ) ;
#35 = DIRECTION ( 'NONE',  ( 0.000000000000000000, 0.000000000000000000, -1.000000000000000000 ) ) ;
#36 = EDGE_LOOP ( 'NONE', ( #199, #237, #178, #136 ) ) ;
#37 = APPLICATION_PROTOCOL_DEFINITION ( 'draft international standard', 'automotive_design', 1998, #308 ) ;
#38 = PRESENTATION_LAYER_ASSIGNMENT (  '', '', ( #246 ) ) ;
#39 = ADVANCED_FACE ( 'NONE', ( #234 ), #151, .T. ) ;
#40 = DIRECTION ( 'NONE',  ( -0.000000000000000000, -1.000000000000000000, -0.000000000000000000 ) ) ;
#41 =( NAMED_UNIT ( * ) SI_UNIT ( $, .STERADIAN. ) SOLID_ANGLE_UNIT ( ) );
#42 = PRODUCT_DEFINITION_SHAPE ( 'NONE', 'NONE',  #271 ) ;
#43 = CARTESIAN_POINT ( 'NONE',  ( -6.123233995736759873E-17, 3.500000000000000000, 0.000000000000000000 ) ) ;
#44 = ORIENTED_EDGE ( 'NONE', *, *, #152, .T. ) ;
#45 = DIRECTION ( 'NONE',  ( 0.000000000000000000, 0.000000000000000000, -1.000000000000000000 ) ) ;
#46 = DIMENSIONAL_EXPONENTS ( 1.000000000000000000, 0.000000000000000000, 0.000000000000000000, 0.000000000000000000, 0.000000000000000000, 0.000000000000000000, 0.000000000000000000 ) ;
#47 = MECHANICAL_DESIGN_GEOMETRIC_PRESENTATION_REPRESENTATION (  '', ( #187 ), #220 ) ;
#48 = LENGTH_MEASURE_WITH_UNIT ( LENGTH_MEASURE( 0.02539999999999999897 ), #100 );
#49 = FILL_AREA_STYLE ('',( #52 ) ) ;
#50 = ORIENTED_EDGE ( 'NONE', *, *, #24, .F. ) ;
#51 = DIRECTION ( 'NONE',  ( -3.265724797726272713E-17, 1.000000000000000000, -0.000000000000000000 ) ) ;
#52 = FILL_AREA_STYLE_COLOUR ( '', #34 ) ;
#53 = ORIENTED_EDGE ( 'NONE', *, *, #121, .F. ) ;
#54 = PRODUCT ( '00572', '00572', '', ( #229 ) ) ;
#55 = SURFACE_STYLE_FILL_AREA ( #103 ) ;
#56 = PRESENTATION_LAYER_ASSIGNMENT (  '', '', ( #298 ) ) ;
#57 = MECHANICAL_DESIGN_GEOMETRIC_PRESENTATION_REPRESENTATION (  '', ( #141 ), #81 ) ;
#58 =( LENGTH_UNIT ( ) NAMED_UNIT ( * ) SI_UNIT ( $, .METRE. ) );
#59 = ORIENTED_EDGE ( 'NONE', *, *, #5, .T. ) ;
#60 = PRESENTATION_STYLE_ASSIGNMENT (( #295 ) ) ;
#61 = ORIENTED_EDGE ( 'NONE', *, *, #112, .T. ) ;
#62 = UNCERTAINTY_MEASURE_WITH_UNIT (LENGTH_MEASURE( 1.000000000000000082E-05 ), #253, 'distance_accuracy_value', 'NONE');
#63 = EDGE_CURVE ( 'NONE', #286, #138, #266, .T. ) ;
#64 = CARTESIAN_POINT ( 'NONE',  ( 0.000000000000000000, 1.625000000000000000, 0.000000000000000000 ) ) ;
#65 =( GEOMETRIC_REPRESENTATION_CONTEXT ( 3 ) GLOBAL_UNCERTAINTY_ASSIGNED_CONTEXT ( ( #62 ) ) GLOBAL_UNIT_ASSIGNED_CONTEXT ( ( #253, #207, #309 ) ) REPRESENTATION_CONTEXT ( 'NONE', 'WORKASPACE' ) );
#66 = CARTESIAN_POINT ( 'NONE',  ( 0.3125000000000000000, 1.625000000000000000, 3.827021247335478926E-17 ) ) ;
#67 = CARTESIAN_POINT ( 'NONE',  ( 0.000000000000000000, 0.000000000000000000, 0.000000000000000000 ) ) ;
#68 = DIMENSIONAL_EXPONENTS ( 1.000000000000000000, 0.000000000000000000, 0.000000000000000000, 0.000000000000000000, 0.000000000000000000, 0.000000000000000000, 0.000000000000000000 ) ;
#69 = CIRCLE ( 'NONE', #94, 0.3125000000000000555 ) ;
#70 =( CONVERSION_BASED_UNIT ( 'INCH', #153 ) LENGTH_UNIT ( ) NAMED_UNIT ( #118 ) );
#71 = LENGTH_MEASURE_WITH_UNIT ( LENGTH_MEASURE( 0.02539999999999999897 ), #305 );
#72 = DIRECTION ( 'NONE',  ( 1.000000000000000000, 3.265724797726272713E-17, 0.000000000000000000 ) ) ;
#73 = EDGE_LOOP ( 'NONE', ( #273, #140, #245, #159 ) ) ;
#74 = DIRECTION ( 'NONE',  ( -1.000000000000000000, 0.000000000000000000, 0.000000000000000000 ) ) ;
#75 = DIRECTION ( 'NONE',  ( -1.000000000000000000, 0.000000000000000000, 0.000000000000000000 ) ) ;
#76 = AXIS2_PLACEMENT_3D ( 'NONE', #64, #40, #128 ) ;
#77 =( GEOMETRIC_REPRESENTATION_CONTEXT ( 3 ) GLOBAL_UNCERTAINTY_ASSIGNED_CONTEXT ( ( #106 ) ) GLOBAL_UNIT_ASSIGNED_CONTEXT ( ( #226, #255, #41 ) ) REPRESENTATION_CONTEXT ( 'NONE', 'WORKASPACE' ) );
#78 = FACE_OUTER_BOUND ( 'NONE', #154, .T. ) ;
#79 = SURFACE_STYLE_FILL_AREA ( #243 ) ;
#80 = ORIENTED_EDGE ( 'NONE', *, *, #93, .T. ) ;
#81 =( GEOMETRIC_REPRESENTATION_CONTEXT ( 3 ) GLOBAL_UNCERTAINTY_ASSIGNED_CONTEXT ( ( #250 ) ) GLOBAL_UNIT_ASSIGNED_CONTEXT ( ( #70, #129, #23 ) ) REPRESENTATION_CONTEXT ( 'NONE', 'WORKASPACE' ) );
#82 = SURFACE_STYLE_FILL_AREA ( #206 ) ;
#83 = AXIS2_PLACEMENT_3D ( 'NONE', #107, #51, #195 ) ;
#84 = CARTESIAN_POINT ( 'NONE',  ( -0.3125000000000000555, 3.500000000000000000, 0.000000000000000000 ) ) ;
#85 = ADVANCED_FACE ( 'NONE', ( #25 ), #293, .F. ) ;
#86 = DIRECTION ( 'NONE',  ( 0.000000000000000000, 0.000000000000000000, -1.000000000000000000 ) ) ;
#87 = DIRECTION ( 'NONE',  ( -0.000000000000000000, -1.000000000000000000, -0.000000000000000000 ) ) ;
#88 = LENGTH_MEASURE_WITH_UNIT ( LENGTH_MEASURE( 0.02539999999999999897 ), #144 );
#89 = COLOUR_RGB ( '',1.000000000000000000, 0.000000000000000000, 0.000000000000000000 ) ;
#90 = ADVANCED_FACE ( 'NONE', ( #78 ), #285, .T. ) ;
#91 = SURFACE_SIDE_STYLE ('',( #228 ) ) ;
#92 =( LENGTH_UNIT ( ) NAMED_UNIT ( * ) SI_UNIT ( $, .METRE. ) );
#93 = EDGE_CURVE ( 'NONE', #202, #108, #120, .T. ) ;
#94 = AXIS2_PLACEMENT_3D ( 'NONE', #260, #31, #131 ) ;
#95 = CIRCLE ( 'NONE', #18, 0.3125000000000000000 ) ;
#96 = SURFACE_SIDE_STYLE ('',( #287 ) ) ;
#97 = ORIENTED_EDGE ( 'NONE', *, *, #224, .T. ) ;
#98 = DIMENSIONAL_EXPONENTS ( 1.000000000000000000, 0.000000000000000000, 0.000000000000000000, 0.000000000000000000, 0.000000000000000000, 0.000000000000000000, 0.000000000000000000 ) ;
#99 = DIRECTION ( 'NONE',  ( 0.000000000000000000, 1.000000000000000000, 0.000000000000000000 ) ) ;
#100 =( LENGTH_UNIT ( ) NAMED_UNIT ( * ) SI_UNIT ( $, .METRE. ) );
#101 = DIRECTION ( 'NONE',  ( -0.000000000000000000, -1.000000000000000000, -0.000000000000000000 ) ) ;
#102 =( NAMED_UNIT ( * ) SI_UNIT ( $, .STERADIAN. ) SOLID_ANGLE_UNIT ( ) );
#103 = FILL_AREA_STYLE ('',( #8 ) ) ;
#104 = SURFACE_STYLE_USAGE ( .BOTH. , #91 ) ;
#105 = FACE_OUTER_BOUND ( 'NONE', #36, .T. ) ;
#106 = UNCERTAINTY_MEASURE_WITH_UNIT (LENGTH_MEASURE( 1.000000000000000082E-05 ), #226, 'distance_accuracy_value', 'NONE');
#107 = CARTESIAN_POINT ( 'NONE',  ( 7.582401355855259480E-33, 1.625000000000000000, 0.000000000000000000 ) ) ;
#108 = VERTEX_POINT ( 'NONE', #1 ) ;
#109 =( NAMED_UNIT ( * ) PLANE_ANGLE_UNIT ( ) SI_UNIT ( $, .RADIAN. ) );
#110 = VECTOR ( 'NONE', #232, 39.37007874015748143 ) ;
#111 =( GEOMETRIC_REPRESENTATION_CONTEXT ( 3 ) GLOBAL_UNCERTAINTY_ASSIGNED_CONTEXT ( ( #142 ) ) GLOBAL_UNIT_ASSIGNED_CONTEXT ( ( #135, #109, #270 ) ) REPRESENTATION_CONTEXT ( 'NONE', 'WORKASPACE' ) );
#112 = EDGE_CURVE ( 'NONE', #2, #138, #242, .T. ) ;
#113 = VERTEX_POINT ( 'NONE', #194 ) ;
#114 = DIRECTION ( 'NONE',  ( -3.265724797726272713E-17, 1.000000000000000000, 0.000000000000000000 ) ) ;
#115 = AXIS2_PLACEMENT_3D ( 'NONE', #275, #114, #19 ) ;
#116 = DIRECTION ( 'NONE',  ( -3.265724797726272713E-17, 1.000000000000000000, -0.000000000000000000 ) ) ;
#117 = PRODUCT_DEFINITION_CONTEXT ( 'detailed design', #308, 'design' ) ;
#118 = DIMENSIONAL_EXPONENTS ( 1.000000000000000000, 0.000000000000000000, 0.000000000000000000, 0.000000000000000000, 0.000000000000000000, 0.000000000000000000, 0.000000000000000000 ) ;
#119 = DIMENSIONAL_EXPONENTS ( 1.000000000000000000, 0.000000000000000000, 0.000000000000000000, 0.000000000000000000, 0.000000000000000000, 0.000000000000000000, 0.000000000000000000 ) ;
#120 = LINE ( 'NONE', #210, #263 ) ;
#121 = EDGE_CURVE ( 'NONE', #230, #286, #175, .T. ) ;
#122 = ORIENTED_EDGE ( 'NONE', *, *, #168, .T. ) ;
#123 = ADVANCED_FACE ( 'NONE', ( #264 ), #221, .T. ) ;
#124 =( NAMED_UNIT ( * ) PLANE_ANGLE_UNIT ( ) SI_UNIT ( $, .RADIAN. ) );
#125 = MECHANICAL_DESIGN_GEOMETRIC_PRESENTATION_REPRESENTATION (  '', ( #246 ), #137 ) ;
#126 = DIRECTION ( 'NONE',  ( -3.265724797726272713E-17, 1.000000000000000000, -0.000000000000000000 ) ) ;
#127 = DIRECTION ( 'NONE',  ( -1.000000000000000000, 0.000000000000000000, 0.000000000000000000 ) ) ;
#128 = DIRECTION ( 'NONE',  ( 0.000000000000000000, 0.000000000000000000, -1.000000000000000000 ) ) ;
#129 =( NAMED_UNIT ( * ) PLANE_ANGLE_UNIT ( ) SI_UNIT ( $, .RADIAN. ) );
#130 = FILL_AREA_STYLE_COLOUR ( '', #89 ) ;
#131 = DIRECTION ( 'NONE',  ( -1.000000000000000000, 0.000000000000000000, 0.000000000000000000 ) ) ;
#132 = ADVANCED_FACE ( 'NONE', ( #248 ), #139, .F. ) ;
#133 = UNCERTAINTY_MEASURE_WITH_UNIT (LENGTH_MEASURE( 1.000000000000000082E-05 ), #21, 'distance_accuracy_value', 'NONE');
#134 = EDGE_LOOP ( 'NONE', ( #61, #160 ) ) ;
#135 =( CONVERSION_BASED_UNIT ( 'INCH', #244 ) LENGTH_UNIT ( ) NAMED_UNIT ( #119 ) );
#136 = ORIENTED_EDGE ( 'NONE', *, *, #93, .F. ) ;
#137 =( GEOMETRIC_REPRESENTATION_CONTEXT ( 3 ) GLOBAL_UNCERTAINTY_ASSIGNED_CONTEXT ( ( #133 ) ) GLOBAL_UNIT_ASSIGNED_CONTEXT ( ( #21, #182, #162 ) ) REPRESENTATION_CONTEXT ( 'NONE', 'WORKASPACE' ) );
#138 = VERTEX_POINT ( 'NONE', #204 ) ;
#139 = PLANE ( 'NONE',  #115 ) ;
#140 = ORIENTED_EDGE ( 'NONE', *, *, #63, .T. ) ;
#141 = STYLED_ITEM ( 'NONE', ( #32 ), #90 ) ;
#142 = UNCERTAINTY_MEASURE_WITH_UNIT (LENGTH_MEASURE( 1.000000000000000082E-05 ), #135, 'distance_accuracy_value', 'NONE');
#143 = DIRECTION ( 'NONE',  ( -0.000000000000000000, -1.000000000000000000, -0.000000000000000000 ) ) ;
#144 =( LENGTH_UNIT ( ) NAMED_UNIT ( * ) SI_UNIT ( $, .METRE. ) );
#145 = COLOUR_RGB ( '',1.000000000000000000, 0.000000000000000000, 0.000000000000000000 ) ;
#146 = SURFACE_STYLE_USAGE ( .BOTH. , #218 ) ;
#147 = LINE ( 'NONE', #213, #299 ) ;
#148 = ORIENTED_EDGE ( 'NONE', *, *, #63, .F. ) ;
#149 = DIRECTION ( 'NONE',  ( -3.265724797726272713E-17, 1.000000000000000000, -0.000000000000000000 ) ) ;
#150 = CIRCLE ( 'NONE', #225, 0.3125000000000000000 ) ;
#151 = CYLINDRICAL_SURFACE ( 'NONE', #33, 0.3125000000000000000 ) ;
#152 = EDGE_CURVE ( 'NONE', #230, #2, #302, .T. ) ;
#153 = LENGTH_MEASURE_WITH_UNIT ( LENGTH_MEASURE( 0.02539999999999999897 ), #261 );
#154 = EDGE_LOOP ( 'NONE', ( #158, #259 ) ) ;
#155 = SURFACE_STYLE_USAGE ( .BOTH. , #96 ) ;
#156 = CLOSED_SHELL ( 'NONE', ( #3, #90, #123, #258 ) ) ;
#157 = AXIS2_PLACEMENT_3D ( 'NONE', #208, #186, #35 ) ;
#158 = ORIENTED_EDGE ( 'NONE', *, *, #179, .F. ) ;
#159 = ORIENTED_EDGE ( 'NONE', *, *, #152, .F. ) ;
#160 = ORIENTED_EDGE ( 'NONE', *, *, #215, .T. ) ;
#161 = AXIS2_PLACEMENT_3D ( 'NONE', #274, #280, #276 ) ;
#162 =( NAMED_UNIT ( * ) SI_UNIT ( $, .STERADIAN. ) SOLID_ANGLE_UNIT ( ) );
#163 = ORIENTED_EDGE ( 'NONE', *, *, #252, .T. ) ;
#164 = FILL_AREA_STYLE_COLOUR ( '', #191 ) ;
#165 = LENGTH_MEASURE_WITH_UNIT ( LENGTH_MEASURE( 0.02539999999999999897 ), #92 );
#166 = AXIS2_PLACEMENT_3D ( 'NONE', #217, #143, #233 ) ;
#167 = DIRECTION ( 'NONE',  ( -0.000000000000000000, -1.000000000000000000, -0.000000000000000000 ) ) ;
#168 = EDGE_CURVE ( 'NONE', #113, #202, #95, .T. ) ;
#169 = CIRCLE ( 'NONE', #83, 0.3125000000000000000 ) ;
#170 =( CONVERSION_BASED_UNIT ( 'INCH', #71 ) LENGTH_UNIT ( ) NAMED_UNIT ( #306 ) );
#171 = DIRECTION ( 'NONE',  ( -1.000000000000000000, 0.000000000000000000, 0.000000000000000000 ) ) ;
#172 = CARTESIAN_POINT ( 'NONE',  ( 0.000000000000000000, 1.625000000000000000, -0.3125000000000000000 ) ) ;
#173 = CARTESIAN_POINT ( 'NONE',  ( 3.827021247335478926E-17, 0.000000000000000000, 0.3125000000000000000 ) ) ;
#174 =( CONVERSION_BASED_UNIT ( 'INCH', #48 ) LENGTH_UNIT ( ) NAMED_UNIT ( #68 ) );
#175 = CIRCLE ( 'NONE', #183, 0.3125000000000000000 ) ;
#176 = DIRECTION ( 'NONE',  ( -0.000000000000000000, -1.000000000000000000, -0.000000000000000000 ) ) ;
#177 = DIMENSIONAL_EXPONENTS ( 1.000000000000000000, 0.000000000000000000, 0.000000000000000000, 0.000000000000000000, 0.000000000000000000, 0.000000000000000000, 0.000000000000000000 ) ;
#178 = ORIENTED_EDGE ( 'NONE', *, *, #224, .F. ) ;
#179 = EDGE_CURVE ( 'NONE', #202, #113, #223, .T. ) ;
#180 = AXIS2_PLACEMENT_3D ( 'NONE', #43, #126, #74 ) ;
#181 = FILL_AREA_STYLE ('',( #12 ) ) ;
#182 =( NAMED_UNIT ( * ) PLANE_ANGLE_UNIT ( ) SI_UNIT ( $, .RADIAN. ) );
#183 = AXIS2_PLACEMENT_3D ( 'NONE', #236, #289, #75 ) ;
#184 = DIRECTION ( 'NONE',  ( 0.000000000000000000, 0.000000000000000000, -1.000000000000000000 ) ) ;
#185 = PRESENTATION_STYLE_ASSIGNMENT (( #146 ) ) ;
#186 = DIRECTION ( 'NONE',  ( -0.000000000000000000, -1.000000000000000000, -0.000000000000000000 ) ) ;
#187 = STYLED_ITEM ( 'NONE', ( #60 ), #241 ) ;
#188 = CYLINDRICAL_SURFACE ( 'NONE', #192, 0.3125000000000000000 ) ;
#189 = CARTESIAN_POINT ( 'NONE',  ( 0.000000000000000000, 0.000000000000000000, 0.000000000000000000 ) ) ;
#190 = MECHANICAL_DESIGN_GEOMETRIC_PRESENTATION_REPRESENTATION (  '', ( #298 ), #65 ) ;
#191 = COLOUR_RGB ( '',1.000000000000000000, 0.000000000000000000, 0.000000000000000000 ) ;
#192 = AXIS2_PLACEMENT_3D ( 'NONE', #67, #167, #239 ) ;
#193 = PRESENTATION_STYLE_ASSIGNMENT (( #104 ) ) ;
#194 = CARTESIAN_POINT ( 'NONE',  ( 3.827021247335478926E-17, 1.625000000000000000, 0.3125000000000000000 ) ) ;
#195 = DIRECTION ( 'NONE',  ( -1.000000000000000000, 0.000000000000000000, 0.000000000000000000 ) ) ;
#196 = PRESENTATION_LAYER_ASSIGNMENT (  '', '', ( #187 ) ) ;
#197 = CARTESIAN_POINT ( 'NONE',  ( -6.123233995736759873E-17, 3.500000000000000000, 0.000000000000000000 ) ) ;
#198 =( NAMED_UNIT ( * ) SI_UNIT ( $, .STERADIAN. ) SOLID_ANGLE_UNIT ( ) );
#199 = ORIENTED_EDGE ( 'NONE', *, *, #179, .T. ) ;
#200 = SURFACE_STYLE_USAGE ( .BOTH. , #219 ) ;
#201 = PRESENTATION_LAYER_ASSIGNMENT (  '', '', ( #283 ) ) ;
#202 = VERTEX_POINT ( 'NONE', #172 ) ;
#203 = PRODUCT_RELATED_PRODUCT_CATEGORY ( 'part', '', ( #54 ) ) ;
#204 = CARTESIAN_POINT ( 'NONE',  ( 0.3125000000000000000, 3.500000000000000000, 3.827021247335478926E-17 ) ) ;
#205 = PRESENTATION_LAYER_ASSIGNMENT (  '', '', ( #141 ) ) ;
#206 = FILL_AREA_STYLE ('',( #164 ) ) ;
#207 =( NAMED_UNIT ( * ) PLANE_ANGLE_UNIT ( ) SI_UNIT ( $, .RADIAN. ) );
#208 = CARTESIAN_POINT ( 'NONE',  ( 0.000000000000000000, 0.000000000000000000, 0.000000000000000000 ) ) ;
#209 = DIRECTION ( 'NONE',  ( 0.000000000000000000, -1.000000000000000000, -0.000000000000000000 ) ) ;
#210 = CARTESIAN_POINT ( 'NONE',  ( 0.000000000000000000, 0.000000000000000000, -0.3125000000000000000 ) ) ;
#211 = ORIENTED_EDGE ( 'NONE', *, *, #215, .F. ) ;
#212 = AXIS2_PLACEMENT_3D ( 'NONE', #281, #4, #72 ) ;
#213 = CARTESIAN_POINT ( 'NONE',  ( 3.827021247335478926E-17, 0.000000000000000000, 0.3125000000000000000 ) ) ;
#214 = FACE_OUTER_BOUND ( 'NONE', #265, .T. ) ;
#215 = EDGE_CURVE ( 'NONE', #138, #2, #69, .T. ) ;
#216 = DIRECTION ( 'NONE',  ( 0.000000000000000000, -0.000000000000000000, 1.000000000000000000 ) ) ;
#217 = CARTESIAN_POINT ( 'NONE',  ( 0.000000000000000000, 0.000000000000000000, 0.000000000000000000 ) ) ;
#218 = SURFACE_SIDE_STYLE ('',( #82 ) ) ;
#219 = SURFACE_SIDE_STYLE ('',( #55 ) ) ;
#220 =( GEOMETRIC_REPRESENTATION_CONTEXT ( 3 ) GLOBAL_UNCERTAINTY_ASSIGNED_CONTEXT ( ( #247 ) ) GLOBAL_UNIT_ASSIGNED_CONTEXT ( ( #174, #262, #102 ) ) REPRESENTATION_CONTEXT ( 'NONE', 'WORKASPACE' ) );
#221 = CYLINDRICAL_SURFACE ( 'NONE', #157, 0.3125000000000000000 ) ;
#222 = ORIENTED_EDGE ( 'NONE', *, *, #252, .F. ) ;
#223 = CIRCLE ( 'NONE', #76, 0.3125000000000000000 ) ;
#224 = EDGE_CURVE ( 'NONE', #108, #16, #300, .T. ) ;
#225 = AXIS2_PLACEMENT_3D ( 'NONE', #189, #256, #45 ) ;
#226 =( CONVERSION_BASED_UNIT ( 'INCH', #165 ) LENGTH_UNIT ( ) NAMED_UNIT ( #177 ) );
#227 = LENGTH_MEASURE_WITH_UNIT ( LENGTH_MEASURE( 0.02539999999999999897 ), #58 );
#228 = SURFACE_STYLE_FILL_AREA ( #288 ) ;
#229 = PRODUCT_CONTEXT ( 'NONE', #30, 'mechanical' ) ;
#230 = VERTEX_POINT ( 'NONE', #28 ) ;
#231 = MANIFOLD_SOLID_BREP ( 'Revolve - Tool Body (Straight Shanked)', #282 ) ;
#232 = DIRECTION ( 'NONE',  ( -3.265724797726272713E-17, 1.000000000000000000, -0.000000000000000000 ) ) ;
#233 = DIRECTION ( 'NONE',  ( 0.000000000000000000, 0.000000000000000000, -1.000000000000000000 ) ) ;
#234 = FACE_OUTER_BOUND ( 'NONE', #73, .T. ) ;
#235 = FACE_OUTER_BOUND ( 'NONE', #290, .T. ) ;
#236 = CARTESIAN_POINT ( 'NONE',  ( 7.582401355855259480E-33, 1.625000000000000000, 0.000000000000000000 ) ) ;
#237 = ORIENTED_EDGE ( 'NONE', *, *, #24, .T. ) ;
#238 = PRESENTATION_STYLE_ASSIGNMENT (( #291 ) ) ;
#239 = DIRECTION ( 'NONE',  ( 0.000000000000000000, 0.000000000000000000, -1.000000000000000000 ) ) ;
#240 = DIRECTION ( 'NONE',  ( -3.265724797726272713E-17, 1.000000000000000000, -0.000000000000000000 ) ) ;
#241 = MANIFOLD_SOLID_BREP ( 'Revolve - Cutting Edge', #156 ) ;
#242 = CIRCLE ( 'NONE', #180, 0.3125000000000000555 ) ;
#243 = FILL_AREA_STYLE ('',( #130 ) ) ;
#244 = LENGTH_MEASURE_WITH_UNIT ( LENGTH_MEASURE( 0.02539999999999999897 ), #296 );
#245 = ORIENTED_EDGE ( 'NONE', *, *, #112, .F. ) ;
#246 = STYLED_ITEM ( 'NONE', ( #13 ), #123 ) ;
#247 = UNCERTAINTY_MEASURE_WITH_UNIT (LENGTH_MEASURE( 1.000000000000000082E-05 ), #174, 'distance_accuracy_value', 'NONE');
#248 = FACE_OUTER_BOUND ( 'NONE', #17, .T. ) ;
#249 = ORIENTED_EDGE ( 'NONE', *, *, #5, .F. ) ;
#250 = UNCERTAINTY_MEASURE_WITH_UNIT (LENGTH_MEASURE( 1.000000000000000082E-05 ), #70, 'distance_accuracy_value', 'NONE');
#251 = ADVANCED_FACE ( 'NONE', ( #235 ), #14, .T. ) ;
#252 = EDGE_CURVE ( 'NONE', #286, #230, #169, .T. ) ;
#253 =( CONVERSION_BASED_UNIT ( 'INCH', #88 ) LENGTH_UNIT ( ) NAMED_UNIT ( #98 ) );
#254 = STYLED_ITEM ( 'NONE', ( #238 ), #258 ) ;
#255 =( NAMED_UNIT ( * ) PLANE_ANGLE_UNIT ( ) SI_UNIT ( $, .RADIAN. ) );
#256 = DIRECTION ( 'NONE',  ( -0.000000000000000000, -1.000000000000000000, -0.000000000000000000 ) ) ;
#257 = CARTESIAN_POINT ( 'NONE',  ( 0.3124999999999999445, 3.500000000000000000, 3.827021247335478926E-17 ) ) ;
#258 = ADVANCED_FACE ( 'NONE', ( #214 ), #29, .T. ) ;
#259 = ORIENTED_EDGE ( 'NONE', *, *, #168, .F. ) ;
#260 = CARTESIAN_POINT ( 'NONE',  ( -6.123233995736759873E-17, 3.500000000000000000, 0.000000000000000000 ) ) ;
#261 =( LENGTH_UNIT ( ) NAMED_UNIT ( * ) SI_UNIT ( $, .METRE. ) );
#262 =( NAMED_UNIT ( * ) PLANE_ANGLE_UNIT ( ) SI_UNIT ( $, .RADIAN. ) );
#263 = VECTOR ( 'NONE', #101, 39.37007874015748143 ) ;
#264 = FACE_OUTER_BOUND ( 'NONE', #267, .T. ) ;
#265 = EDGE_LOOP ( 'NONE', ( #97, #59 ) ) ;
#266 = LINE ( 'NONE', #257, #110 ) ;
#267 = EDGE_LOOP ( 'NONE', ( #50, #122, #80, #249 ) ) ;
#268 = SURFACE_SIDE_STYLE ('',( #294 ) ) ;
#269 = UNCERTAINTY_MEASURE_WITH_UNIT (LENGTH_MEASURE( 1.000000000000000082E-05 ), #170, 'distance_accuracy_value', 'NONE');
#270 =( NAMED_UNIT ( * ) SI_UNIT ( $, .STERADIAN. ) SOLID_ANGLE_UNIT ( ) );
#271 = PRODUCT_DEFINITION ( 'UNKNOWN', '', #278, #117 ) ;
#272 = AXIS2_PLACEMENT_3D ( 'NONE', #27, #240, #127 ) ;
#273 = ORIENTED_EDGE ( 'NONE', *, *, #121, .T. ) ;
#274 = CARTESIAN_POINT ( 'NONE',  ( 0.000000000000000000, 0.000000000000000000, 0.000000000000000000 ) ) ;
#275 = CARTESIAN_POINT ( 'NONE',  ( 1.666399758513172697E-34, 1.625000000000000000, 0.000000000000000000 ) ) ;
#276 = DIRECTION ( 'NONE',  ( 1.000000000000000000, 0.000000000000000000, 0.000000000000000000 ) ) ;
#277 = COLOUR_RGB ( '',0.7921568627450980005, 0.8196078431372548767, 0.9333333333333333481 ) ;
#278 = PRODUCT_DEFINITION_FORMATION_WITH_SPECIFIED_SOURCE ( 'ANY', '', #54, .NOT_KNOWN. ) ;
#279 = CARTESIAN_POINT ( 'NONE',  ( 0.000000000000000000, 0.000000000000000000, 0.000000000000000000 ) ) ;
#280 = DIRECTION ( 'NONE',  ( 0.000000000000000000, 0.000000000000000000, 1.000000000000000000 ) ) ;
#281 = CARTESIAN_POINT ( 'NONE',  ( 0.3125000000000000000, 3.500000000000000000, 0.000000000000000000 ) ) ;
#282 = CLOSED_SHELL ( 'NONE', ( #39, #132, #251, #85 ) ) ;
#283 = STYLED_ITEM ( 'NONE', ( #193 ), #231 ) ;
#284 = PRESENTATION_LAYER_ASSIGNMENT (  '', '', ( #254 ) ) ;
#285 = PLANE ( 'NONE',  #9 ) ;
#286 = VERTEX_POINT ( 'NONE', #66 ) ;
#287 = SURFACE_STYLE_FILL_AREA ( #49 ) ;
#288 = FILL_AREA_STYLE ('',( #6 ) ) ;
#289 = DIRECTION ( 'NONE',  ( -3.265724797726272713E-17, 1.000000000000000000, -0.000000000000000000 ) ) ;
#290 = EDGE_LOOP ( 'NONE', ( #148, #163, #44, #211 ) ) ;
#291 = SURFACE_STYLE_USAGE ( .BOTH. , #297 ) ;
#292 =( GEOMETRIC_REPRESENTATION_CONTEXT ( 3 ) GLOBAL_UNCERTAINTY_ASSIGNED_CONTEXT ( ( #269 ) ) GLOBAL_UNIT_ASSIGNED_CONTEXT ( ( #170, #124, #198 ) ) REPRESENTATION_CONTEXT ( 'NONE', 'WORKASPACE' ) );
#293 = PLANE ( 'NONE',  #212 ) ;
#294 = SURFACE_STYLE_FILL_AREA ( #181 ) ;
#295 = SURFACE_STYLE_USAGE ( .BOTH. , #268 ) ;
#296 =( LENGTH_UNIT ( ) NAMED_UNIT ( * ) SI_UNIT ( $, .METRE. ) );
#297 = SURFACE_SIDE_STYLE ('',( #79 ) ) ;
#298 = STYLED_ITEM ( 'NONE', ( #185 ), #3 ) ;
#299 = VECTOR ( 'NONE', #176, 39.37007874015748143 ) ;
#300 = CIRCLE ( 'NONE', #166, 0.3125000000000000000 ) ;
#301 = AXIS2_PLACEMENT_3D ( 'NONE', #279, #209, #86 ) ;
#302 = LINE ( 'NONE', #84, #304 ) ;
#303 = CARTESIAN_POINT ( 'NONE',  ( 0.000000000000000000, 1.625000000000000000, 0.000000000000000000 ) ) ;
#304 = VECTOR ( 'NONE', #116, 39.37007874015748143 ) ;
#305 =( LENGTH_UNIT ( ) NAMED_UNIT ( * ) SI_UNIT ( $, .METRE. ) );
#306 = DIMENSIONAL_EXPONENTS ( 1.000000000000000000, 0.000000000000000000, 0.000000000000000000, 0.000000000000000000, 0.000000000000000000, 0.000000000000000000, 0.000000000000000000 ) ;
#307 = SHAPE_DEFINITION_REPRESENTATION ( #42, #15 ) ;
#308 = APPLICATION_CONTEXT ( 'automotive_design' ) ;
#309 =( NAMED_UNIT ( * ) SI_UNIT ( $, .STERADIAN. ) SOLID_ANGLE_UNIT ( ) );
ENDSEC;
END-ISO-10303-21;
