ISO-10303-21;
HEADER;
FILE_DESCRIPTION (( 'STEP AP214' ),
    '1' );
FILE_NAME ('Micro_BMSM-010-2X.STEP',
    '2021-09-03T15:40:28',
    ( '' ),
    ( '' ),
    'SwSTEP 2.0',
    'SolidWorks 2020',
    '' );
FILE_SCHEMA (( 'AUTOMOTIVE_DESIGN' ));
ENDSEC;

DATA;
#1 = ORIENTED_EDGE ( 'NONE', *, *, #203, .F. ) ;
#2 = AXIS2_PLACEMENT_3D ( 'NONE', #119, #116, #269 ) ;
#3 = ORIENTED_EDGE ( 'NONE', *, *, #107, .T. ) ;
#4 = DIRECTION ( 'NONE',  ( 1.000000000000000000, 0.0000000000000000000, 0.0000000000000000000 ) ) ;
#5 = ORIENTED_EDGE ( 'NONE', *, *, #40, .T. ) ;
#6 = ORIENTED_EDGE ( 'NONE', *, *, #311, .T. ) ;
#7 = CARTESIAN_POINT ( 'NONE',  ( 0.0000000000000000000, 0.0000000000000000000, 1.496062999999999921 ) ) ;
#8 = VERTEX_POINT ( 'NONE', #54 ) ;
#9 = CYLINDRICAL_SURFACE ( 'NONE', #192, 0.05905500000000000332 ) ;
#10 = ADVANCED_FACE ( 'NONE', ( #253 ), #9, .T. ) ;
#11 = AXIS2_PLACEMENT_3D ( 'NONE', #235, #183, #88 ) ;
#12 = UNCERTAINTY_MEASURE_WITH_UNIT (LENGTH_MEASURE( 1.000000000000000082E-05 ), #218, 'distance_accuracy_value', 'NONE');
#13 = DIRECTION ( 'NONE',  ( 1.224646799147353207E-16, 0.0000000000000000000, 1.000000000000000000 ) ) ;
#14 = FILL_AREA_STYLE_COLOUR ( '', #137 ) ;
#15 = EDGE_CURVE ( 'NONE', #202, #174, #106, .T. ) ;
#16 = DIRECTION ( 'NONE',  ( -1.224646799147353207E-16, -0.0000000000000000000, -1.000000000000000000 ) ) ;
#17 = CIRCLE ( 'NONE', #87, 0.04405499999999973326 ) ;
#18 = FACE_OUTER_BOUND ( 'NONE', #173, .T. ) ;
#19 = DIRECTION ( 'NONE',  ( 1.000000000000000000, 0.0000000000000000000, 0.0000000000000000000 ) ) ;
#20 = CONICAL_SURFACE ( 'NONE', #102, 0.04405499999999973326, 0.7853981633974491672 ) ;
#21 = LINE ( 'NONE', #215, #181 ) ;
#22 = ORIENTED_EDGE ( 'NONE', *, *, #311, .F. ) ;
#23 = FILL_AREA_STYLE_COLOUR ( '', #52 ) ;
#24 = ORIENTED_EDGE ( 'NONE', *, *, #290, .T. ) ;
#25 = ORIENTED_EDGE ( 'NONE', *, *, #264, .F. ) ;
#26 = PRESENTATION_LAYER_ASSIGNMENT (  '', '', ( #29 ) ) ;
#27 = ORIENTED_EDGE ( 'NONE', *, *, #165, .T. ) ;
#28 = CARTESIAN_POINT ( 'NONE',  ( -0.05905499999999996863, 0.0000000000000000000, 0.2824450044209672606 ) ) ;
#29 = STYLED_ITEM ( 'NONE', ( #313 ), #168 ) ;
#30 = FACE_OUTER_BOUND ( 'NONE', #303, .T. ) ;
#31 = SHAPE_DEFINITION_REPRESENTATION ( #320, #55 ) ;
#32 = CARTESIAN_POINT ( 'NONE',  ( 0.0000000000000000000, 0.0000000000000000000, 1.496062999999999921 ) ) ;
#33 = EDGE_LOOP ( 'NONE', ( #98, #302, #171, #99 ) ) ;
#34 = CIRCLE ( 'NONE', #63, 0.05905500000000000332 ) ;
#35 = SPHERICAL_SURFACE ( 'NONE', #159, 0.01966531499999999918 ) ;
#36 = ADVANCED_FACE ( 'NONE', ( #30 ), #257, .T. ) ;
#37 = SURFACE_STYLE_USAGE ( .BOTH. , #265 ) ;
#38 = FACE_OUTER_BOUND ( 'NONE', #196, .T. ) ;
#39 = AXIS2_PLACEMENT_3D ( 'NONE', #167, #251, #19 ) ;
#40 = EDGE_CURVE ( 'NONE', #8, #143, #108, .T. ) ;
#41 = CARTESIAN_POINT ( 'NONE',  ( 2.408306506897442716E-18, 0.0000000000000000000, 0.01966531499999999918 ) ) ;
#42 = VERTEX_POINT ( 'NONE', #126 ) ;
#43 = DIRECTION ( 'NONE',  ( 0.0000000000000000000, 0.0000000000000000000, -1.000000000000000000 ) ) ;
#44 = CIRCLE ( 'NONE', #11, 0.01966531499999999225 ) ;
#45 = ORIENTED_EDGE ( 'NONE', *, *, #314, .T. ) ;
#46 = STYLED_ITEM ( 'NONE', ( #299 ), #55 ) ;
#47 = CARTESIAN_POINT ( 'NONE',  ( -0.04405499999999973326, 0.0000000000000000000, 1.496062999999999921 ) ) ;
#48 = ORIENTED_EDGE ( 'NONE', *, *, #103, .T. ) ;
#49 = DIRECTION ( 'NONE',  ( -0.7071067811865482389, 0.0000000000000000000, -0.7071067811865469066 ) ) ;
#50 = EDGE_LOOP ( 'NONE', ( #149, #297, #300, #221 ) ) ;
#51 = CIRCLE ( 'NONE', #316, 0.05905500000000000332 ) ;
#52 = COLOUR_RGB ( '',0.7921568627450980005, 0.8196078431372548767, 0.9333333333333333481 ) ;
#53 = CARTESIAN_POINT ( 'NONE',  ( 7.232151672364695422E-18, 0.0000000000000000000, 0.05905500000000000332 ) ) ;
#54 = CARTESIAN_POINT ( 'NONE',  ( -0.01966531499999998531, 4.820229089631068299E-18, 0.05905500000000000332 ) ) ;
#55 = ADVANCED_BREP_SHAPE_REPRESENTATION ( 'Micro_BMSM-010-2X', ( #168, #284 ), #128 ) ;
#56 = DIRECTION ( 'NONE',  ( -0.0000000000000000000, -0.0000000000000000000, -1.000000000000000000 ) ) ;
#57 = CIRCLE ( 'NONE', #148, 0.01966531499999999918 ) ;
#58 = EDGE_CURVE ( 'NONE', #298, #232, #185, .T. ) ;
#59 =( GEOMETRIC_REPRESENTATION_CONTEXT ( 3 ) GLOBAL_UNCERTAINTY_ASSIGNED_CONTEXT ( ( #283 ) ) GLOBAL_UNIT_ASSIGNED_CONTEXT ( ( #65, #86, #69 ) ) REPRESENTATION_CONTEXT ( 'NONE', 'WORKASPACE' ) );
#60 = ORIENTED_EDGE ( 'NONE', *, *, #197, .F. ) ;
#61 = DIRECTION ( 'NONE',  ( -1.000000000000000000, 0.0000000000000000000, 1.224646799147353207E-16 ) ) ;
#62 = DIRECTION ( 'NONE',  ( 0.0000000000000000000, 1.000000000000000000, 0.0000000000000000000 ) ) ;
#63 = AXIS2_PLACEMENT_3D ( 'NONE', #239, #110, #208 ) ;
#64 = DIRECTION ( 'NONE',  ( 1.000000000000000000, 0.0000000000000000000, 0.0000000000000000000 ) ) ;
#65 =( CONVERSION_BASED_UNIT ( 'INCH', #112 ) LENGTH_UNIT ( ) NAMED_UNIT ( #214 ) );
#66 = DIRECTION ( 'NONE',  ( 0.0000000000000000000, 0.0000000000000000000, 1.000000000000000000 ) ) ;
#67 = ADVANCED_FACE ( 'NONE', ( #306 ), #309, .T. ) ;
#68 = VECTOR ( 'NONE', #16, 39.37007874015748143 ) ;
#69 =( NAMED_UNIT ( * ) SI_UNIT ( $, .STERADIAN. ) SOLID_ANGLE_UNIT ( ) );
#70 = CARTESIAN_POINT ( 'NONE',  ( -0.01966531499999998878, 0.0000000000000000000, 0.01966531500000000265 ) ) ;
#71 = CARTESIAN_POINT ( 'NONE',  ( 0.0000000000000000000, 0.0000000000000000000, 1.481062999999999574 ) ) ;
#72 = ADVANCED_FACE ( 'NONE', ( #281 ), #151, .T. ) ;
#73 = VECTOR ( 'NONE', #49, 39.37007874015748143 ) ;
#74 = ORIENTED_EDGE ( 'NONE', *, *, #258, .T. ) ;
#75 = ORIENTED_EDGE ( 'NONE', *, *, #197, .T. ) ;
#76 = CARTESIAN_POINT ( 'NONE',  ( 0.0000000000000000000, 0.0000000000000000000, 0.0000000000000000000 ) ) ;
#77 = APPLICATION_PROTOCOL_DEFINITION ( 'draft international standard', 'automotive_design', 1998, #231 ) ;
#78 = EDGE_LOOP ( 'NONE', ( #219, #75, #74, #252 ) ) ;
#79 = PRODUCT_CONTEXT ( 'NONE', #211, 'mechanical' ) ;
#80 = CARTESIAN_POINT ( 'NONE',  ( 0.05905500000000000332, 7.232151672364695422E-18, 1.496062999999999921 ) ) ;
#81 = CIRCLE ( 'NONE', #193, 0.05905500000000000332 ) ;
#82 = DIRECTION ( 'NONE',  ( -1.000000000000000000, 0.0000000000000000000, 0.0000000000000000000 ) ) ;
#83 = ADVANCED_FACE ( 'NONE', ( #105 ), #282, .T. ) ;
#84 = PRODUCT_DEFINITION_CONTEXT ( 'detailed design', #231, 'design' ) ;
#85 = DIRECTION ( 'NONE',  ( 0.0000000000000000000, 1.000000000000000000, 0.0000000000000000000 ) ) ;
#86 =( NAMED_UNIT ( * ) PLANE_ANGLE_UNIT ( ) SI_UNIT ( $, .RADIAN. ) );
#87 = AXIS2_PLACEMENT_3D ( 'NONE', #172, #323, #93 ) ;
#88 = DIRECTION ( 'NONE',  ( -1.000000000000000000, 0.0000000000000000000, 0.0000000000000000000 ) ) ;
#89 = ADVANCED_FACE ( 'NONE', ( #129 ), #312, .T. ) ;
#90 = PRODUCT ( 'Micro_BMSM-010-2X', 'Micro_BMSM-010-2X', '', ( #79 ) ) ;
#91 = CARTESIAN_POINT ( 'NONE',  ( 0.05905500000000000332, 7.232151672364695422E-18, 1.481062999999999574 ) ) ;
#92 = DIRECTION ( 'NONE',  ( -0.0000000000000000000, -0.0000000000000000000, -1.000000000000000000 ) ) ;
#93 = DIRECTION ( 'NONE',  ( 1.000000000000000000, 0.0000000000000000000, 0.0000000000000000000 ) ) ;
#94 = EDGE_LOOP ( 'NONE', ( #118, #3, #124, #117 ) ) ;
#95 =( NAMED_UNIT ( * ) SI_UNIT ( $, .STERADIAN. ) SOLID_ANGLE_UNIT ( ) );
#96 = SURFACE_STYLE_FILL_AREA ( #295 ) ;
#97 = VECTOR ( 'NONE', #162, 39.37007874015747433 ) ;
#98 = ORIENTED_EDGE ( 'NONE', *, *, #165, .F. ) ;
#99 = ORIENTED_EDGE ( 'NONE', *, *, #234, .T. ) ;
#100 = VERTEX_POINT ( 'NONE', #28 ) ;
#101 = DIRECTION ( 'NONE',  ( -1.224646799147353207E-16, -0.0000000000000000000, -1.000000000000000000 ) ) ;
#102 = AXIS2_PLACEMENT_3D ( 'NONE', #136, #237, #166 ) ;
#103 = EDGE_CURVE ( 'NONE', #216, #232, #293, .T. ) ;
#104 = VERTEX_POINT ( 'NONE', #228 ) ;
#105 = FACE_OUTER_BOUND ( 'NONE', #50, .T. ) ;
#106 = LINE ( 'NONE', #182, #227 ) ;
#107 = EDGE_CURVE ( 'NONE', #174, #42, #179, .T. ) ;
#108 = CIRCLE ( 'NONE', #266, 0.01966531499999999225 ) ;
#109 = DIRECTION ( 'NONE',  ( -1.224646799147353207E-16, -0.0000000000000000000, -1.000000000000000000 ) ) ;
#110 = DIRECTION ( 'NONE',  ( 0.0000000000000000000, 0.0000000000000000000, -1.000000000000000000 ) ) ;
#111 = AXIS2_PLACEMENT_3D ( 'NONE', #32, #280, #254 ) ;
#112 = LENGTH_MEASURE_WITH_UNIT ( LENGTH_MEASURE( 0.02539999999999999897 ), #318 );
#113 = SURFACE_STYLE_FILL_AREA ( #240 ) ;
#114 = CARTESIAN_POINT ( 'NONE',  ( 0.0000000000000000000, 0.0000000000000000000, 1.496062999999999921 ) ) ;
#115 = ADVANCED_FACE ( 'NONE', ( #256 ), #180, .T. ) ;
#116 = DIRECTION ( 'NONE',  ( 1.224646799147353207E-16, 0.0000000000000000000, 1.000000000000000000 ) ) ;
#117 = ORIENTED_EDGE ( 'NONE', *, *, #258, .F. ) ;
#118 = ORIENTED_EDGE ( 'NONE', *, *, #305, .T. ) ;
#119 = CARTESIAN_POINT ( 'NONE',  ( 2.408306506897442716E-18, 0.0000000000000000000, 0.01966531499999999918 ) ) ;
#120 = VERTEX_POINT ( 'NONE', #210 ) ;
#121 = LINE ( 'NONE', #220, #289 ) ;
#122 = AXIS2_PLACEMENT_3D ( 'NONE', #76, #101, #61 ) ;
#123 = EDGE_CURVE ( 'NONE', #216, #298, #57, .T. ) ;
#124 = ORIENTED_EDGE ( 'NONE', *, *, #184, .F. ) ;
#125 = DIRECTION ( 'NONE',  ( 1.000000000000000000, 0.0000000000000000000, 0.0000000000000000000 ) ) ;
#126 = CARTESIAN_POINT ( 'NONE',  ( 0.05905500000000004496, 7.232151672364700045E-18, 0.2824450044209672606 ) ) ;
#127 = DIRECTION ( 'NONE',  ( 1.224646799147353207E-16, 1.000000000000000000, -0.0000000000000000000 ) ) ;
#128 =( GEOMETRIC_REPRESENTATION_CONTEXT ( 3 ) GLOBAL_UNCERTAINTY_ASSIGNED_CONTEXT ( ( #12 ) ) GLOBAL_UNIT_ASSIGNED_CONTEXT ( ( #218, #170, #95 ) ) REPRESENTATION_CONTEXT ( 'NONE', 'WORKASPACE' ) );
#129 = FACE_OUTER_BOUND ( 'NONE', #223, .T. ) ;
#130 = DIRECTION ( 'NONE',  ( 0.0000000000000000000, 0.0000000000000000000, 1.000000000000000000 ) ) ;
#131 = DIRECTION ( 'NONE',  ( -1.224646799147353207E-16, -0.0000000000000000000, -1.000000000000000000 ) ) ;
#132 = DIRECTION ( 'NONE',  ( -1.000000000000000000, 0.0000000000000000000, 2.170579261049422841E-16 ) ) ;
#133 = EDGE_CURVE ( 'NONE', #143, #8, #44, .T. ) ;
#134 = CONICAL_SURFACE ( 'NONE', #209, 0.01966531499999999225, 0.1745329251994338915 ) ;
#135 = LINE ( 'NONE', #187, #97 ) ;
#136 = CARTESIAN_POINT ( 'NONE',  ( 0.0000000000000000000, 0.0000000000000000000, 1.496062999999999921 ) ) ;
#137 = COLOUR_RGB ( '',0.7921568627450980005, 0.8196078431372548767, 0.9333333333333333481 ) ;
#138 = DIRECTION ( 'NONE',  ( 0.0000000000000000000, 0.0000000000000000000, -1.000000000000000000 ) ) ;
#139 = FACE_OUTER_BOUND ( 'NONE', #198, .T. ) ;
#140 = SURFACE_SIDE_STYLE ('',( #96 ) ) ;
#141 = AXIS2_PLACEMENT_3D ( 'NONE', #53, #13, #310 ) ;
#142 = DIRECTION ( 'NONE',  ( 1.000000000000000000, 0.0000000000000000000, 0.0000000000000000000 ) ) ;
#143 = VERTEX_POINT ( 'NONE', #315 ) ;
#144 = LINE ( 'NONE', #273, #213 ) ;
#145 = ORIENTED_EDGE ( 'NONE', *, *, #15, .T. ) ;
#146 = ORIENTED_EDGE ( 'NONE', *, *, #133, .F. ) ;
#147 =( LENGTH_UNIT ( ) NAMED_UNIT ( * ) SI_UNIT ( $, .METRE. ) );
#148 = AXIS2_PLACEMENT_3D ( 'NONE', #41, #260, #138 ) ;
#149 = ORIENTED_EDGE ( 'NONE', *, *, #40, .F. ) ;
#150 = CARTESIAN_POINT ( 'NONE',  ( 2.408306506897442716E-18, 0.0000000000000000000, 0.01966531499999999918 ) ) ;
#151 = CYLINDRICAL_SURFACE ( 'NONE', #111, 0.05905500000000000332 ) ;
#152 = CARTESIAN_POINT ( 'NONE',  ( 0.0000000000000000000, 0.0000000000000000000, 0.0000000000000000000 ) ) ;
#153 = DIRECTION ( 'NONE',  ( -0.0000000000000000000, -0.0000000000000000000, -1.000000000000000000 ) ) ;
#154 = CIRCLE ( 'NONE', #2, 0.01966531499999999225 ) ;
#155 = DIRECTION ( 'NONE',  ( -1.000000000000000000, 0.0000000000000000000, 0.0000000000000000000 ) ) ;
#156 =( NAMED_UNIT ( * ) SI_UNIT ( $, .STERADIAN. ) SOLID_ANGLE_UNIT ( ) );
#157 = CARTESIAN_POINT ( 'NONE',  ( 7.232151672364695422E-18, 0.0000000000000000000, 0.05905500000000000332 ) ) ;
#158 = DIRECTION ( 'NONE',  ( 1.000000000000000000, 0.0000000000000000000, -0.0000000000000000000 ) ) ;
#159 = AXIS2_PLACEMENT_3D ( 'NONE', #288, #62, #212 ) ;
#160 = CARTESIAN_POINT ( 'NONE',  ( 0.04405499999999973326, 6.313666573004162521E-18, 1.496062999999999921 ) ) ;
#161 = ADVANCED_FACE ( 'NONE', ( #139 ), #35, .T. ) ;
#162 = DIRECTION ( 'NONE',  ( -0.1736481776669311916, 2.126576849575783316E-17, 0.9848077530122080203 ) ) ;
#163 = CARTESIAN_POINT ( 'NONE',  ( 7.232151672364695422E-18, 0.0000000000000000000, 0.05905500000000000332 ) ) ;
#164 = MECHANICAL_DESIGN_GEOMETRIC_PRESENTATION_REPRESENTATION (  '', ( #46 ), #186 ) ;
#165 = EDGE_CURVE ( 'NONE', #143, #298, #207, .T. ) ;
#166 = DIRECTION ( 'NONE',  ( -1.000000000000000000, 0.0000000000000000000, 0.0000000000000000000 ) ) ;
#167 = CARTESIAN_POINT ( 'NONE',  ( 0.0000000000000000000, 0.0000000000000000000, 1.496062999999999921 ) ) ;
#168 = MANIFOLD_SOLID_BREP ( 'Fillet1', #199 ) ;
#169 = DIRECTION ( 'NONE',  ( 1.000000000000000000, 0.0000000000000000000, 0.0000000000000000000 ) ) ;
#170 =( NAMED_UNIT ( * ) PLANE_ANGLE_UNIT ( ) SI_UNIT ( $, .RADIAN. ) );
#171 = ORIENTED_EDGE ( 'NONE', *, *, #243, .T. ) ;
#172 = CARTESIAN_POINT ( 'NONE',  ( 0.0000000000000000000, 0.0000000000000000000, 1.496062999999999921 ) ) ;
#173 = EDGE_LOOP ( 'NONE', ( #1, #146, #45, #177 ) ) ;
#174 = VERTEX_POINT ( 'NONE', #91 ) ;
#175 = ADVANCED_FACE ( 'NONE', ( #321 ), #291, .T. ) ;
#176 = AXIS2_PLACEMENT_3D ( 'NONE', #191, #296, #125 ) ;
#177 = ORIENTED_EDGE ( 'NONE', *, *, #294, .T. ) ;
#178 = CARTESIAN_POINT ( 'NONE',  ( 0.0000000000000000000, 0.0000000000000000000, 1.496062999999999921 ) ) ;
#179 = LINE ( 'NONE', #80, #244 ) ;
#180 = CYLINDRICAL_SURFACE ( 'NONE', #205, 0.01966531499999999225 ) ;
#181 = VECTOR ( 'NONE', #92, 39.37007874015748143 ) ;
#182 = CARTESIAN_POINT ( 'NONE',  ( 0.04405499999999973326, 5.395181473643630390E-18, 1.496062999999999921 ) ) ;
#183 = DIRECTION ( 'NONE',  ( -1.224646799147353207E-16, -0.0000000000000000000, -1.000000000000000000 ) ) ;
#184 = EDGE_CURVE ( 'NONE', #100, #42, #51, .T. ) ;
#185 = CIRCLE ( 'NONE', #270, 0.01966531499999999225 ) ;
#186 =( GEOMETRIC_REPRESENTATION_CONTEXT ( 3 ) GLOBAL_UNCERTAINTY_ASSIGNED_CONTEXT ( ( #206 ) ) GLOBAL_UNIT_ASSIGNED_CONTEXT ( ( #190, #286, #156 ) ) REPRESENTATION_CONTEXT ( 'NONE', 'WORKASPACE' ) );
#187 = CARTESIAN_POINT ( 'NONE',  ( -0.01966531499999998531, 2.408306506897442331E-18, 0.05905500000000000332 ) ) ;
#188 = CARTESIAN_POINT ( 'NONE',  ( 0.01966531499999999225, 2.408306506897442331E-18, -2.408306506897442331E-18 ) ) ;
#189 = AXIS2_PLACEMENT_3D ( 'NONE', #114, #66, #158 ) ;
#190 =( CONVERSION_BASED_UNIT ( 'INCH', #224 ) LENGTH_UNIT ( ) NAMED_UNIT ( #319 ) );
#191 = CARTESIAN_POINT ( 'NONE',  ( 3.458953705992975487E-17, 0.0000000000000000000, 0.2824450044209672606 ) ) ;
#192 = AXIS2_PLACEMENT_3D ( 'NONE', #7, #56, #82 ) ;
#193 = AXIS2_PLACEMENT_3D ( 'NONE', #71, #43, #142 ) ;
#194 = ORIENTED_EDGE ( 'NONE', *, *, #264, .T. ) ;
#195 = APPLICATION_PROTOCOL_DEFINITION ( 'draft international standard', 'automotive_design', 1998, #211 ) ;
#196 = EDGE_LOOP ( 'NONE', ( #22, #145, #225, #272 ) ) ;
#197 = EDGE_CURVE ( 'NONE', #174, #120, #34, .T. ) ;
#198 = EDGE_LOOP ( 'NONE', ( #324, #242, #247 ) ) ;
#199 = CLOSED_SHELL ( 'NONE', ( #89, #36, #83, #217, #10, #72, #175, #67, #229, #115, #161 ) ) ;
#200 = DIRECTION ( 'NONE',  ( 1.224646799147353207E-16, 0.0000000000000000000, 1.000000000000000000 ) ) ;
#201 = DIRECTION ( 'NONE',  ( -1.000000000000000000, 1.224646799147352961E-16, 0.0000000000000000000 ) ) ;
#202 = VERTEX_POINT ( 'NONE', #160 ) ;
#203 = EDGE_CURVE ( 'NONE', #8, #100, #135, .T. ) ;
#204 = DIRECTION ( 'NONE',  ( 0.0000000000000000000, 0.0000000000000000000, -1.000000000000000000 ) ) ;
#205 = AXIS2_PLACEMENT_3D ( 'NONE', #285, #131, #292 ) ;
#206 = UNCERTAINTY_MEASURE_WITH_UNIT (LENGTH_MEASURE( 1.000000000000000082E-05 ), #190, 'distance_accuracy_value', 'NONE');
#207 = LINE ( 'NONE', #188, #68 ) ;
#208 = DIRECTION ( 'NONE',  ( 1.000000000000000000, 0.0000000000000000000, 0.0000000000000000000 ) ) ;
#209 = AXIS2_PLACEMENT_3D ( 'NONE', #163, #267, #169 ) ;
#210 = CARTESIAN_POINT ( 'NONE',  ( -0.05905500000000000332, 0.0000000000000000000, 1.481062999999999574 ) ) ;
#211 = APPLICATION_CONTEXT ( 'automotive_design' ) ;
#212 = DIRECTION ( 'NONE',  ( 1.000000000000000000, 0.0000000000000000000, 0.0000000000000000000 ) ) ;
#213 = VECTOR ( 'NONE', #276, 39.37007874015748143 ) ;
#214 = DIMENSIONAL_EXPONENTS ( 1.000000000000000000, 0.0000000000000000000, 0.0000000000000000000, 0.0000000000000000000, 0.0000000000000000000, 0.0000000000000000000, 0.0000000000000000000 ) ;
#215 = CARTESIAN_POINT ( 'NONE',  ( -0.05905500000000000332, 0.0000000000000000000, 1.496062999999999921 ) ) ;
#216 = VERTEX_POINT ( 'NONE', #263 ) ;
#217 = ADVANCED_FACE ( 'NONE', ( #38 ), #20, .T. ) ;
#218 =( CONVERSION_BASED_UNIT ( 'INCH', #268 ) LENGTH_UNIT ( ) NAMED_UNIT ( #317 ) );
#219 = ORIENTED_EDGE ( 'NONE', *, *, #107, .F. ) ;
#220 = CARTESIAN_POINT ( 'NONE',  ( -0.01966531499999999225, 0.0000000000000000000, 2.408306506897442331E-18 ) ) ;
#221 = ORIENTED_EDGE ( 'NONE', *, *, #314, .F. ) ;
#222 = PRESENTATION_LAYER_ASSIGNMENT (  '', '', ( #46 ) ) ;
#223 = EDGE_LOOP ( 'NONE', ( #274, #48, #325 ) ) ;
#224 = LENGTH_MEASURE_WITH_UNIT ( LENGTH_MEASURE( 0.02539999999999999897 ), #248 );
#225 = ORIENTED_EDGE ( 'NONE', *, *, #305, .F. ) ;
#226 = EDGE_LOOP ( 'NONE', ( #194, #6 ) ) ;
#227 = VECTOR ( 'NONE', #230, 39.37007874015748143 ) ;
#228 = CARTESIAN_POINT ( 'NONE',  ( -0.04405499999999973326, 0.0000000000000000000, 1.496062999999999921 ) ) ;
#229 = ADVANCED_FACE ( 'NONE', ( #18 ), #134, .T. ) ;
#230 = DIRECTION ( 'NONE',  ( 0.7071067811865482389, 8.659560562354941486E-17, -0.7071067811865469066 ) ) ;
#231 = APPLICATION_CONTEXT ( 'automotive_design' ) ;
#232 = VERTEX_POINT ( 'NONE', #70 ) ;
#233 = ORIENTED_EDGE ( 'NONE', *, *, #243, .F. ) ;
#234 = EDGE_CURVE ( 'NONE', #232, #298, #154, .T. ) ;
#235 = CARTESIAN_POINT ( 'NONE',  ( 7.232151672364695422E-18, 0.0000000000000000000, 0.05905500000000000332 ) ) ;
#236 = CARTESIAN_POINT ( 'NONE',  ( 3.458953705992975487E-17, 0.0000000000000000000, 0.2824450044209672606 ) ) ;
#237 = DIRECTION ( 'NONE',  ( 0.0000000000000000000, 0.0000000000000000000, -1.000000000000000000 ) ) ;
#238 = AXIS2_PLACEMENT_3D ( 'NONE', #308, #85, #279 ) ;
#239 = CARTESIAN_POINT ( 'NONE',  ( 0.0000000000000000000, 0.0000000000000000000, 1.481062999999999574 ) ) ;
#240 = FILL_AREA_STYLE ('',( #14 ) ) ;
#241 = DIRECTION ( 'NONE',  ( -1.224646799147353207E-16, -0.0000000000000000000, -1.000000000000000000 ) ) ;
#242 = ORIENTED_EDGE ( 'NONE', *, *, #123, .T. ) ;
#243 = EDGE_CURVE ( 'NONE', #8, #232, #121, .T. ) ;
#244 = VECTOR ( 'NONE', #153, 39.37007874015748143 ) ;
#245 = LINE ( 'NONE', #47, #73 ) ;
#246 = ORIENTED_EDGE ( 'NONE', *, *, #15, .F. ) ;
#247 = ORIENTED_EDGE ( 'NONE', *, *, #234, .F. ) ;
#248 =( LENGTH_UNIT ( ) NAMED_UNIT ( * ) SI_UNIT ( $, .METRE. ) );
#249 = MECHANICAL_DESIGN_GEOMETRIC_PRESENTATION_REPRESENTATION (  '', ( #29 ), #59 ) ;
#250 = PRODUCT_DEFINITION_FORMATION_WITH_SPECIFIED_SOURCE ( 'ANY', '', #90, .NOT_KNOWN. ) ;
#251 = DIRECTION ( 'NONE',  ( 0.0000000000000000000, 0.0000000000000000000, 1.000000000000000000 ) ) ;
#252 = ORIENTED_EDGE ( 'NONE', *, *, #294, .F. ) ;
#253 = FACE_OUTER_BOUND ( 'NONE', #94, .T. ) ;
#254 = DIRECTION ( 'NONE',  ( -1.000000000000000000, 0.0000000000000000000, 0.0000000000000000000 ) ) ;
#255 = PRODUCT_RELATED_PRODUCT_CATEGORY ( 'part', '', ( #90 ) ) ;
#256 = FACE_OUTER_BOUND ( 'NONE', #33, .T. ) ;
#257 = CYLINDRICAL_SURFACE ( 'NONE', #122, 0.01966531499999999225 ) ;
#258 = EDGE_CURVE ( 'NONE', #120, #100, #21, .T. ) ;
#259 = CARTESIAN_POINT ( 'NONE',  ( 2.408306506897442716E-18, 0.0000000000000000000, 0.01966531499999999918 ) ) ;
#260 = DIRECTION ( 'NONE',  ( 0.0000000000000000000, -1.000000000000000000, 0.0000000000000000000 ) ) ;
#261 = AXIS2_PLACEMENT_3D ( 'NONE', #150, #127, #201 ) ;
#262 = DIRECTION ( 'NONE',  ( -1.224646799147353207E-16, -0.0000000000000000000, -1.000000000000000000 ) ) ;
#263 = CARTESIAN_POINT ( 'NONE',  ( 3.612459760346164074E-18, 0.0000000000000000000, 0.0000000000000000000 ) ) ;
#264 = EDGE_CURVE ( 'NONE', #104, #202, #17, .T. ) ;
#265 = SURFACE_SIDE_STYLE ('',( #113 ) ) ;
#266 = AXIS2_PLACEMENT_3D ( 'NONE', #157, #109, #155 ) ;
#267 = DIRECTION ( 'NONE',  ( 1.224646799147353207E-16, 0.0000000000000000000, 1.000000000000000000 ) ) ;
#268 = LENGTH_MEASURE_WITH_UNIT ( LENGTH_MEASURE( 0.02539999999999999897 ), #147 );
#269 = DIRECTION ( 'NONE',  ( -1.000000000000000000, 0.0000000000000000000, 2.170579261049422841E-16 ) ) ;
#270 = AXIS2_PLACEMENT_3D ( 'NONE', #259, #200, #132 ) ;
#271 = CARTESIAN_POINT ( 'NONE',  ( 0.01966531499999999918, 2.408306506897442331E-18, 0.01966531499999999225 ) ) ;
#272 = ORIENTED_EDGE ( 'NONE', *, *, #290, .F. ) ;
#273 = CARTESIAN_POINT ( 'NONE',  ( 0.01966531500000000265, 0.0000000000000000000, 0.05905500000000000332 ) ) ;
#274 = ORIENTED_EDGE ( 'NONE', *, *, #123, .F. ) ;
#275 = PRODUCT_DEFINITION ( 'UNKNOWN', '', #250, #84 ) ;
#276 = DIRECTION ( 'NONE',  ( 0.1736481776669313859, 0.0000000000000000000, 0.9848077530122077983 ) ) ;
#277 = ORIENTED_EDGE ( 'NONE', *, *, #58, .T. ) ;
#278 = CIRCLE ( 'NONE', #39, 0.04405499999999973326 ) ;
#279 = DIRECTION ( 'NONE',  ( 1.000000000000000000, 0.0000000000000000000, 0.0000000000000000000 ) ) ;
#280 = DIRECTION ( 'NONE',  ( -0.0000000000000000000, -0.0000000000000000000, -1.000000000000000000 ) ) ;
#281 = FACE_OUTER_BOUND ( 'NONE', #78, .T. ) ;
#282 = CONICAL_SURFACE ( 'NONE', #141, 0.01966531499999999225, 0.1745329251994338915 ) ;
#283 = UNCERTAINTY_MEASURE_WITH_UNIT (LENGTH_MEASURE( 1.000000000000000082E-05 ), #65, 'distance_accuracy_value', 'NONE');
#284 = AXIS2_PLACEMENT_3D ( 'NONE', #152, #130, #4 ) ;
#285 = CARTESIAN_POINT ( 'NONE',  ( 0.0000000000000000000, 0.0000000000000000000, 0.0000000000000000000 ) ) ;
#286 =( NAMED_UNIT ( * ) PLANE_ANGLE_UNIT ( ) SI_UNIT ( $, .RADIAN. ) );
#287 = EDGE_LOOP ( 'NONE', ( #246, #25, #24, #60 ) ) ;
#288 = CARTESIAN_POINT ( 'NONE',  ( 2.408306506897442716E-18, 0.0000000000000000000, 0.01966531499999999918 ) ) ;
#289 = VECTOR ( 'NONE', #241, 39.37007874015748143 ) ;
#290 = EDGE_CURVE ( 'NONE', #104, #120, #245, .T. ) ;
#291 = PLANE ( 'NONE',  #189 ) ;
#292 = DIRECTION ( 'NONE',  ( -1.000000000000000000, 0.0000000000000000000, 1.224646799147353207E-16 ) ) ;
#293 = CIRCLE ( 'NONE', #261, 0.01966531499999999918 ) ;
#294 = EDGE_CURVE ( 'NONE', #42, #100, #322, .T. ) ;
#295 = FILL_AREA_STYLE ('',( #23 ) ) ;
#296 = DIRECTION ( 'NONE',  ( -1.224646799147353207E-16, -0.0000000000000000000, -1.000000000000000000 ) ) ;
#297 = ORIENTED_EDGE ( 'NONE', *, *, #203, .T. ) ;
#298 = VERTEX_POINT ( 'NONE', #271 ) ;
#299 = PRESENTATION_STYLE_ASSIGNMENT (( #301 ) ) ;
#300 = ORIENTED_EDGE ( 'NONE', *, *, #184, .T. ) ;
#301 = SURFACE_STYLE_USAGE ( .BOTH. , #140 ) ;
#302 = ORIENTED_EDGE ( 'NONE', *, *, #133, .T. ) ;
#303 = EDGE_LOOP ( 'NONE', ( #5, #27, #277, #233 ) ) ;
#304 = AXIS2_PLACEMENT_3D ( 'NONE', #178, #204, #307 ) ;
#305 = EDGE_CURVE ( 'NONE', #120, #174, #81, .T. ) ;
#306 = FACE_OUTER_BOUND ( 'NONE', #287, .T. ) ;
#307 = DIRECTION ( 'NONE',  ( -1.000000000000000000, 0.0000000000000000000, 0.0000000000000000000 ) ) ;
#308 = CARTESIAN_POINT ( 'NONE',  ( 2.408306506897442716E-18, 0.0000000000000000000, 0.01966531499999999918 ) ) ;
#309 = CONICAL_SURFACE ( 'NONE', #304, 0.04405499999999973326, 0.7853981633974491672 ) ;
#310 = DIRECTION ( 'NONE',  ( 1.000000000000000000, 0.0000000000000000000, 0.0000000000000000000 ) ) ;
#311 = EDGE_CURVE ( 'NONE', #202, #104, #278, .T. ) ;
#312 = SPHERICAL_SURFACE ( 'NONE', #238, 0.01966531499999999918 ) ;
#313 = PRESENTATION_STYLE_ASSIGNMENT (( #37 ) ) ;
#314 = EDGE_CURVE ( 'NONE', #143, #42, #144, .T. ) ;
#315 = CARTESIAN_POINT ( 'NONE',  ( 0.01966531500000000265, 0.0000000000000000000, 0.05905500000000000332 ) ) ;
#316 = AXIS2_PLACEMENT_3D ( 'NONE', #236, #262, #64 ) ;
#317 = DIMENSIONAL_EXPONENTS ( 1.000000000000000000, 0.0000000000000000000, 0.0000000000000000000, 0.0000000000000000000, 0.0000000000000000000, 0.0000000000000000000, 0.0000000000000000000 ) ;
#318 =( LENGTH_UNIT ( ) NAMED_UNIT ( * ) SI_UNIT ( $, .METRE. ) );
#319 = DIMENSIONAL_EXPONENTS ( 1.000000000000000000, 0.0000000000000000000, 0.0000000000000000000, 0.0000000000000000000, 0.0000000000000000000, 0.0000000000000000000, 0.0000000000000000000 ) ;
#320 = PRODUCT_DEFINITION_SHAPE ( 'NONE', 'NONE',  #275 ) ;
#321 = FACE_OUTER_BOUND ( 'NONE', #226, .T. ) ;
#322 = CIRCLE ( 'NONE', #176, 0.05905500000000000332 ) ;
#323 = DIRECTION ( 'NONE',  ( 0.0000000000000000000, 0.0000000000000000000, 1.000000000000000000 ) ) ;
#324 = ORIENTED_EDGE ( 'NONE', *, *, #103, .F. ) ;
#325 = ORIENTED_EDGE ( 'NONE', *, *, #58, .F. ) ;
ENDSEC;
END-ISO-10303-21;
