ISO-10303-21;
HEADER;
FILE_DESCRIPTION (( 'STEP AP214' ),
    '1' );
FILE_NAME ('83301.STEP',
    '2023-06-30T23:03:23',
    ( '' ),
    ( '' ),
    'SwSTEP 2.0',
    'SolidWorks 2023',
    '' );
FILE_SCHEMA (( 'AUTOMOTIVE_DESIGN' ));
ENDSEC;

DATA;
#1 = APPLICATION_PROTOCOL_DEFINITION ( 'draft international standard', 'automotive_design', 1998, #150 ) ;
#2 = ORIENTED_EDGE ( 'NONE', *, *, #158, .F. ) ;
#3 = ADVANCED_FACE ( 'NONE', ( #346 ), #85, .T. ) ;
#4 = ADVANCED_BREP_SHAPE_REPRESENTATION ( '83301', ( #216, #97, #17 ), #220 ) ;
#5 = AXIS2_PLACEMENT_3D ( 'NONE', #263, #33, #329 ) ;
#6 = STYLED_ITEM ( 'NONE', ( #209 ), #274 ) ;
#7 = CLOSED_SHELL ( 'NONE', ( #274, #181, #325, #62, #254 ) ) ;
#8 = CARTESIAN_POINT ( 'NONE',  ( 0.3749999999999998335, 4.000000000000000000, 0.000000000000000000 ) ) ;
#9 =( GEOMETRIC_REPRESENTATION_CONTEXT ( 3 ) GLOBAL_UNCERTAINTY_ASSIGNED_CONTEXT ( ( #74 ) ) GLOBAL_UNIT_ASSIGNED_CONTEXT ( ( #324, #327, #58 ) ) REPRESENTATION_CONTEXT ( 'NONE', 'WORKASPACE' ) );
#10 = PLANE ( 'NONE',  #73 ) ;
#11 = PRESENTATION_LAYER_ASSIGNMENT (  '', '', ( #72 ) ) ;
#12 = MECHANICAL_DESIGN_GEOMETRIC_PRESENTATION_REPRESENTATION (  '', ( #133 ), #335 ) ;
#13 = CARTESIAN_POINT ( 'NONE',  ( -0.3750000000000001110, 4.000000000000000000, 0.000000000000000000 ) ) ;
#14 = CYLINDRICAL_SURFACE ( 'NONE', #160, 0.3749999999999998890 ) ;
#15 = DIMENSIONAL_EXPONENTS ( 1.000000000000000000, 0.000000000000000000, 0.000000000000000000, 0.000000000000000000, 0.000000000000000000, 0.000000000000000000, 0.000000000000000000 ) ;
#16 = LENGTH_MEASURE_WITH_UNIT ( LENGTH_MEASURE( 0.02539999999999999897 ), #67 );
#17 = AXIS2_PLACEMENT_3D ( 'NONE', #295, #289, #351 ) ;
#18 = SURFACE_STYLE_FILL_AREA ( #280 ) ;
#19 = CARTESIAN_POINT ( 'NONE',  ( 0.000000000000000000, 0.000000000000000000, -0.3749999999999998890 ) ) ;
#20 = EDGE_CURVE ( 'NONE', #198, #328, #285, .T. ) ;
#21 = DIMENSIONAL_EXPONENTS ( 1.000000000000000000, 0.000000000000000000, 0.000000000000000000, 0.000000000000000000, 0.000000000000000000, 0.000000000000000000, 0.000000000000000000 ) ;
#22 = UNCERTAINTY_MEASURE_WITH_UNIT (LENGTH_MEASURE( 1.000000000000000082E-05 ), #23, 'distance_accuracy_value', 'NONE');
#23 =( CONVERSION_BASED_UNIT ( 'INCH', #369 ) LENGTH_UNIT ( ) NAMED_UNIT ( #68 ) );
#24 = DIRECTION ( 'NONE',  ( 0.000000000000000000, 1.000000000000000000, 0.000000000000000000 ) ) ;
#25 = ORIENTED_EDGE ( 'NONE', *, *, #236, .T. ) ;
#26 = DIRECTION ( 'NONE',  ( -1.224646799147353207E-16, 1.000000000000000000, -0.000000000000000000 ) ) ;
#27 = EDGE_LOOP ( 'NONE', ( #296, #57 ) ) ;
#28 = DIRECTION ( 'NONE',  ( 1.000000000000000000, 0.000000000000000000, -1.224646799147353207E-16 ) ) ;
#29 = DIRECTION ( 'NONE',  ( -0.000000000000000000, -1.000000000000000000, -0.000000000000000000 ) ) ;
#30 = ORIENTED_EDGE ( 'NONE', *, *, #310, .T. ) ;
#31 = SURFACE_STYLE_FILL_AREA ( #123 ) ;
#32 = CARTESIAN_POINT ( 'NONE',  ( -1.224646799147352714E-16, 4.000000000000000000, 0.000000000000000000 ) ) ;
#33 = DIRECTION ( 'NONE',  ( 0.000000000000000000, 0.000000000000000000, -1.000000000000000000 ) ) ;
#34 = EDGE_CURVE ( 'NONE', #300, #64, #234, .T. ) ;
#35 = PRESENTATION_STYLE_ASSIGNMENT (( #301 ) ) ;
#36 =( NAMED_UNIT ( * ) PLANE_ANGLE_UNIT ( ) SI_UNIT ( $, .RADIAN. ) );
#37 = AXIS2_PLACEMENT_3D ( 'NONE', #8, #124, #360 ) ;
#38 = AXIS2_PLACEMENT_3D ( 'NONE', #32, #259, #148 ) ;
#39 = ADVANCED_FACE ( 'NONE', ( #81 ), #194, .F. ) ;
#40 = DIRECTION ( 'NONE',  ( -1.224646799147353207E-16, 1.000000000000000000, -0.000000000000000000 ) ) ;
#41 = PRESENTATION_STYLE_ASSIGNMENT (( #108 ) ) ;
#42 = CIRCLE ( 'NONE', #370, 0.3749999999999999445 ) ;
#43 = EDGE_CURVE ( 'NONE', #328, #141, #211, .T. ) ;
#44 = SURFACE_STYLE_FILL_AREA ( #192 ) ;
#45 = DIMENSIONAL_EXPONENTS ( 1.000000000000000000, 0.000000000000000000, 0.000000000000000000, 0.000000000000000000, 0.000000000000000000, 0.000000000000000000, 0.000000000000000000 ) ;
#46 = STYLED_ITEM ( 'NONE', ( #35 ), #97 ) ;
#47 = MECHANICAL_DESIGN_GEOMETRIC_PRESENTATION_REPRESENTATION (  '', ( #6 ), #9 ) ;
#48 =( NAMED_UNIT ( * ) SI_UNIT ( $, .STERADIAN. ) SOLID_ANGLE_UNIT ( ) );
#49 = SPHERICAL_SURFACE ( 'NONE', #186, 0.3750000000000001110 ) ;
#50 = ORIENTED_EDGE ( 'NONE', *, *, #165, .F. ) ;
#51 = DIRECTION ( 'NONE',  ( 0.000000000000000000, -0.000000000000000000, 1.000000000000000000 ) ) ;
#52 = AXIS2_PLACEMENT_3D ( 'NONE', #265, #24, #51 ) ;
#53 = EDGE_LOOP ( 'NONE', ( #2, #171, #95, #143 ) ) ;
#54 = CARTESIAN_POINT ( 'NONE',  ( -4.592425496802576068E-17, 0.3750000000000001110, 0.000000000000000000 ) ) ;
#55 = CARTESIAN_POINT ( 'NONE',  ( -2.296212748401288034E-17, 0.000000000000000000, 0.000000000000000000 ) ) ;
#56 = VERTEX_POINT ( 'NONE', #277 ) ;
#57 = ORIENTED_EDGE ( 'NONE', *, *, #129, .F. ) ;
#58 =( NAMED_UNIT ( * ) SI_UNIT ( $, .STERADIAN. ) SOLID_ANGLE_UNIT ( ) );
#59 = VECTOR ( 'NONE', #40, 39.37007874015748143 ) ;
#60 = FILL_AREA_STYLE_COLOUR ( '', #119 ) ;
#61 = DIRECTION ( 'NONE',  ( -0.000000000000000000, -1.000000000000000000, -0.000000000000000000 ) ) ;
#62 = ADVANCED_FACE ( 'NONE', ( #337 ), #14, .T. ) ;
#63 = CIRCLE ( 'NONE', #5, 0.3750000000000001110 ) ;
#64 = VERTEX_POINT ( 'NONE', #321 ) ;
#65 = FACE_OUTER_BOUND ( 'NONE', #352, .T. ) ;
#66 = FILL_AREA_STYLE ('',( #104 ) ) ;
#67 =( LENGTH_UNIT ( ) NAMED_UNIT ( * ) SI_UNIT ( $, .METRE. ) );
#68 = DIMENSIONAL_EXPONENTS ( 1.000000000000000000, 0.000000000000000000, 0.000000000000000000, 0.000000000000000000, 0.000000000000000000, 0.000000000000000000, 0.000000000000000000 ) ;
#69 = CYLINDRICAL_SURFACE ( 'NONE', #275, 0.3749999999999998890 ) ;
#70 = FILL_AREA_STYLE_COLOUR ( '', #131 ) ;
#71 = AXIS2_PLACEMENT_3D ( 'NONE', #178, #154, #103 ) ;
#72 = STYLED_ITEM ( 'NONE', ( #190 ), #216 ) ;
#73 = AXIS2_PLACEMENT_3D ( 'NONE', #126, #357, #174 ) ;
#74 = UNCERTAINTY_MEASURE_WITH_UNIT (LENGTH_MEASURE( 1.000000000000000082E-05 ), #324, 'distance_accuracy_value', 'NONE');
#75 = PRODUCT_DEFINITION_FORMATION_WITH_SPECIFIED_SOURCE ( 'ANY', '', #314, .NOT_KNOWN. ) ;
#76 = PLANE ( 'NONE',  #52 ) ;
#77 = FILL_AREA_STYLE_COLOUR ( '', #204 ) ;
#78 = DIMENSIONAL_EXPONENTS ( 1.000000000000000000, 0.000000000000000000, 0.000000000000000000, 0.000000000000000000, 0.000000000000000000, 0.000000000000000000, 0.000000000000000000 ) ;
#79 = SURFACE_SIDE_STYLE ('',( #18 ) ) ;
#80 =( GEOMETRIC_REPRESENTATION_CONTEXT ( 3 ) GLOBAL_UNCERTAINTY_ASSIGNED_CONTEXT ( ( #142 ) ) GLOBAL_UNIT_ASSIGNED_CONTEXT ( ( #120, #99, #96 ) ) REPRESENTATION_CONTEXT ( 'NONE', 'WORKASPACE' ) );
#81 = FACE_OUTER_BOUND ( 'NONE', #167, .T. ) ;
#82 = UNCERTAINTY_MEASURE_WITH_UNIT (LENGTH_MEASURE( 1.000000000000000082E-05 ), #313, 'distance_accuracy_value', 'NONE');
#83 = CARTESIAN_POINT ( 'NONE',  ( 4.592425496802572986E-17, 1.250000000000000000, 0.3749999999999998335 ) ) ;
#84 = CARTESIAN_POINT ( 'NONE',  ( -0.3749999999999999445, 4.000000000000000000, 0.000000000000000000 ) ) ;
#85 = CYLINDRICAL_SURFACE ( 'NONE', #303, 0.3749999999999998335 ) ;
#86 = CARTESIAN_POINT ( 'NONE',  ( 0.3749999999999998335, 1.250000000000000000, 4.592425496802572986E-17 ) ) ;
#87 = PRODUCT_CONTEXT ( 'NONE', #150, 'mechanical' ) ;
#88 = EDGE_CURVE ( 'NONE', #56, #349, #63, .T. ) ;
#89 = ORIENTED_EDGE ( 'NONE', *, *, #88, .F. ) ;
#90 = AXIS2_PLACEMENT_3D ( 'NONE', #272, #125, #243 ) ;
#91 =( CONVERSION_BASED_UNIT ( 'INCH', #205 ) LENGTH_UNIT ( ) NAMED_UNIT ( #188 ) );
#92 = ORIENTED_EDGE ( 'NONE', *, *, #34, .T. ) ;
#93 = CARTESIAN_POINT ( 'NONE',  ( 2.143131898507868297E-16, 1.250000000000000000, 0.000000000000000000 ) ) ;
#94 = EDGE_LOOP ( 'NONE', ( #257, #330 ) ) ;
#95 = ORIENTED_EDGE ( 'NONE', *, *, #342, .T. ) ;
#96 =( NAMED_UNIT ( * ) SI_UNIT ( $, .STERADIAN. ) SOLID_ANGLE_UNIT ( ) );
#97 = MANIFOLD_SOLID_BREP ( 'Revolve - Tool Body (Straight Shanked)', #326 ) ;
#98 = AXIS2_PLACEMENT_3D ( 'NONE', #245, #61, #308 ) ;
#99 =( NAMED_UNIT ( * ) PLANE_ANGLE_UNIT ( ) SI_UNIT ( $, .RADIAN. ) );
#100 = PRODUCT_DEFINITION_CONTEXT ( 'detailed design', #344, 'design' ) ;
#101 = PRESENTATION_LAYER_ASSIGNMENT (  '', '', ( #46 ) ) ;
#102 = COLOUR_RGB ( '',1.000000000000000000, 0.000000000000000000, 0.000000000000000000 ) ;
#103 = DIRECTION ( 'NONE',  ( 0.000000000000000000, 0.000000000000000000, -1.000000000000000000 ) ) ;
#104 = FILL_AREA_STYLE_COLOUR ( '', #307 ) ;
#105 = AXIS2_PLACEMENT_3D ( 'NONE', #228, #241, #28 ) ;
#106 = CARTESIAN_POINT ( 'NONE',  ( 0.3749999999999998335, 4.000000000000000000, 4.592425496802572986E-17 ) ) ;
#107 = LENGTH_MEASURE_WITH_UNIT ( LENGTH_MEASURE( 0.02539999999999999897 ), #187 );
#108 = SURFACE_STYLE_USAGE ( .BOTH. , #184 ) ;
#109 = SURFACE_STYLE_USAGE ( .BOTH. , #79 ) ;
#110 = DIRECTION ( 'NONE',  ( -0.000000000000000000, -1.000000000000000000, -0.000000000000000000 ) ) ;
#111 = MECHANICAL_DESIGN_GEOMETRIC_PRESENTATION_REPRESENTATION (  '', ( #334 ), #169 ) ;
#112 =( NAMED_UNIT ( * ) PLANE_ANGLE_UNIT ( ) SI_UNIT ( $, .RADIAN. ) );
#113 = VERTEX_POINT ( 'NONE', #146 ) ;
#114 = CARTESIAN_POINT ( 'NONE',  ( 0.000000000000000000, 1.250000000000000000, -0.3749999999999998335 ) ) ;
#115 = DIRECTION ( 'NONE',  ( 0.000000000000000000, 0.000000000000000000, -1.000000000000000000 ) ) ;
#116 = CARTESIAN_POINT ( 'NONE',  ( 4.592425496802572986E-17, 0.000000000000000000, 0.3749999999999998890 ) ) ;
#117 = EDGE_LOOP ( 'NONE', ( #372, #348, #92, #50, #255 ) ) ;
#118 = VECTOR ( 'NONE', #366, 39.37007874015748143 ) ;
#119 = COLOUR_RGB ( '',0.7921568627450980005, 0.8196078431372548767, 0.9333333333333333481 ) ;
#120 =( CONVERSION_BASED_UNIT ( 'INCH', #149 ) LENGTH_UNIT ( ) NAMED_UNIT ( #341 ) );
#121 = DIRECTION ( 'NONE',  ( 0.000000000000000000, 0.000000000000000000, 1.000000000000000000 ) ) ;
#122 = SURFACE_STYLE_FILL_AREA ( #175 ) ;
#123 = FILL_AREA_STYLE ('',( #185 ) ) ;
#124 = DIRECTION ( 'NONE',  ( 1.224646799147353207E-16, -1.000000000000000000, 0.000000000000000000 ) ) ;
#125 = DIRECTION ( 'NONE',  ( -1.224646799147353207E-16, 1.000000000000000000, -0.000000000000000000 ) ) ;
#126 = CARTESIAN_POINT ( 'NONE',  ( 2.143131898507868297E-16, 1.250000000000000000, 0.000000000000000000 ) ) ;
#127 = ADVANCED_FACE ( 'NONE', ( #273 ), #10, .F. ) ;
#128 = PRESENTATION_LAYER_ASSIGNMENT (  '', '', ( #244 ) ) ;
#129 = EDGE_CURVE ( 'NONE', #198, #300, #361, .T. ) ;
#130 = SURFACE_STYLE_USAGE ( .BOTH. , #217 ) ;
#131 = COLOUR_RGB ( '',1.000000000000000000, 0.000000000000000000, 0.000000000000000000 ) ;
#132 = AXIS2_PLACEMENT_3D ( 'NONE', #231, #350, #200 ) ;
#133 = STYLED_ITEM ( 'NONE', ( #41 ), #325 ) ;
#134 = DIRECTION ( 'NONE',  ( -0.000000000000000000, -1.000000000000000000, -0.000000000000000000 ) ) ;
#135 = PRESENTATION_STYLE_ASSIGNMENT (( #283 ) ) ;
#136 = ORIENTED_EDGE ( 'NONE', *, *, #306, .T. ) ;
#137 = CARTESIAN_POINT ( 'NONE',  ( 4.592425496802573602E-17, 0.3750000000000001110, 0.3749999999999999445 ) ) ;
#138 = ORIENTED_EDGE ( 'NONE', *, *, #236, .F. ) ;
#139 = FACE_OUTER_BOUND ( 'NONE', #237, .T. ) ;
#140 = EDGE_CURVE ( 'NONE', #292, #113, #173, .T. ) ;
#141 = VERTEX_POINT ( 'NONE', #242 ) ;
#142 = UNCERTAINTY_MEASURE_WITH_UNIT (LENGTH_MEASURE( 1.000000000000000082E-05 ), #120, 'distance_accuracy_value', 'NONE');
#143 = ORIENTED_EDGE ( 'NONE', *, *, #356, .F. ) ;
#144 = ORIENTED_EDGE ( 'NONE', *, *, #34, .F. ) ;
#145 =( GEOMETRIC_REPRESENTATION_CONTEXT ( 3 ) GLOBAL_UNCERTAINTY_ASSIGNED_CONTEXT ( ( #235 ) ) GLOBAL_UNIT_ASSIGNED_CONTEXT ( ( #196, #36, #253 ) ) REPRESENTATION_CONTEXT ( 'NONE', 'WORKASPACE' ) );
#146 = CARTESIAN_POINT ( 'NONE',  ( -0.3749999999999993894, 1.250000000000000000, 0.000000000000000000 ) ) ;
#147 = ORIENTED_EDGE ( 'NONE', *, *, #342, .F. ) ;
#148 = DIRECTION ( 'NONE',  ( -1.000000000000000000, 0.000000000000000000, 0.000000000000000000 ) ) ;
#149 = LENGTH_MEASURE_WITH_UNIT ( LENGTH_MEASURE( 0.02539999999999999897 ), #331 );
#150 = APPLICATION_CONTEXT ( 'automotive_design' ) ;
#151 = EDGE_CURVE ( 'NONE', #170, #240, #354, .T. ) ;
#152 = PRESENTATION_LAYER_ASSIGNMENT (  '', '', ( #238 ) ) ;
#153 = PRESENTATION_STYLE_ASSIGNMENT (( #251 ) ) ;
#154 = DIRECTION ( 'NONE',  ( -0.000000000000000000, -1.000000000000000000, -0.000000000000000000 ) ) ;
#155 = CIRCLE ( 'NONE', #212, 0.3749999999999998335 ) ;
#156 = SURFACE_STYLE_FILL_AREA ( #311 ) ;
#157 = DIRECTION ( 'NONE',  ( -1.000000000000000000, 0.000000000000000000, 0.000000000000000000 ) ) ;
#158 = EDGE_CURVE ( 'NONE', #292, #240, #248, .T. ) ;
#159 = DIRECTION ( 'NONE',  ( -0.000000000000000000, -1.000000000000000000, -0.000000000000000000 ) ) ;
#160 = AXIS2_PLACEMENT_3D ( 'NONE', #298, #29, #345 ) ;
#161 = PRESENTATION_LAYER_ASSIGNMENT (  '', '', ( #334 ) ) ;
#162 = DIRECTION ( 'NONE',  ( -1.000000000000000000, 0.000000000000000000, 0.000000000000000000 ) ) ;
#163 = DIRECTION ( 'NONE',  ( 0.000000000000000000, 0.000000000000000000, 1.000000000000000000 ) ) ;
#164 = LENGTH_MEASURE_WITH_UNIT ( LENGTH_MEASURE( 0.02539999999999999897 ), #224 );
#165 = EDGE_CURVE ( 'NONE', #141, #64, #42, .T. ) ;
#166 = LINE ( 'NONE', #84, #318 ) ;
#167 = EDGE_LOOP ( 'NONE', ( #202, #264 ) ) ;
#168 = SURFACE_SIDE_STYLE ('',( #31 ) ) ;
#169 =( GEOMETRIC_REPRESENTATION_CONTEXT ( 3 ) GLOBAL_UNCERTAINTY_ASSIGNED_CONTEXT ( ( #82 ) ) GLOBAL_UNIT_ASSIGNED_CONTEXT ( ( #313, #189, #338 ) ) REPRESENTATION_CONTEXT ( 'NONE', 'WORKASPACE' ) );
#170 = VERTEX_POINT ( 'NONE', #13 ) ;
#171 = ORIENTED_EDGE ( 'NONE', *, *, #140, .T. ) ;
#172 = VECTOR ( 'NONE', #110, 39.37007874015748143 ) ;
#173 = CIRCLE ( 'NONE', #293, 0.3749999999999996114 ) ;
#174 = DIRECTION ( 'NONE',  ( -1.000000000000000000, -1.224646799147353207E-16, 0.000000000000000000 ) ) ;
#175 = FILL_AREA_STYLE ('',( #176 ) ) ;
#176 = FILL_AREA_STYLE_COLOUR ( '', #213 ) ;
#177 =( GEOMETRIC_REPRESENTATION_CONTEXT ( 3 ) GLOBAL_UNCERTAINTY_ASSIGNED_CONTEXT ( ( #261 ) ) GLOBAL_UNIT_ASSIGNED_CONTEXT ( ( #182, #183, #215 ) ) REPRESENTATION_CONTEXT ( 'NONE', 'WORKASPACE' ) );
#178 = CARTESIAN_POINT ( 'NONE',  ( 0.000000000000000000, 0.3750000000000001110, 0.000000000000000000 ) ) ;
#179 = UNCERTAINTY_MEASURE_WITH_UNIT (LENGTH_MEASURE( 1.000000000000000082E-05 ), #340, 'distance_accuracy_value', 'NONE');
#180 = FILL_AREA_STYLE_COLOUR ( '', #102 ) ;
#181 = ADVANCED_FACE ( 'NONE', ( #65 ), #69, .T. ) ;
#182 =( CONVERSION_BASED_UNIT ( 'INCH', #107 ) LENGTH_UNIT ( ) NAMED_UNIT ( #45 ) );
#183 =( NAMED_UNIT ( * ) PLANE_ANGLE_UNIT ( ) SI_UNIT ( $, .RADIAN. ) );
#184 = SURFACE_SIDE_STYLE ('',( #249 ) ) ;
#185 = FILL_AREA_STYLE_COLOUR ( '', #258 ) ;
#186 = AXIS2_PLACEMENT_3D ( 'NONE', #343, #163, #286 ) ;
#187 =( LENGTH_UNIT ( ) NAMED_UNIT ( * ) SI_UNIT ( $, .METRE. ) );
#188 = DIMENSIONAL_EXPONENTS ( 1.000000000000000000, 0.000000000000000000, 0.000000000000000000, 0.000000000000000000, 0.000000000000000000, 0.000000000000000000, 0.000000000000000000 ) ;
#189 =( NAMED_UNIT ( * ) PLANE_ANGLE_UNIT ( ) SI_UNIT ( $, .RADIAN. ) );
#190 = PRESENTATION_STYLE_ASSIGNMENT (( #109 ) ) ;
#191 =( GEOMETRIC_REPRESENTATION_CONTEXT ( 3 ) GLOBAL_UNCERTAINTY_ASSIGNED_CONTEXT ( ( #22 ) ) GLOBAL_UNIT_ASSIGNED_CONTEXT ( ( #23, #232, #210 ) ) REPRESENTATION_CONTEXT ( 'NONE', 'WORKASPACE' ) );
#192 = FILL_AREA_STYLE ('',( #77 ) ) ;
#193 = CARTESIAN_POINT ( 'NONE',  ( 0.000000000000000000, 0.3750000000000001110, 0.000000000000000000 ) ) ;
#194 = PLANE ( 'NONE',  #37 ) ;
#195 = SURFACE_STYLE_USAGE ( .BOTH. , #168 ) ;
#196 =( CONVERSION_BASED_UNIT ( 'INCH', #164 ) LENGTH_UNIT ( ) NAMED_UNIT ( #78 ) );
#197 = DIRECTION ( 'NONE',  ( -1.000000000000000000, 0.000000000000000000, 0.000000000000000000 ) ) ;
#198 = VERTEX_POINT ( 'NONE', #83 ) ;
#199 = ORIENTED_EDGE ( 'NONE', *, *, #276, .T. ) ;
#200 = DIRECTION ( 'NONE',  ( 0.000000000000000000, 0.000000000000000000, -1.000000000000000000 ) ) ;
#201 = APPLICATION_PROTOCOL_DEFINITION ( 'draft international standard', 'automotive_design', 1998, #344 ) ;
#202 = ORIENTED_EDGE ( 'NONE', *, *, #151, .T. ) ;
#203 = SPHERICAL_SURFACE ( 'NONE', #218, 0.3750000000000001110 ) ;
#204 = COLOUR_RGB ( '',1.000000000000000000, 0.000000000000000000, 0.000000000000000000 ) ;
#205 = LENGTH_MEASURE_WITH_UNIT ( LENGTH_MEASURE( 0.02539999999999999897 ), #371 );
#206 = DIRECTION ( 'NONE',  ( -1.224646799147353207E-16, 1.000000000000000000, -0.000000000000000000 ) ) ;
#207 = DIRECTION ( 'NONE',  ( -1.224646799147353207E-16, 1.000000000000000000, -0.000000000000000000 ) ) ;
#208 = ORIENTED_EDGE ( 'NONE', *, *, #276, .F. ) ;
#209 = PRESENTATION_STYLE_ASSIGNMENT (( #195 ) ) ;
#210 =( NAMED_UNIT ( * ) SI_UNIT ( $, .STERADIAN. ) SOLID_ANGLE_UNIT ( ) );
#211 = CIRCLE ( 'NONE', #71, 0.3749999999999999445 ) ;
#212 = AXIS2_PLACEMENT_3D ( 'NONE', #256, #278, #316 ) ;
#213 = COLOUR_RGB ( '',0.7921568627450980005, 0.8196078431372548767, 0.9333333333333333481 ) ;
#214 = MECHANICAL_DESIGN_GEOMETRIC_PRESENTATION_REPRESENTATION (  '', ( #46 ), #80 ) ;
#215 =( NAMED_UNIT ( * ) SI_UNIT ( $, .STERADIAN. ) SOLID_ANGLE_UNIT ( ) );
#216 = MANIFOLD_SOLID_BREP ( 'Revolve - Cutting Edge', #7 ) ;
#217 = SURFACE_SIDE_STYLE ('',( #156 ) ) ;
#218 = AXIS2_PLACEMENT_3D ( 'NONE', #54, #121, #297 ) ;
#219 = SURFACE_STYLE_FILL_AREA ( #312 ) ;
#220 =( GEOMETRIC_REPRESENTATION_CONTEXT ( 3 ) GLOBAL_UNCERTAINTY_ASSIGNED_CONTEXT ( ( #368 ) ) GLOBAL_UNIT_ASSIGNED_CONTEXT ( ( #91, #112, #299 ) ) REPRESENTATION_CONTEXT ( 'NONE', 'WORKASPACE' ) );
#221 = SURFACE_SIDE_STYLE ('',( #44 ) ) ;
#222 =( NAMED_UNIT ( * ) PLANE_ANGLE_UNIT ( ) SI_UNIT ( $, .RADIAN. ) );
#223 =( LENGTH_UNIT ( ) NAMED_UNIT ( * ) SI_UNIT ( $, .METRE. ) );
#224 =( LENGTH_UNIT ( ) NAMED_UNIT ( * ) SI_UNIT ( $, .METRE. ) );
#225 = DIRECTION ( 'NONE',  ( -1.224646799147353207E-16, 1.000000000000000000, -0.000000000000000000 ) ) ;
#226 = ORIENTED_EDGE ( 'NONE', *, *, #270, .T. ) ;
#227 = CIRCLE ( 'NONE', #339, 0.3749999999999999445 ) ;
#228 = CARTESIAN_POINT ( 'NONE',  ( -4.592425496802576068E-17, 0.3750000000000001110, 0.000000000000000000 ) ) ;
#229 = SHAPE_DEFINITION_REPRESENTATION ( #290, #4 ) ;
#230 = ORIENTED_EDGE ( 'NONE', *, *, #43, .T. ) ;
#231 = CARTESIAN_POINT ( 'NONE',  ( 0.000000000000000000, 0.3750000000000001110, 0.000000000000000000 ) ) ;
#232 =( NAMED_UNIT ( * ) PLANE_ANGLE_UNIT ( ) SI_UNIT ( $, .RADIAN. ) );
#233 = CARTESIAN_POINT ( 'NONE',  ( -1.224646799147352714E-16, 4.000000000000000000, 0.000000000000000000 ) ) ;
#234 = LINE ( 'NONE', #19, #172 ) ;
#235 = UNCERTAINTY_MEASURE_WITH_UNIT (LENGTH_MEASURE( 1.000000000000000082E-05 ), #196, 'distance_accuracy_value', 'NONE');
#236 = EDGE_CURVE ( 'NONE', #64, #56, #227, .T. ) ;
#237 = EDGE_LOOP ( 'NONE', ( #30, #358, #355, #147 ) ) ;
#238 = STYLED_ITEM ( 'NONE', ( #365 ), #181 ) ;
#239 = AXIS2_PLACEMENT_3D ( 'NONE', #233, #225, #197 ) ;
#240 = VERTEX_POINT ( 'NONE', #106 ) ;
#241 = DIRECTION ( 'NONE',  ( 1.224646799147353207E-16, -0.000000000000000000, 1.000000000000000000 ) ) ;
#242 = CARTESIAN_POINT ( 'NONE',  ( -0.3750000000000001110, 0.3750000000000001110, 4.592425496802574219E-17 ) ) ;
#243 = DIRECTION ( 'NONE',  ( -1.000000000000000000, 0.000000000000000000, 0.000000000000000000 ) ) ;
#244 = STYLED_ITEM ( 'NONE', ( #153 ), #62 ) ;
#245 = CARTESIAN_POINT ( 'NONE',  ( 0.000000000000000000, 1.250000000000000000, 0.000000000000000000 ) ) ;
#246 = DIRECTION ( 'NONE',  ( 0.000000000000000000, 0.000000000000000000, -1.000000000000000000 ) ) ;
#247 = AXIS2_PLACEMENT_3D ( 'NONE', #359, #305, #157 ) ;
#248 = LINE ( 'NONE', #309, #59 ) ;
#249 = SURFACE_STYLE_FILL_AREA ( #66 ) ;
#250 = CIRCLE ( 'NONE', #90, 0.3749999999999996114 ) ;
#251 = SURFACE_STYLE_USAGE ( .BOTH. , #315 ) ;
#252 = DIRECTION ( 'NONE',  ( 0.000000000000000000, 0.000000000000000000, -1.000000000000000000 ) ) ;
#253 =( NAMED_UNIT ( * ) SI_UNIT ( $, .STERADIAN. ) SOLID_ANGLE_UNIT ( ) );
#254 = ADVANCED_FACE ( 'NONE', ( #362 ), #49, .T. ) ;
#255 = ORIENTED_EDGE ( 'NONE', *, *, #43, .F. ) ;
#256 = CARTESIAN_POINT ( 'NONE',  ( 0.000000000000000000, 1.250000000000000000, 0.000000000000000000 ) ) ;
#257 = ORIENTED_EDGE ( 'NONE', *, *, #310, .F. ) ;
#258 = COLOUR_RGB ( '',1.000000000000000000, 0.000000000000000000, 0.000000000000000000 ) ;
#259 = DIRECTION ( 'NONE',  ( -1.224646799147353207E-16, 1.000000000000000000, -0.000000000000000000 ) ) ;
#260 = CIRCLE ( 'NONE', #239, 0.3749999999999999445 ) ;
#261 = UNCERTAINTY_MEASURE_WITH_UNIT (LENGTH_MEASURE( 1.000000000000000082E-05 ), #182, 'distance_accuracy_value', 'NONE');
#262 = DIMENSIONAL_EXPONENTS ( 1.000000000000000000, 0.000000000000000000, 0.000000000000000000, 0.000000000000000000, 0.000000000000000000, 0.000000000000000000, 0.000000000000000000 ) ;
#263 = CARTESIAN_POINT ( 'NONE',  ( -4.592425496802576068E-17, 0.3750000000000001110, 0.000000000000000000 ) ) ;
#264 = ORIENTED_EDGE ( 'NONE', *, *, #356, .T. ) ;
#265 = CARTESIAN_POINT ( 'NONE',  ( 0.000000000000000000, 1.250000000000000000, 0.000000000000000000 ) ) ;
#266 = ORIENTED_EDGE ( 'NONE', *, *, #306, .F. ) ;
#267 = CARTESIAN_POINT ( 'NONE',  ( -1.224646799147352714E-16, 4.000000000000000000, 0.000000000000000000 ) ) ;
#268 = PRESENTATION_LAYER_ASSIGNMENT (  '', '', ( #6 ) ) ;
#269 = DIRECTION ( 'NONE',  ( -1.000000000000000000, 0.000000000000000000, 0.000000000000000000 ) ) ;
#270 = EDGE_CURVE ( 'NONE', #300, #198, #155, .T. ) ;
#271 = PRODUCT_DEFINITION ( 'UNKNOWN', '', #75, #100 ) ;
#272 = CARTESIAN_POINT ( 'NONE',  ( 2.143131898507868297E-16, 1.250000000000000000, 0.000000000000000000 ) ) ;
#273 = FACE_OUTER_BOUND ( 'NONE', #94, .T. ) ;
#274 = ADVANCED_FACE ( 'NONE', ( #367 ), #203, .T. ) ;
#275 = AXIS2_PLACEMENT_3D ( 'NONE', #332, #134, #115 ) ;
#276 = EDGE_CURVE ( 'NONE', #141, #349, #317, .T. ) ;
#277 = CARTESIAN_POINT ( 'NONE',  ( 0.3749999999999999445, 0.3750000000000001110, 0.000000000000000000 ) ) ;
#278 = DIRECTION ( 'NONE',  ( -0.000000000000000000, -1.000000000000000000, -0.000000000000000000 ) ) ;
#279 = DIRECTION ( 'NONE',  ( -0.000000000000000000, -1.000000000000000000, -0.000000000000000000 ) ) ;
#280 = FILL_AREA_STYLE ('',( #60 ) ) ;
#281 = MECHANICAL_DESIGN_GEOMETRIC_PRESENTATION_REPRESENTATION (  '', ( #238 ), #191 ) ;
#282 = PRESENTATION_LAYER_ASSIGNMENT (  '', '', ( #133 ) ) ;
#283 = SURFACE_STYLE_USAGE ( .BOTH. , #221 ) ;
#284 = LENGTH_MEASURE_WITH_UNIT ( LENGTH_MEASURE( 0.02539999999999999897 ), #223 );
#285 = LINE ( 'NONE', #116, #118 ) ;
#286 = DIRECTION ( 'NONE',  ( 1.000000000000000000, 0.000000000000000000, 0.000000000000000000 ) ) ;
#287 = EDGE_LOOP ( 'NONE', ( #208, #373, #25, #319 ) ) ;
#288 = MECHANICAL_DESIGN_GEOMETRIC_PRESENTATION_REPRESENTATION (  '', ( #244 ), #177 ) ;
#289 = DIRECTION ( 'NONE',  ( 0.000000000000000000, 0.000000000000000000, 1.000000000000000000 ) ) ;
#290 = PRODUCT_DEFINITION_SHAPE ( 'NONE', 'NONE',  #271 ) ;
#291 = MECHANICAL_DESIGN_GEOMETRIC_PRESENTATION_REPRESENTATION (  '', ( #72 ), #145 ) ;
#292 = VERTEX_POINT ( 'NONE', #86 ) ;
#293 = AXIS2_PLACEMENT_3D ( 'NONE', #93, #206, #269 ) ;
#294 = ADVANCED_FACE ( 'NONE', ( #139 ), #302, .T. ) ;
#295 = CARTESIAN_POINT ( 'NONE',  ( 0.000000000000000000, 0.000000000000000000, 0.000000000000000000 ) ) ;
#296 = ORIENTED_EDGE ( 'NONE', *, *, #270, .F. ) ;
#297 = DIRECTION ( 'NONE',  ( 1.000000000000000000, 0.000000000000000000, 0.000000000000000000 ) ) ;
#298 = CARTESIAN_POINT ( 'NONE',  ( 0.000000000000000000, 0.000000000000000000, 0.000000000000000000 ) ) ;
#299 =( NAMED_UNIT ( * ) SI_UNIT ( $, .STERADIAN. ) SOLID_ANGLE_UNIT ( ) );
#300 = VERTEX_POINT ( 'NONE', #114 ) ;
#301 = SURFACE_STYLE_USAGE ( .BOTH. , #333 ) ;
#302 = CYLINDRICAL_SURFACE ( 'NONE', #38, 0.3749999999999998335 ) ;
#303 = AXIS2_PLACEMENT_3D ( 'NONE', #267, #207, #162 ) ;
#304 =( LENGTH_UNIT ( ) NAMED_UNIT ( * ) SI_UNIT ( $, .METRE. ) );
#305 = DIRECTION ( 'NONE',  ( -1.224646799147353207E-16, 1.000000000000000000, -0.000000000000000000 ) ) ;
#306 = EDGE_CURVE ( 'NONE', #56, #328, #363, .T. ) ;
#307 = COLOUR_RGB ( '',1.000000000000000000, 0.000000000000000000, 0.000000000000000000 ) ;
#308 = DIRECTION ( 'NONE',  ( 0.000000000000000000, 0.000000000000000000, -1.000000000000000000 ) ) ;
#309 = CARTESIAN_POINT ( 'NONE',  ( 0.3749999999999996669, 4.000000000000000000, 4.592425496802572370E-17 ) ) ;
#310 = EDGE_CURVE ( 'NONE', #113, #292, #250, .T. ) ;
#311 = FILL_AREA_STYLE ('',( #180 ) ) ;
#312 = FILL_AREA_STYLE ('',( #70 ) ) ;
#313 =( CONVERSION_BASED_UNIT ( 'INCH', #16 ) LENGTH_UNIT ( ) NAMED_UNIT ( #262 ) );
#314 = PRODUCT ( '83301', '83301', '', ( #87 ) ) ;
#315 = SURFACE_SIDE_STYLE ('',( #219 ) ) ;
#316 = DIRECTION ( 'NONE',  ( 0.000000000000000000, 0.000000000000000000, -1.000000000000000000 ) ) ;
#317 = CIRCLE ( 'NONE', #105, 0.3750000000000001110 ) ;
#318 = VECTOR ( 'NONE', #26, 39.37007874015748143 ) ;
#319 = ORIENTED_EDGE ( 'NONE', *, *, #88, .T. ) ;
#320 =( LENGTH_UNIT ( ) NAMED_UNIT ( * ) SI_UNIT ( $, .METRE. ) );
#321 = CARTESIAN_POINT ( 'NONE',  ( 0.000000000000000000, 0.3750000000000001110, -0.3749999999999999445 ) ) ;
#322 = ORIENTED_EDGE ( 'NONE', *, *, #20, .T. ) ;
#323 = EDGE_LOOP ( 'NONE', ( #230, #199, #89, #136 ) ) ;
#324 =( CONVERSION_BASED_UNIT ( 'INCH', #353 ) LENGTH_UNIT ( ) NAMED_UNIT ( #21 ) );
#325 = ADVANCED_FACE ( 'NONE', ( #364 ), #76, .T. ) ;
#326 = CLOSED_SHELL ( 'NONE', ( #294, #127, #3, #39 ) ) ;
#327 =( NAMED_UNIT ( * ) PLANE_ANGLE_UNIT ( ) SI_UNIT ( $, .RADIAN. ) );
#328 = VERTEX_POINT ( 'NONE', #137 ) ;
#329 = DIRECTION ( 'NONE',  ( -1.000000000000000000, 0.000000000000000000, 0.000000000000000000 ) ) ;
#330 = ORIENTED_EDGE ( 'NONE', *, *, #140, .F. ) ;
#331 =( LENGTH_UNIT ( ) NAMED_UNIT ( * ) SI_UNIT ( $, .METRE. ) );
#332 = CARTESIAN_POINT ( 'NONE',  ( 0.000000000000000000, 0.000000000000000000, 0.000000000000000000 ) ) ;
#333 = SURFACE_SIDE_STYLE ('',( #122 ) ) ;
#334 = STYLED_ITEM ( 'NONE', ( #135 ), #254 ) ;
#335 =( GEOMETRIC_REPRESENTATION_CONTEXT ( 3 ) GLOBAL_UNCERTAINTY_ASSIGNED_CONTEXT ( ( #179 ) ) GLOBAL_UNIT_ASSIGNED_CONTEXT ( ( #340, #222, #48 ) ) REPRESENTATION_CONTEXT ( 'NONE', 'WORKASPACE' ) );
#336 = CARTESIAN_POINT ( 'NONE',  ( 0.000000000000000000, 0.3750000000000001110, 0.000000000000000000 ) ) ;
#337 = FACE_OUTER_BOUND ( 'NONE', #117, .T. ) ;
#338 =( NAMED_UNIT ( * ) SI_UNIT ( $, .STERADIAN. ) SOLID_ANGLE_UNIT ( ) );
#339 = AXIS2_PLACEMENT_3D ( 'NONE', #193, #279, #252 ) ;
#340 =( CONVERSION_BASED_UNIT ( 'INCH', #284 ) LENGTH_UNIT ( ) NAMED_UNIT ( #15 ) );
#341 = DIMENSIONAL_EXPONENTS ( 1.000000000000000000, 0.000000000000000000, 0.000000000000000000, 0.000000000000000000, 0.000000000000000000, 0.000000000000000000, 0.000000000000000000 ) ;
#342 = EDGE_CURVE ( 'NONE', #113, #170, #166, .T. ) ;
#343 = CARTESIAN_POINT ( 'NONE',  ( -4.592425496802576068E-17, 0.3750000000000001110, 0.000000000000000000 ) ) ;
#344 = APPLICATION_CONTEXT ( 'automotive_design' ) ;
#345 = DIRECTION ( 'NONE',  ( 0.000000000000000000, 0.000000000000000000, -1.000000000000000000 ) ) ;
#346 = FACE_OUTER_BOUND ( 'NONE', #53, .T. ) ;
#347 = PRODUCT_RELATED_PRODUCT_CATEGORY ( 'part', '', ( #314 ) ) ;
#348 = ORIENTED_EDGE ( 'NONE', *, *, #129, .T. ) ;
#349 = VERTEX_POINT ( 'NONE', #55 ) ;
#350 = DIRECTION ( 'NONE',  ( -0.000000000000000000, -1.000000000000000000, -0.000000000000000000 ) ) ;
#351 = DIRECTION ( 'NONE',  ( 1.000000000000000000, 0.000000000000000000, 0.000000000000000000 ) ) ;
#352 = EDGE_LOOP ( 'NONE', ( #226, #322, #266, #138, #144 ) ) ;
#353 = LENGTH_MEASURE_WITH_UNIT ( LENGTH_MEASURE( 0.02539999999999999897 ), #320 );
#354 = CIRCLE ( 'NONE', #247, 0.3749999999999999445 ) ;
#355 = ORIENTED_EDGE ( 'NONE', *, *, #151, .F. ) ;
#356 = EDGE_CURVE ( 'NONE', #240, #170, #260, .T. ) ;
#357 = DIRECTION ( 'NONE',  ( -1.224646799147353207E-16, 1.000000000000000000, 0.000000000000000000 ) ) ;
#358 = ORIENTED_EDGE ( 'NONE', *, *, #158, .T. ) ;
#359 = CARTESIAN_POINT ( 'NONE',  ( -1.224646799147352714E-16, 4.000000000000000000, 0.000000000000000000 ) ) ;
#360 = DIRECTION ( 'NONE',  ( 1.000000000000000000, 1.224646799147353207E-16, 0.000000000000000000 ) ) ;
#361 = CIRCLE ( 'NONE', #98, 0.3749999999999998335 ) ;
#362 = FACE_OUTER_BOUND ( 'NONE', #287, .T. ) ;
#363 = CIRCLE ( 'NONE', #132, 0.3749999999999999445 ) ;
#364 = FACE_OUTER_BOUND ( 'NONE', #27, .T. ) ;
#365 = PRESENTATION_STYLE_ASSIGNMENT (( #130 ) ) ;
#366 = DIRECTION ( 'NONE',  ( -0.000000000000000000, -1.000000000000000000, -0.000000000000000000 ) ) ;
#367 = FACE_OUTER_BOUND ( 'NONE', #323, .T. ) ;
#368 = UNCERTAINTY_MEASURE_WITH_UNIT (LENGTH_MEASURE( 1.000000000000000082E-05 ), #91, 'distance_accuracy_value', 'NONE');
#369 = LENGTH_MEASURE_WITH_UNIT ( LENGTH_MEASURE( 0.02539999999999999897 ), #304 );
#370 = AXIS2_PLACEMENT_3D ( 'NONE', #336, #159, #246 ) ;
#371 =( LENGTH_UNIT ( ) NAMED_UNIT ( * ) SI_UNIT ( $, .METRE. ) );
#372 = ORIENTED_EDGE ( 'NONE', *, *, #20, .F. ) ;
#373 = ORIENTED_EDGE ( 'NONE', *, *, #165, .T. ) ;
ENDSEC;
END-ISO-10303-21;
