ISO-10303-21;
HEADER;
FILE_DESCRIPTION (( 'STEP AP214' ),
    '1' );
FILE_NAME ('Micro_SME-040-2X.STEP',
    '2021-09-02T11:56:23',
    ( '' ),
    ( '' ),
    'SwSTEP 2.0',
    'SolidWorks 2020',
    '' );
FILE_SCHEMA (( 'AUTOMOTIVE_DESIGN' ));
ENDSEC;

DATA;
#1 = AXIS2_PLACEMENT_3D ( 'NONE', #237, #3, #122 ) ;
#2 = CARTESIAN_POINT ( 'NONE',  ( -0.04750000000000064587, 0.0000000000000000000, 1.500000000000000222 ) ) ;
#3 = DIRECTION ( 'NONE',  ( -1.224646799147353700E-16, -0.0000000000000000000, -1.000000000000000000 ) ) ;
#4 = VERTEX_POINT ( 'NONE', #262 ) ;
#5 = VECTOR ( 'NONE', #114, 39.37007874015748143 ) ;
#6 = ORIENTED_EDGE ( 'NONE', *, *, #85, .T. ) ;
#7 = ORIENTED_EDGE ( 'NONE', *, *, #96, .F. ) ;
#8 = ORIENTED_EDGE ( 'NONE', *, *, #236, .T. ) ;
#9 = AXIS2_PLACEMENT_3D ( 'NONE', #90, #208, #137 ) ;
#10 = FACE_OUTER_BOUND ( 'NONE', #147, .T. ) ;
#11 = CARTESIAN_POINT ( 'NONE',  ( 7.347880794884121462E-18, 0.0000000000000000000, 0.05999999999999999778 ) ) ;
#12 = LINE ( 'NONE', #202, #126 ) ;
#13 = CARTESIAN_POINT ( 'NONE',  ( 0.06250000000000002776, 7.654042494670959086E-18, 1.485000000000000764 ) ) ;
#14 = VECTOR ( 'NONE', #258, 39.37007874015748143 ) ;
#15 = DIRECTION ( 'NONE',  ( -1.224646799147353700E-16, -0.0000000000000000000, -1.000000000000000000 ) ) ;
#16 = ADVANCED_FACE ( 'NONE', ( #194 ), #54, .T. ) ;
#17 = LINE ( 'NONE', #273, #238 ) ;
#18 = DIRECTION ( 'NONE',  ( 0.0000000000000000000, 0.0000000000000000000, 1.000000000000000000 ) ) ;
#19 = AXIS2_PLACEMENT_3D ( 'NONE', #275, #22, #269 ) ;
#20 =( NAMED_UNIT ( * ) PLANE_ANGLE_UNIT ( ) SI_UNIT ( $, .RADIAN. ) );
#21 = CARTESIAN_POINT ( 'NONE',  ( -0.01998000000000000123, 0.0000000000000000000, 4.893688609392825306E-18 ) ) ;
#22 = DIRECTION ( 'NONE',  ( -0.0000000000000000000, -0.0000000000000000000, -1.000000000000000000 ) ) ;
#23 = AXIS2_PLACEMENT_3D ( 'NONE', #201, #292, #86 ) ;
#24 = ORIENTED_EDGE ( 'NONE', *, *, #228, .T. ) ;
#25 = EDGE_LOOP ( 'NONE', ( #121, #239, #278, #123 ) ) ;
#26 = VERTEX_POINT ( 'NONE', #145 ) ;
#27 = AXIS2_PLACEMENT_3D ( 'NONE', #226, #225, #245 ) ;
#28 = ORIENTED_EDGE ( 'NONE', *, *, #85, .F. ) ;
#29 = EDGE_CURVE ( 'NONE', #95, #78, #46, .T. ) ;
#30 = ORIENTED_EDGE ( 'NONE', *, *, #45, .F. ) ;
#31 = DIRECTION ( 'NONE',  ( -1.000000000000000000, 0.0000000000000000000, 0.0000000000000000000 ) ) ;
#32 = MANIFOLD_SOLID_BREP ( 'Cut-Revolve1', #42 ) ;
#33 = ADVANCED_FACE ( 'NONE', ( #220 ), #105, .T. ) ;
#34 =( NAMED_UNIT ( * ) PLANE_ANGLE_UNIT ( ) SI_UNIT ( $, .RADIAN. ) );
#35 =( GEOMETRIC_REPRESENTATION_CONTEXT ( 3 ) GLOBAL_UNCERTAINTY_ASSIGNED_CONTEXT ( ( #175 ) ) GLOBAL_UNIT_ASSIGNED_CONTEXT ( ( #165, #20, #44 ) ) REPRESENTATION_CONTEXT ( 'NONE', 'WORKASPACE' ) );
#36 = SURFACE_STYLE_USAGE ( .BOTH. , #244 ) ;
#37 = LINE ( 'NONE', #161, #179 ) ;
#38 = CARTESIAN_POINT ( 'NONE',  ( 0.0000000000000000000, 0.0000000000000000000, 1.500000000000000222 ) ) ;
#39 = AXIS2_PLACEMENT_3D ( 'NONE', #134, #287, #80 ) ;
#40 = DIRECTION ( 'NONE',  ( -1.000000000000000000, 0.0000000000000000000, 0.0000000000000000000 ) ) ;
#41 = DIRECTION ( 'NONE',  ( -0.1736481776669311916, 2.126576849575783316E-17, 0.9848077530122080203 ) ) ;
#42 = CLOSED_SHELL ( 'NONE', ( #16, #57, #195, #144, #33, #71, #150, #172, #116, #63 ) ) ;
#43 = DIRECTION ( 'NONE',  ( 1.000000000000000000, 0.0000000000000000000, 0.0000000000000000000 ) ) ;
#44 =( NAMED_UNIT ( * ) SI_UNIT ( $, .STERADIAN. ) SOLID_ANGLE_UNIT ( ) );
#45 = EDGE_CURVE ( 'NONE', #26, #234, #12, .T. ) ;
#46 = CIRCLE ( 'NONE', #281, 0.01998000000000000470 ) ;
#47 = CIRCLE ( 'NONE', #39, 0.01998000000000000123 ) ;
#48 = LENGTH_MEASURE_WITH_UNIT ( LENGTH_MEASURE( 0.02539999999999999897 ), #49 );
#49 =( LENGTH_UNIT ( ) NAMED_UNIT ( * ) SI_UNIT ( $, .METRE. ) );
#50 = ORIENTED_EDGE ( 'NONE', *, *, #29, .T. ) ;
#51 = AXIS2_PLACEMENT_3D ( 'NONE', #247, #221, #296 ) ;
#52 = EDGE_LOOP ( 'NONE', ( #6, #120, #149, #94 ) ) ;
#53 = LINE ( 'NONE', #255, #5 ) ;
#54 = CYLINDRICAL_SURFACE ( 'NONE', #1, 0.01998000000000000123 ) ;
#55 = EDGE_LOOP ( 'NONE', ( #8, #146 ) ) ;
#56 = ORIENTED_EDGE ( 'NONE', *, *, #279, .F. ) ;
#57 = ADVANCED_FACE ( 'NONE', ( #128 ), #136, .T. ) ;
#58 = DIRECTION ( 'NONE',  ( 0.0000000000000000000, 0.0000000000000000000, -1.000000000000000000 ) ) ;
#59 = APPLICATION_CONTEXT ( 'automotive_design' ) ;
#60 = CIRCLE ( 'NONE', #203, 0.01998000000000000470 ) ;
#61 = DIRECTION ( 'NONE',  ( -1.224646799147353700E-16, -0.0000000000000000000, -1.000000000000000000 ) ) ;
#62 = CARTESIAN_POINT ( 'NONE',  ( 0.06250000000000005551, 7.654042494670963708E-18, 0.3011429029701437887 ) ) ;
#63 = ADVANCED_FACE ( 'NONE', ( #10 ), #104, .F. ) ;
#64 = DIRECTION ( 'NONE',  ( -1.224646799147353700E-16, -0.0000000000000000000, -1.000000000000000000 ) ) ;
#65 = AXIS2_PLACEMENT_3D ( 'NONE', #271, #15, #109 ) ;
#66 = CARTESIAN_POINT ( 'NONE',  ( -0.06249999999999999306, 0.0000000000000000000, 0.3011429029701437887 ) ) ;
#67 = FILL_AREA_STYLE ('',( #253 ) ) ;
#68 = DIRECTION ( 'NONE',  ( -1.000000000000000000, 0.0000000000000000000, 0.0000000000000000000 ) ) ;
#69 = DIRECTION ( 'NONE',  ( 0.0000000000000000000, 0.0000000000000000000, 1.000000000000000000 ) ) ;
#70 = LENGTH_MEASURE_WITH_UNIT ( LENGTH_MEASURE( 0.02539999999999999897 ), #252 );
#71 = ADVANCED_FACE ( 'NONE', ( #135 ), #151, .T. ) ;
#72 = ORIENTED_EDGE ( 'NONE', *, *, #276, .T. ) ;
#73 = ORIENTED_EDGE ( 'NONE', *, *, #96, .T. ) ;
#74 = CONICAL_SURFACE ( 'NONE', #51, 0.01998000000000000470, 0.1745329251994338915 ) ;
#75 = EDGE_LOOP ( 'NONE', ( #277, #196, #263, #7 ) ) ;
#76 = VERTEX_POINT ( 'NONE', #265 ) ;
#77 = PRODUCT_DEFINITION_CONTEXT ( 'detailed design', #59, 'design' ) ;
#78 = VERTEX_POINT ( 'NONE', #131 ) ;
#79 = MECHANICAL_DESIGN_GEOMETRIC_PRESENTATION_REPRESENTATION (  '', ( #111 ), #164 ) ;
#80 = DIRECTION ( 'NONE',  ( -1.000000000000000000, 0.0000000000000000000, 1.224646799147353700E-16 ) ) ;
#81 = DIRECTION ( 'NONE',  ( -0.0000000000000000000, -0.0000000000000000000, -1.000000000000000000 ) ) ;
#82 = PRESENTATION_STYLE_ASSIGNMENT (( #36 ) ) ;
#83 = AXIS2_PLACEMENT_3D ( 'NONE', #11, #163, #43 ) ;
#84 = LINE ( 'NONE', #184, #241 ) ;
#85 = EDGE_CURVE ( 'NONE', #76, #234, #118, .T. ) ;
#86 = DIRECTION ( 'NONE',  ( -1.000000000000000000, 0.0000000000000000000, 0.0000000000000000000 ) ) ;
#87 = SHAPE_DEFINITION_REPRESENTATION ( #243, #280 ) ;
#88 = DIRECTION ( 'NONE',  ( -1.000000000000000000, 0.0000000000000000000, 0.0000000000000000000 ) ) ;
#89 = PRESENTATION_LAYER_ASSIGNMENT (  '', '', ( #111 ) ) ;
#90 = CARTESIAN_POINT ( 'NONE',  ( 3.687936922083287373E-17, 0.0000000000000000000, 0.3011429029701437887 ) ) ;
#91 = PRESENTATION_STYLE_ASSIGNMENT (( #299 ) ) ;
#92 = FILL_AREA_STYLE ('',( #207 ) ) ;
#93 = EDGE_CURVE ( 'NONE', #210, #173, #174, .T. ) ;
#94 = ORIENTED_EDGE ( 'NONE', *, *, #228, .F. ) ;
#95 = VERTEX_POINT ( 'NONE', #290 ) ;
#96 = EDGE_CURVE ( 'NONE', #261, #284, #47, .T. ) ;
#97 = CONICAL_SURFACE ( 'NONE', #198, 0.04750000000000064587, 0.7853981633974466137 ) ;
#98 = DIRECTION ( 'NONE',  ( -1.224646799147353700E-16, -0.0000000000000000000, -1.000000000000000000 ) ) ;
#99 = ORIENTED_EDGE ( 'NONE', *, *, #209, .F. ) ;
#100 = UNCERTAINTY_MEASURE_WITH_UNIT (LENGTH_MEASURE( 1.000000000000000082E-05 ), #216, 'distance_accuracy_value', 'NONE');
#101 = DIRECTION ( 'NONE',  ( 1.000000000000000000, 0.0000000000000000000, -0.0000000000000000000 ) ) ;
#102 = AXIS2_PLACEMENT_3D ( 'NONE', #176, #110, #204 ) ;
#103 = PRODUCT_RELATED_PRODUCT_CATEGORY ( 'part', '', ( #182 ) ) ;
#104 = PLANE ( 'NONE',  #295 ) ;
#105 = CYLINDRICAL_SURFACE ( 'NONE', #248, 0.06250000000000002776 ) ;
#106 = DIRECTION ( 'NONE',  ( 0.0000000000000000000, 0.0000000000000000000, 1.000000000000000000 ) ) ;
#107 = CONICAL_SURFACE ( 'NONE', #23, 0.04750000000000064587, 0.7853981633974466137 ) ;
#108 = DIMENSIONAL_EXPONENTS ( 1.000000000000000000, 0.0000000000000000000, 0.0000000000000000000, 0.0000000000000000000, 0.0000000000000000000, 0.0000000000000000000, 0.0000000000000000000 ) ;
#109 = DIRECTION ( 'NONE',  ( -1.000000000000000000, 0.0000000000000000000, 1.224646799147353700E-16 ) ) ;
#110 = DIRECTION ( 'NONE',  ( -1.224646799147353700E-16, -0.0000000000000000000, -1.000000000000000000 ) ) ;
#111 = STYLED_ITEM ( 'NONE', ( #82 ), #32 ) ;
#112 = PRODUCT_CONTEXT ( 'NONE', #187, 'mechanical' ) ;
#113 = CARTESIAN_POINT ( 'NONE',  ( 0.01998000000000000123, 2.446844304696411883E-18, 0.0000000000000000000 ) ) ;
#114 = DIRECTION ( 'NONE',  ( 0.1736481776669313859, 0.0000000000000000000, 0.9848077530122077983 ) ) ;
#115 = APPLICATION_PROTOCOL_DEFINITION ( 'draft international standard', 'automotive_design', 1998, #187 ) ;
#116 = ADVANCED_FACE ( 'NONE', ( #154 ), #227, .T. ) ;
#117 = DIRECTION ( 'NONE',  ( 1.000000000000000000, 0.0000000000000000000, 0.0000000000000000000 ) ) ;
#118 = CIRCLE ( 'NONE', #152, 0.06250000000000002776 ) ;
#119 =( NAMED_UNIT ( * ) PLANE_ANGLE_UNIT ( ) SI_UNIT ( $, .RADIAN. ) );
#120 = ORIENTED_EDGE ( 'NONE', *, *, #222, .T. ) ;
#121 = ORIENTED_EDGE ( 'NONE', *, *, #29, .F. ) ;
#122 = DIRECTION ( 'NONE',  ( -1.000000000000000000, 0.0000000000000000000, 1.224646799147353700E-16 ) ) ;
#123 = ORIENTED_EDGE ( 'NONE', *, *, #130, .F. ) ;
#124 = ORIENTED_EDGE ( 'NONE', *, *, #257, .T. ) ;
#125 = SURFACE_STYLE_FILL_AREA ( #67 ) ;
#126 = VECTOR ( 'NONE', #251, 39.37007874015748854 ) ;
#127 = COLOUR_RGB ( '',0.7921568627450980005, 0.8196078431372548767, 0.9333333333333333481 ) ;
#128 = FACE_OUTER_BOUND ( 'NONE', #25, .T. ) ;
#129 = DIRECTION ( 'NONE',  ( -0.0000000000000000000, -0.0000000000000000000, -1.000000000000000000 ) ) ;
#130 = EDGE_CURVE ( 'NONE', #78, #173, #53, .T. ) ;
#131 = CARTESIAN_POINT ( 'NONE',  ( 0.01998000000000001511, 0.0000000000000000000, 0.05999999999999999778 ) ) ;
#132 = DIRECTION ( 'NONE',  ( 1.000000000000000000, 0.0000000000000000000, 0.0000000000000000000 ) ) ;
#133 = CIRCLE ( 'NONE', #270, 0.04750000000000064587 ) ;
#134 = CARTESIAN_POINT ( 'NONE',  ( 2.996520045758394024E-34, 0.0000000000000000000, 2.446844304696412653E-18 ) ) ;
#135 = FACE_OUTER_BOUND ( 'NONE', #55, .T. ) ;
#136 = CONICAL_SURFACE ( 'NONE', #83, 0.01998000000000000470, 0.1745329251994338915 ) ;
#137 = DIRECTION ( 'NONE',  ( 1.000000000000000000, 0.0000000000000000000, 0.0000000000000000000 ) ) ;
#138 = CYLINDRICAL_SURFACE ( 'NONE', #19, 0.06250000000000002776 ) ;
#139 = PRODUCT_DEFINITION ( 'UNKNOWN', '', #288, #77 ) ;
#140 = SURFACE_SIDE_STYLE ('',( #166 ) ) ;
#141 = EDGE_LOOP ( 'NONE', ( #56, #169, #28, #283 ) ) ;
#142 = CIRCLE ( 'NONE', #9, 0.06250000000000002776 ) ;
#143 = PRESENTATION_LAYER_ASSIGNMENT (  '', '', ( #282 ) ) ;
#144 = ADVANCED_FACE ( 'NONE', ( #233 ), #138, .T. ) ;
#145 = CARTESIAN_POINT ( 'NONE',  ( 0.04750000000000064587, 6.735557395310483192E-18, 1.500000000000000222 ) ) ;
#146 = ORIENTED_EDGE ( 'NONE', *, *, #279, .T. ) ;
#147 = EDGE_LOOP ( 'NONE', ( #159, #73 ) ) ;
#148 = CIRCLE ( 'NONE', #65, 0.01998000000000000123 ) ;
#149 = ORIENTED_EDGE ( 'NONE', *, *, #93, .F. ) ;
#150 = ADVANCED_FACE ( 'NONE', ( #155 ), #107, .T. ) ;
#151 = PLANE ( 'NONE',  #254 ) ;
#152 = AXIS2_PLACEMENT_3D ( 'NONE', #197, #58, #199 ) ;
#153 = FACE_OUTER_BOUND ( 'NONE', #141, .T. ) ;
#154 = FACE_OUTER_BOUND ( 'NONE', #75, .T. ) ;
#155 = FACE_OUTER_BOUND ( 'NONE', #193, .T. ) ;
#156 = FACE_OUTER_BOUND ( 'NONE', #213, .T. ) ;
#157 = DIRECTION ( 'NONE',  ( 1.000000000000000000, 0.0000000000000000000, 0.0000000000000000000 ) ) ;
#158 = MECHANICAL_DESIGN_GEOMETRIC_PRESENTATION_REPRESENTATION (  '', ( #282 ), #35 ) ;
#159 = ORIENTED_EDGE ( 'NONE', *, *, #209, .T. ) ;
#160 = EDGE_CURVE ( 'NONE', #78, #95, #60, .T. ) ;
#161 = CARTESIAN_POINT ( 'NONE',  ( 0.06250000000000002776, 7.654042494670959086E-18, 1.500000000000000222 ) ) ;
#162 = CARTESIAN_POINT ( 'NONE',  ( 0.0000000000000000000, 0.0000000000000000000, 1.500000000000000222 ) ) ;
#163 = DIRECTION ( 'NONE',  ( 1.224646799147353700E-16, 0.0000000000000000000, 1.000000000000000000 ) ) ;
#164 =( GEOMETRIC_REPRESENTATION_CONTEXT ( 3 ) GLOBAL_UNCERTAINTY_ASSIGNED_CONTEXT ( ( #100 ) ) GLOBAL_UNIT_ASSIGNED_CONTEXT ( ( #216, #34, #186 ) ) REPRESENTATION_CONTEXT ( 'NONE', 'WORKASPACE' ) );
#165 =( CONVERSION_BASED_UNIT ( 'INCH', #70 ) LENGTH_UNIT ( ) NAMED_UNIT ( #206 ) );
#166 = SURFACE_STYLE_FILL_AREA ( #92 ) ;
#167 = ORIENTED_EDGE ( 'NONE', *, *, #246, .F. ) ;
#168 = ORIENTED_EDGE ( 'NONE', *, *, #183, .F. ) ;
#169 = ORIENTED_EDGE ( 'NONE', *, *, #45, .T. ) ;
#170 = UNCERTAINTY_MEASURE_WITH_UNIT (LENGTH_MEASURE( 1.000000000000000082E-05 ), #189, 'distance_accuracy_value', 'NONE');
#171 = ORIENTED_EDGE ( 'NONE', *, *, #222, .F. ) ;
#172 = ADVANCED_FACE ( 'NONE', ( #156 ), #74, .T. ) ;
#173 = VERTEX_POINT ( 'NONE', #62 ) ;
#174 = CIRCLE ( 'NONE', #286, 0.06250000000000002776 ) ;
#175 = UNCERTAINTY_MEASURE_WITH_UNIT (LENGTH_MEASURE( 1.000000000000000082E-05 ), #165, 'distance_accuracy_value', 'NONE');
#176 = CARTESIAN_POINT ( 'NONE',  ( 0.0000000000000000000, 0.0000000000000000000, 0.0000000000000000000 ) ) ;
#177 = DIRECTION ( 'NONE',  ( 1.000000000000000000, 0.0000000000000000000, -0.0000000000000000000 ) ) ;
#178 = LENGTH_MEASURE_WITH_UNIT ( LENGTH_MEASURE( 0.02539999999999999897 ), #266 );
#179 = VECTOR ( 'NONE', #250, 39.37007874015748143 ) ;
#180 = DIRECTION ( 'NONE',  ( 0.0000000000000000000, 0.0000000000000000000, -1.000000000000000000 ) ) ;
#181 = CARTESIAN_POINT ( 'NONE',  ( 7.347880794884121462E-18, 0.0000000000000000000, 0.05999999999999999778 ) ) ;
#182 = PRODUCT ( 'Micro_SME-040-2X', 'Micro_SME-040-2X', '', ( #112 ) ) ;
#183 = EDGE_CURVE ( 'NONE', #95, #284, #84, .T. ) ;
#184 = CARTESIAN_POINT ( 'NONE',  ( -0.01998000000000000123, 0.0000000000000000000, 2.446844304696412653E-18 ) ) ;
#185 = CIRCLE ( 'NONE', #217, 0.04750000000000064587 ) ;
#186 =( NAMED_UNIT ( * ) SI_UNIT ( $, .STERADIAN. ) SOLID_ANGLE_UNIT ( ) );
#187 = APPLICATION_CONTEXT ( 'automotive_design' ) ;
#188 = DIMENSIONAL_EXPONENTS ( 1.000000000000000000, 0.0000000000000000000, 0.0000000000000000000, 0.0000000000000000000, 0.0000000000000000000, 0.0000000000000000000, 0.0000000000000000000 ) ;
#189 =( CONVERSION_BASED_UNIT ( 'INCH', #48 ) LENGTH_UNIT ( ) NAMED_UNIT ( #188 ) );
#190 = CIRCLE ( 'NONE', #27, 0.06250000000000002776 ) ;
#191 = ORIENTED_EDGE ( 'NONE', *, *, #268, .T. ) ;
#192 = ORIENTED_EDGE ( 'NONE', *, *, #236, .F. ) ;
#193 = EDGE_LOOP ( 'NONE', ( #30, #192, #191, #264 ) ) ;
#194 = FACE_OUTER_BOUND ( 'NONE', #214, .T. ) ;
#195 = ADVANCED_FACE ( 'NONE', ( #153 ), #97, .T. ) ;
#196 = ORIENTED_EDGE ( 'NONE', *, *, #160, .T. ) ;
#197 = CARTESIAN_POINT ( 'NONE',  ( 0.0000000000000000000, 0.0000000000000000000, 1.485000000000000764 ) ) ;
#198 = AXIS2_PLACEMENT_3D ( 'NONE', #249, #180, #40 ) ;
#199 = DIRECTION ( 'NONE',  ( 1.000000000000000000, 0.0000000000000000000, 0.0000000000000000000 ) ) ;
#200 = EDGE_CURVE ( 'NONE', #234, #76, #190, .T. ) ;
#201 = CARTESIAN_POINT ( 'NONE',  ( 0.0000000000000000000, 0.0000000000000000000, 1.500000000000000222 ) ) ;
#202 = CARTESIAN_POINT ( 'NONE',  ( 0.04750000000000064587, 5.817072295950006528E-18, 1.500000000000000222 ) ) ;
#203 = AXIS2_PLACEMENT_3D ( 'NONE', #181, #64, #88 ) ;
#204 = DIRECTION ( 'NONE',  ( -1.000000000000000000, 0.0000000000000000000, 1.224646799147353700E-16 ) ) ;
#205 = AXIS2_PLACEMENT_3D ( 'NONE', #298, #293, #157 ) ;
#206 = DIMENSIONAL_EXPONENTS ( 1.000000000000000000, 0.0000000000000000000, 0.0000000000000000000, 0.0000000000000000000, 0.0000000000000000000, 0.0000000000000000000, 0.0000000000000000000 ) ;
#207 = FILL_AREA_STYLE_COLOUR ( '', #127 ) ;
#208 = DIRECTION ( 'NONE',  ( -1.224646799147353700E-16, -0.0000000000000000000, -1.000000000000000000 ) ) ;
#209 = EDGE_CURVE ( 'NONE', #284, #261, #148, .T. ) ;
#210 = VERTEX_POINT ( 'NONE', #66 ) ;
#211 = ORIENTED_EDGE ( 'NONE', *, *, #130, .T. ) ;
#212 = VECTOR ( 'NONE', #232, 39.37007874015748854 ) ;
#213 = EDGE_LOOP ( 'NONE', ( #167, #285, #211, #72 ) ) ;
#214 = EDGE_LOOP ( 'NONE', ( #50, #124, #99, #168 ) ) ;
#215 = ORIENTED_EDGE ( 'NONE', *, *, #276, .F. ) ;
#216 =( CONVERSION_BASED_UNIT ( 'INCH', #178 ) LENGTH_UNIT ( ) NAMED_UNIT ( #108 ) );
#217 = AXIS2_PLACEMENT_3D ( 'NONE', #256, #69, #117 ) ;
#218 = DIRECTION ( 'NONE',  ( 1.000000000000000000, 0.0000000000000000000, 0.0000000000000000000 ) ) ;
#219 = CARTESIAN_POINT ( 'NONE',  ( 0.01998000000000000123, 2.446844304696411883E-18, -2.446844304696412653E-18 ) ) ;
#220 = FACE_OUTER_BOUND ( 'NONE', #259, .T. ) ;
#221 = DIRECTION ( 'NONE',  ( 1.224646799147353700E-16, 0.0000000000000000000, 1.000000000000000000 ) ) ;
#222 = EDGE_CURVE ( 'NONE', #234, #173, #37, .T. ) ;
#223 = COLOUR_RGB ( '',0.7921568627450980005, 0.8196078431372548767, 0.9333333333333333481 ) ;
#224 = CARTESIAN_POINT ( 'NONE',  ( -0.01997999999999999776, 2.446844304696412268E-18, 0.05999999999999999778 ) ) ;
#225 = DIRECTION ( 'NONE',  ( 0.0000000000000000000, 0.0000000000000000000, -1.000000000000000000 ) ) ;
#226 = CARTESIAN_POINT ( 'NONE',  ( 0.0000000000000000000, 0.0000000000000000000, 1.485000000000000764 ) ) ;
#227 = CYLINDRICAL_SURFACE ( 'NONE', #102, 0.01998000000000000123 ) ;
#228 = EDGE_CURVE ( 'NONE', #76, #210, #17, .T. ) ;
#229 = APPLICATION_PROTOCOL_DEFINITION ( 'draft international standard', 'automotive_design', 1998, #59 ) ;
#230 = VECTOR ( 'NONE', #41, 39.37007874015747433 ) ;
#231 =( NAMED_UNIT ( * ) SI_UNIT ( $, .STERADIAN. ) SOLID_ANGLE_UNIT ( ) );
#232 = DIRECTION ( 'NONE',  ( -0.7071067811865462405, 0.0000000000000000000, -0.7071067811865486830 ) ) ;
#233 = FACE_OUTER_BOUND ( 'NONE', #52, .T. ) ;
#234 = VERTEX_POINT ( 'NONE', #13 ) ;
#235 = CARTESIAN_POINT ( 'NONE',  ( 7.347880794884121462E-18, 0.0000000000000000000, 0.05999999999999999778 ) ) ;
#236 = EDGE_CURVE ( 'NONE', #4, #26, #133, .T. ) ;
#237 = CARTESIAN_POINT ( 'NONE',  ( 0.0000000000000000000, 0.0000000000000000000, 0.0000000000000000000 ) ) ;
#238 = VECTOR ( 'NONE', #129, 39.37007874015748143 ) ;
#239 = ORIENTED_EDGE ( 'NONE', *, *, #246, .T. ) ;
#240 = ORIENTED_EDGE ( 'NONE', *, *, #200, .T. ) ;
#241 = VECTOR ( 'NONE', #267, 39.37007874015748143 ) ;
#242 = LINE ( 'NONE', #219, #14 ) ;
#243 = PRODUCT_DEFINITION_SHAPE ( 'NONE', 'NONE',  #139 ) ;
#244 = SURFACE_SIDE_STYLE ('',( #125 ) ) ;
#245 = DIRECTION ( 'NONE',  ( 1.000000000000000000, 0.0000000000000000000, 0.0000000000000000000 ) ) ;
#246 = EDGE_CURVE ( 'NONE', #95, #210, #291, .T. ) ;
#247 = CARTESIAN_POINT ( 'NONE',  ( 7.347880794884121462E-18, 0.0000000000000000000, 0.05999999999999999778 ) ) ;
#248 = AXIS2_PLACEMENT_3D ( 'NONE', #162, #81, #68 ) ;
#249 = CARTESIAN_POINT ( 'NONE',  ( 0.0000000000000000000, 0.0000000000000000000, 1.500000000000000222 ) ) ;
#250 = DIRECTION ( 'NONE',  ( -0.0000000000000000000, -0.0000000000000000000, -1.000000000000000000 ) ) ;
#251 = DIRECTION ( 'NONE',  ( 0.7071067811865462405, 8.659560562354916834E-17, -0.7071067811865486830 ) ) ;
#252 =( LENGTH_UNIT ( ) NAMED_UNIT ( * ) SI_UNIT ( $, .METRE. ) );
#253 = FILL_AREA_STYLE_COLOUR ( '', #223 ) ;
#254 = AXIS2_PLACEMENT_3D ( 'NONE', #297, #18, #101 ) ;
#255 = CARTESIAN_POINT ( 'NONE',  ( 0.01998000000000001511, 0.0000000000000000000, 0.05999999999999999778 ) ) ;
#256 = CARTESIAN_POINT ( 'NONE',  ( 0.0000000000000000000, 0.0000000000000000000, 1.500000000000000222 ) ) ;
#257 = EDGE_CURVE ( 'NONE', #78, #261, #242, .T. ) ;
#258 = DIRECTION ( 'NONE',  ( -1.224646799147353700E-16, -0.0000000000000000000, -1.000000000000000000 ) ) ;
#259 = EDGE_LOOP ( 'NONE', ( #171, #240, #24, #215 ) ) ;
#260 =( GEOMETRIC_REPRESENTATION_CONTEXT ( 3 ) GLOBAL_UNCERTAINTY_ASSIGNED_CONTEXT ( ( #170 ) ) GLOBAL_UNIT_ASSIGNED_CONTEXT ( ( #189, #119, #231 ) ) REPRESENTATION_CONTEXT ( 'NONE', 'WORKASPACE' ) );
#261 = VERTEX_POINT ( 'NONE', #113 ) ;
#262 = CARTESIAN_POINT ( 'NONE',  ( -0.04750000000000064587, 0.0000000000000000000, 1.500000000000000222 ) ) ;
#263 = ORIENTED_EDGE ( 'NONE', *, *, #183, .T. ) ;
#264 = ORIENTED_EDGE ( 'NONE', *, *, #200, .F. ) ;
#265 = CARTESIAN_POINT ( 'NONE',  ( -0.06250000000000002776, 0.0000000000000000000, 1.485000000000000764 ) ) ;
#266 =( LENGTH_UNIT ( ) NAMED_UNIT ( * ) SI_UNIT ( $, .METRE. ) );
#267 = DIRECTION ( 'NONE',  ( -1.224646799147353700E-16, -0.0000000000000000000, -1.000000000000000000 ) ) ;
#268 = EDGE_CURVE ( 'NONE', #4, #76, #274, .T. ) ;
#269 = DIRECTION ( 'NONE',  ( -1.000000000000000000, 0.0000000000000000000, 0.0000000000000000000 ) ) ;
#270 = AXIS2_PLACEMENT_3D ( 'NONE', #38, #106, #132 ) ;
#271 = CARTESIAN_POINT ( 'NONE',  ( 2.996520045758394024E-34, 0.0000000000000000000, 2.446844304696412653E-18 ) ) ;
#272 = CARTESIAN_POINT ( 'NONE',  ( 3.687936922083287373E-17, 0.0000000000000000000, 0.3011429029701437887 ) ) ;
#273 = CARTESIAN_POINT ( 'NONE',  ( -0.06250000000000002776, 0.0000000000000000000, 1.500000000000000222 ) ) ;
#274 = LINE ( 'NONE', #2, #212 ) ;
#275 = CARTESIAN_POINT ( 'NONE',  ( 0.0000000000000000000, 0.0000000000000000000, 1.500000000000000222 ) ) ;
#276 = EDGE_CURVE ( 'NONE', #173, #210, #142, .T. ) ;
#277 = ORIENTED_EDGE ( 'NONE', *, *, #257, .F. ) ;
#278 = ORIENTED_EDGE ( 'NONE', *, *, #93, .T. ) ;
#279 = EDGE_CURVE ( 'NONE', #26, #4, #185, .T. ) ;
#280 = ADVANCED_BREP_SHAPE_REPRESENTATION ( 'Micro_SME-040-2X', ( #32, #205 ), #260 ) ;
#281 = AXIS2_PLACEMENT_3D ( 'NONE', #235, #98, #31 ) ;
#282 = STYLED_ITEM ( 'NONE', ( #91 ), #280 ) ;
#283 = ORIENTED_EDGE ( 'NONE', *, *, #268, .F. ) ;
#284 = VERTEX_POINT ( 'NONE', #21 ) ;
#285 = ORIENTED_EDGE ( 'NONE', *, *, #160, .F. ) ;
#286 = AXIS2_PLACEMENT_3D ( 'NONE', #272, #61, #218 ) ;
#287 = DIRECTION ( 'NONE',  ( -1.224646799147353700E-16, -0.0000000000000000000, -1.000000000000000000 ) ) ;
#288 = PRODUCT_DEFINITION_FORMATION_WITH_SPECIFIED_SOURCE ( 'ANY', '', #182, .NOT_KNOWN. ) ;
#289 = CARTESIAN_POINT ( 'NONE',  ( 0.0000000000000000000, 0.0000000000000000000, 0.0000000000000000000 ) ) ;
#290 = CARTESIAN_POINT ( 'NONE',  ( -0.01997999999999999776, 5.050443399683685677E-18, 0.05999999999999999778 ) ) ;
#291 = LINE ( 'NONE', #224, #230 ) ;
#292 = DIRECTION ( 'NONE',  ( 0.0000000000000000000, 0.0000000000000000000, -1.000000000000000000 ) ) ;
#293 = DIRECTION ( 'NONE',  ( 0.0000000000000000000, 0.0000000000000000000, 1.000000000000000000 ) ) ;
#294 = DIRECTION ( 'NONE',  ( 0.0000000000000000000, 0.0000000000000000000, 1.000000000000000000 ) ) ;
#295 = AXIS2_PLACEMENT_3D ( 'NONE', #289, #294, #177 ) ;
#296 = DIRECTION ( 'NONE',  ( 1.000000000000000000, 0.0000000000000000000, 0.0000000000000000000 ) ) ;
#297 = CARTESIAN_POINT ( 'NONE',  ( 0.0000000000000000000, 0.0000000000000000000, 1.500000000000000222 ) ) ;
#298 = CARTESIAN_POINT ( 'NONE',  ( 0.0000000000000000000, 0.0000000000000000000, 0.0000000000000000000 ) ) ;
#299 = SURFACE_STYLE_USAGE ( .BOTH. , #140 ) ;
ENDSEC;
END-ISO-10303-21;
