ISO-10303-21;
HEADER;
FILE_DESCRIPTION (( 'STEP AP214' ),
    '1' );
FILE_NAME ('30017.STEP',
    '2023-06-22T17:50:03',
    ( '' ),
    ( '' ),
    'SwSTEP 2.0',
    'SolidWorks 2023',
    '' );
FILE_SCHEMA (( 'AUTOMOTIVE_DESIGN' ));
ENDSEC;

DATA;
#1 = COLOUR_RGB ( '',0.7921568627450980005, 0.8196078431372548767, 0.9333333333333333481 ) ;
#2 = DIRECTION ( 'NONE',  ( 0.000000000000000000, -1.000000000000000000, -0.000000000000000000 ) ) ;
#3 = DIRECTION ( 'NONE',  ( 0.000000000000000000, 0.000000000000000000, -1.000000000000000000 ) ) ;
#4 = DIRECTION ( 'NONE',  ( 0.000000000000000000, 0.000000000000000000, -1.000000000000000000 ) ) ;
#5 = ORIENTED_EDGE ( 'NONE', *, *, #263, .T. ) ;
#6 = DIRECTION ( 'NONE',  ( -1.000000000000000000, 0.000000000000000000, 0.000000000000000000 ) ) ;
#7 = VERTEX_POINT ( 'NONE', #189 ) ;
#8 = COLOUR_RGB ( '',1.000000000000000000, 0.000000000000000000, 0.000000000000000000 ) ;
#9 = ORIENTED_EDGE ( 'NONE', *, *, #21, .T. ) ;
#10 = DIMENSIONAL_EXPONENTS ( 1.000000000000000000, 0.000000000000000000, 0.000000000000000000, 0.000000000000000000, 0.000000000000000000, 0.000000000000000000, 0.000000000000000000 ) ;
#11 = UNCERTAINTY_MEASURE_WITH_UNIT (LENGTH_MEASURE( 1.000000000000000082E-05 ), #246, 'distance_accuracy_value', 'NONE');
#12 =( LENGTH_UNIT ( ) NAMED_UNIT ( * ) SI_UNIT ( $, .METRE. ) );
#13 = PRODUCT_DEFINITION_CONTEXT ( 'detailed design', #284, 'design' ) ;
#14 = CIRCLE ( 'NONE', #33, 0.06250000000000001388 ) ;
#15 = EDGE_CURVE ( 'NONE', #140, #265, #82, .T. ) ;
#16 = PRODUCT_DEFINITION_SHAPE ( 'NONE', 'NONE',  #305 ) ;
#17 =( NAMED_UNIT ( * ) SI_UNIT ( $, .STERADIAN. ) SOLID_ANGLE_UNIT ( ) );
#18 = CARTESIAN_POINT ( 'NONE',  ( 0.000000000000000000, 0.000000000000000000, 0.000000000000000000 ) ) ;
#19 = SURFACE_STYLE_USAGE ( .BOTH. , #230 ) ;
#20 = MECHANICAL_DESIGN_GEOMETRIC_PRESENTATION_REPRESENTATION (  '', ( #158 ), #182 ) ;
#21 = EDGE_CURVE ( 'NONE', #56, #7, #37, .T. ) ;
#22 = CARTESIAN_POINT ( 'NONE',  ( 0.06250000000000001388, 1.499999999999999778, 7.654042494670943678E-18 ) ) ;
#23 = PLANE ( 'NONE',  #165 ) ;
#24 = PLANE ( 'NONE',  #283 ) ;
#25 = EDGE_LOOP ( 'NONE', ( #193, #34, #192, #223 ) ) ;
#26 = LENGTH_MEASURE_WITH_UNIT ( LENGTH_MEASURE( 0.02539999999999999897 ), #163 );
#27 = MANIFOLD_SOLID_BREP ( 'Revolve - Tool Body (Straight Shanked)', #296 ) ;
#28 = VERTEX_POINT ( 'NONE', #294 ) ;
#29 = UNCERTAINTY_MEASURE_WITH_UNIT (LENGTH_MEASURE( 1.000000000000000082E-05 ), #81, 'distance_accuracy_value', 'NONE');
#30 = MANIFOLD_SOLID_BREP ( 'Revolve - Cutting Edge', #103 ) ;
#31 = VERTEX_POINT ( 'NONE', #198 ) ;
#32 = DIMENSIONAL_EXPONENTS ( 1.000000000000000000, 0.000000000000000000, 0.000000000000000000, 0.000000000000000000, 0.000000000000000000, 0.000000000000000000, 0.000000000000000000 ) ;
#33 = AXIS2_PLACEMENT_3D ( 'NONE', #260, #309, #258 ) ;
#34 = ORIENTED_EDGE ( 'NONE', *, *, #118, .T. ) ;
#35 = SURFACE_SIDE_STYLE ('',( #242 ) ) ;
#36 = DIRECTION ( 'NONE',  ( -1.000000000000000000, 0.000000000000000000, 0.000000000000000000 ) ) ;
#37 = CIRCLE ( 'NONE', #291, 0.06250000000000001388 ) ;
#38 = STYLED_ITEM ( 'NONE', ( #190 ), #191 ) ;
#39 = FILL_AREA_STYLE_COLOUR ( '', #8 ) ;
#40 =( NAMED_UNIT ( * ) SI_UNIT ( $, .STERADIAN. ) SOLID_ANGLE_UNIT ( ) );
#41 = AXIS2_PLACEMENT_3D ( 'NONE', #229, #83, #203 ) ;
#42 =( CONVERSION_BASED_UNIT ( 'INCH', #131 ) LENGTH_UNIT ( ) NAMED_UNIT ( #194 ) );
#43 =( NAMED_UNIT ( * ) PLANE_ANGLE_UNIT ( ) SI_UNIT ( $, .RADIAN. ) );
#44 = SURFACE_SIDE_STYLE ('',( #102 ) ) ;
#45 = DIRECTION ( 'NONE',  ( -1.000000000000000000, 5.463695987328525451E-16, 0.000000000000000000 ) ) ;
#46 = STYLED_ITEM ( 'NONE', ( #77 ), #100 ) ;
#47 = AXIS2_PLACEMENT_3D ( 'NONE', #231, #99, #177 ) ;
#48 = DIRECTION ( 'NONE',  ( 4.408728476930472631E-16, 1.000000000000000000, -0.000000000000000000 ) ) ;
#49 = EDGE_LOOP ( 'NONE', ( #238, #137, #287, #133 ) ) ;
#50 = FACE_OUTER_BOUND ( 'NONE', #293, .T. ) ;
#51 = ORIENTED_EDGE ( 'NONE', *, *, #167, .F. ) ;
#52 = STYLED_ITEM ( 'NONE', ( #226 ), #147 ) ;
#53 =( CONVERSION_BASED_UNIT ( 'INCH', #26 ) LENGTH_UNIT ( ) NAMED_UNIT ( #169 ) );
#54 = ORIENTED_EDGE ( 'NONE', *, *, #257, .F. ) ;
#55 = DIRECTION ( 'NONE',  ( -1.000000000000000000, 5.463695987328525451E-16, 0.000000000000000000 ) ) ;
#56 = VERTEX_POINT ( 'NONE', #247 ) ;
#57 = VECTOR ( 'NONE', #101, 39.37007874015748143 ) ;
#58 = LENGTH_MEASURE_WITH_UNIT ( LENGTH_MEASURE( 0.02539999999999999897 ), #12 );
#59 = MECHANICAL_DESIGN_GEOMETRIC_PRESENTATION_REPRESENTATION (  '', ( #275 ), #232 ) ;
#60 =( LENGTH_UNIT ( ) NAMED_UNIT ( * ) SI_UNIT ( $, .METRE. ) );
#61 = PRESENTATION_LAYER_ASSIGNMENT (  '', '', ( #123 ) ) ;
#62 = LINE ( 'NONE', #308, #129 ) ;
#63 = CYLINDRICAL_SURFACE ( 'NONE', #227, 0.06249999999999974326 ) ;
#64 =( NAMED_UNIT ( * ) PLANE_ANGLE_UNIT ( ) SI_UNIT ( $, .RADIAN. ) );
#65 = MECHANICAL_DESIGN_GEOMETRIC_PRESENTATION_REPRESENTATION (  '', ( #52 ), #250 ) ;
#66 = EDGE_CURVE ( 'NONE', #28, #7, #78, .T. ) ;
#67 = ORIENTED_EDGE ( 'NONE', *, *, #257, .T. ) ;
#68 = CARTESIAN_POINT ( 'NONE',  ( 0.06250000000000001388, 1.499999999999999778, 0.000000000000000000 ) ) ;
#69 = EDGE_LOOP ( 'NONE', ( #54, #161, #116, #235 ) ) ;
#70 = VERTEX_POINT ( 'NONE', #244 ) ;
#71 = MECHANICAL_DESIGN_GEOMETRIC_PRESENTATION_REPRESENTATION (  '', ( #46 ), #152 ) ;
#72 = PLANE ( 'NONE',  #270 ) ;
#73 = DIRECTION ( 'NONE',  ( -0.000000000000000000, -1.000000000000000000, -0.000000000000000000 ) ) ;
#74 = EDGE_CURVE ( 'NONE', #265, #140, #128, .T. ) ;
#75 = UNCERTAINTY_MEASURE_WITH_UNIT (LENGTH_MEASURE( 1.000000000000000082E-05 ), #146, 'distance_accuracy_value', 'NONE');
#76 = PRODUCT_DEFINITION_FORMATION_WITH_SPECIFIED_SOURCE ( 'ANY', '', #110, .NOT_KNOWN. ) ;
#77 = PRESENTATION_STYLE_ASSIGNMENT (( #117 ) ) ;
#78 = LINE ( 'NONE', #95, #93 ) ;
#79 = FACE_OUTER_BOUND ( 'NONE', #25, .T. ) ;
#80 = DIRECTION ( 'NONE',  ( -0.000000000000000000, -1.000000000000000000, -0.000000000000000000 ) ) ;
#81 =( CONVERSION_BASED_UNIT ( 'INCH', #154 ) LENGTH_UNIT ( ) NAMED_UNIT ( #266 ) );
#82 = CIRCLE ( 'NONE', #253, 0.06249999999999945877 ) ;
#83 = DIRECTION ( 'NONE',  ( 0.000000000000000000, 0.000000000000000000, 1.000000000000000000 ) ) ;
#84 = SHAPE_DEFINITION_REPRESENTATION ( #16, #144 ) ;
#85 =( LENGTH_UNIT ( ) NAMED_UNIT ( * ) SI_UNIT ( $, .METRE. ) );
#86 = LINE ( 'NONE', #91, #241 ) ;
#87 = CARTESIAN_POINT ( 'NONE',  ( 0.000000000000000000, 0.000000000000000000, 0.000000000000000000 ) ) ;
#88 = COLOUR_RGB ( '',0.7921568627450980005, 0.8196078431372548767, 0.9333333333333333481 ) ;
#89 = FACE_OUTER_BOUND ( 'NONE', #69, .T. ) ;
#90 = SURFACE_STYLE_FILL_AREA ( #184 ) ;
#91 = CARTESIAN_POINT ( 'NONE',  ( -0.06249999999999918815, 1.499999999999999778, 0.000000000000000000 ) ) ;
#92 = SURFACE_STYLE_USAGE ( .BOTH. , #289 ) ;
#93 = VECTOR ( 'NONE', #149, 39.37007874015748143 ) ;
#94 = MECHANICAL_DESIGN_GEOMETRIC_PRESENTATION_REPRESENTATION (  '', ( #38 ), #224 ) ;
#95 = CARTESIAN_POINT ( 'NONE',  ( 0.000000000000000000, 0.000000000000000000, -0.06250000000000001388 ) ) ;
#96 = DIRECTION ( 'NONE',  ( 4.408728476930472137E-16, 1.000000000000000000, -0.000000000000000000 ) ) ;
#97 =( LENGTH_UNIT ( ) NAMED_UNIT ( * ) SI_UNIT ( $, .METRE. ) );
#98 =( NAMED_UNIT ( * ) PLANE_ANGLE_UNIT ( ) SI_UNIT ( $, .RADIAN. ) );
#99 = DIRECTION ( 'NONE',  ( -0.000000000000000000, -1.000000000000000000, -0.000000000000000000 ) ) ;
#100 = ADVANCED_FACE ( 'NONE', ( #298 ), #299, .T. ) ;
#101 = DIRECTION ( 'NONE',  ( 4.408728476930472631E-16, 1.000000000000000000, -0.000000000000000000 ) ) ;
#102 = SURFACE_STYLE_FILL_AREA ( #302 ) ;
#103 = CLOSED_SHELL ( 'NONE', ( #124, #191, #100, #147 ) ) ;
#104 = AXIS2_PLACEMENT_3D ( 'NONE', #156, #106, #45 ) ;
#105 = CARTESIAN_POINT ( 'NONE',  ( 0.06250000000000029143, 1.499999999999999778, 7.654042494670926730E-18 ) ) ;
#106 = DIRECTION ( 'NONE',  ( 4.408728476930472137E-16, 1.000000000000000000, -0.000000000000000000 ) ) ;
#107 = DIRECTION ( 'NONE',  ( 4.408728476930472137E-16, 1.000000000000000000, -0.000000000000000000 ) ) ;
#108 = ORIENTED_EDGE ( 'NONE', *, *, #207, .T. ) ;
#109 =( NAMED_UNIT ( * ) PLANE_ANGLE_UNIT ( ) SI_UNIT ( $, .RADIAN. ) );
#110 = PRODUCT ( '30017', '30017', '', ( #206 ) ) ;
#111 = CARTESIAN_POINT ( 'NONE',  ( 5.510910596163089556E-16, 1.499999999999999778, 0.000000000000000000 ) ) ;
#112 = FILL_AREA_STYLE_COLOUR ( '', #201 ) ;
#113 = DIRECTION ( 'NONE',  ( -1.000000000000000000, 0.000000000000000000, 0.000000000000000000 ) ) ;
#114 = ORIENTED_EDGE ( 'NONE', *, *, #269, .F. ) ;
#115 = CIRCLE ( 'NONE', #120, 0.06250000000000001388 ) ;
#116 = ORIENTED_EDGE ( 'NONE', *, *, #167, .T. ) ;
#117 = SURFACE_STYLE_USAGE ( .BOTH. , #35 ) ;
#118 = EDGE_CURVE ( 'NONE', #31, #56, #62, .T. ) ;
#119 = DIMENSIONAL_EXPONENTS ( 1.000000000000000000, 0.000000000000000000, 0.000000000000000000, 0.000000000000000000, 0.000000000000000000, 0.000000000000000000, 0.000000000000000000 ) ;
#120 = AXIS2_PLACEMENT_3D ( 'NONE', #290, #264, #55 ) ;
#121 = LENGTH_MEASURE_WITH_UNIT ( LENGTH_MEASURE( 0.02539999999999999897 ), #97 );
#122 =( NAMED_UNIT ( * ) SI_UNIT ( $, .STERADIAN. ) SOLID_ANGLE_UNIT ( ) );
#123 = STYLED_ITEM ( 'NONE', ( #248 ), #124 ) ;
#124 = ADVANCED_FACE ( 'NONE', ( #79 ), #178, .T. ) ;
#125 = FILL_AREA_STYLE_COLOUR ( '', #237 ) ;
#126 = DIRECTION ( 'NONE',  ( -0.000000000000000000, -1.000000000000000000, -0.000000000000000000 ) ) ;
#127 = DIRECTION ( 'NONE',  ( -0.000000000000000000, -1.000000000000000000, -0.000000000000000000 ) ) ;
#128 = CIRCLE ( 'NONE', #273, 0.06249999999999945877 ) ;
#129 = VECTOR ( 'NONE', #80, 39.37007874015748143 ) ;
#130 = CARTESIAN_POINT ( 'NONE',  ( 6.074027119780526596E-33, 0.2499999999999998057, 0.000000000000000000 ) ) ;
#131 = LENGTH_MEASURE_WITH_UNIT ( LENGTH_MEASURE( 0.02539999999999999897 ), #60 );
#132 = FACE_OUTER_BOUND ( 'NONE', #214, .T. ) ;
#133 = ORIENTED_EDGE ( 'NONE', *, *, #21, .F. ) ;
#134 = DIRECTION ( 'NONE',  ( 1.000000000000000000, -4.408728476930472631E-16, 0.000000000000000000 ) ) ;
#135 = EDGE_LOOP ( 'NONE', ( #240, #114 ) ) ;
#136 = CARTESIAN_POINT ( 'NONE',  ( 0.000000000000000000, 0.2499999999999998057, 0.000000000000000000 ) ) ;
#137 = ORIENTED_EDGE ( 'NONE', *, *, #269, .T. ) ;
#138 = APPLICATION_CONTEXT ( 'automotive_design' ) ;
#139 = FACE_OUTER_BOUND ( 'NONE', #135, .T. ) ;
#140 = VERTEX_POINT ( 'NONE', #228 ) ;
#141 = EDGE_LOOP ( 'NONE', ( #108, #67, #256, #51 ) ) ;
#142 = AXIS2_PLACEMENT_3D ( 'NONE', #186, #107, #6 ) ;
#143 =( NAMED_UNIT ( * ) PLANE_ANGLE_UNIT ( ) SI_UNIT ( $, .RADIAN. ) );
#144 = ADVANCED_BREP_SHAPE_REPRESENTATION ( '30017', ( #30, #27, #41 ), #172 ) ;
#145 = PRODUCT_RELATED_PRODUCT_CATEGORY ( 'part', '', ( #110 ) ) ;
#146 =( CONVERSION_BASED_UNIT ( 'INCH', #58 ) LENGTH_UNIT ( ) NAMED_UNIT ( #199 ) );
#147 = ADVANCED_FACE ( 'NONE', ( #282 ), #180, .T. ) ;
#148 = AXIS2_PLACEMENT_3D ( 'NONE', #211, #126, #209 ) ;
#149 = DIRECTION ( 'NONE',  ( -0.000000000000000000, -1.000000000000000000, -0.000000000000000000 ) ) ;
#150 = DIRECTION ( 'NONE',  ( 0.000000000000000000, 0.000000000000000000, -1.000000000000000000 ) ) ;
#151 = DIRECTION ( 'NONE',  ( -1.000000000000000000, 0.000000000000000000, 0.000000000000000000 ) ) ;
#152 =( GEOMETRIC_REPRESENTATION_CONTEXT ( 3 ) GLOBAL_UNCERTAINTY_ASSIGNED_CONTEXT ( ( #75 ) ) GLOBAL_UNIT_ASSIGNED_CONTEXT ( ( #146, #98, #280 ) ) REPRESENTATION_CONTEXT ( 'NONE', 'WORKASPACE' ) );
#153 = DIRECTION ( 'NONE',  ( 4.408728476930472137E-16, 1.000000000000000000, -0.000000000000000000 ) ) ;
#154 = LENGTH_MEASURE_WITH_UNIT ( LENGTH_MEASURE( 0.02539999999999999897 ), #85 );
#155 = CARTESIAN_POINT ( 'NONE',  ( 5.510910596163089556E-16, 1.499999999999999778, 0.000000000000000000 ) ) ;
#156 = CARTESIAN_POINT ( 'NONE',  ( 0.000000000000000000, 0.2499999999999998057, 0.000000000000000000 ) ) ;
#157 = SURFACE_STYLE_USAGE ( .BOTH. , #44 ) ;
#158 = STYLED_ITEM ( 'NONE', ( #187 ), #27 ) ;
#159 = CARTESIAN_POINT ( 'NONE',  ( -0.06250000000000001388, 0.2499999999999998335, 0.000000000000000000 ) ) ;
#160 = DIRECTION ( 'NONE',  ( 0.000000000000000000, 1.000000000000000000, 0.000000000000000000 ) ) ;
#161 = ORIENTED_EDGE ( 'NONE', *, *, #225, .T. ) ;
#162 = DIRECTION ( 'NONE',  ( -4.408728476930472631E-16, -1.000000000000000000, 0.000000000000000000 ) ) ;
#163 =( LENGTH_UNIT ( ) NAMED_UNIT ( * ) SI_UNIT ( $, .METRE. ) );
#164 =( LENGTH_UNIT ( ) NAMED_UNIT ( * ) SI_UNIT ( $, .METRE. ) );
#165 = AXIS2_PLACEMENT_3D ( 'NONE', #130, #48, #286 ) ;
#166 = SURFACE_SIDE_STYLE ('',( #181 ) ) ;
#167 = EDGE_CURVE ( 'NONE', #239, #140, #86, .T. ) ;
#168 = UNCERTAINTY_MEASURE_WITH_UNIT (LENGTH_MEASURE( 1.000000000000000082E-05 ), #42, 'distance_accuracy_value', 'NONE');
#169 = DIMENSIONAL_EXPONENTS ( 1.000000000000000000, 0.000000000000000000, 0.000000000000000000, 0.000000000000000000, 0.000000000000000000, 0.000000000000000000, 0.000000000000000000 ) ;
#170 = PRESENTATION_STYLE_ASSIGNMENT (( #300 ) ) ;
#171 = PRESENTATION_LAYER_ASSIGNMENT (  '', '', ( #158 ) ) ;
#172 =( GEOMETRIC_REPRESENTATION_CONTEXT ( 3 ) GLOBAL_UNCERTAINTY_ASSIGNED_CONTEXT ( ( #168 ) ) GLOBAL_UNIT_ASSIGNED_CONTEXT ( ( #42, #43, #304 ) ) REPRESENTATION_CONTEXT ( 'NONE', 'WORKASPACE' ) );
#173 = LENGTH_MEASURE_WITH_UNIT ( LENGTH_MEASURE( 0.02539999999999999897 ), #164 );
#174 = COLOUR_RGB ( '',1.000000000000000000, 0.000000000000000000, 0.000000000000000000 ) ;
#175 = PRESENTATION_LAYER_ASSIGNMENT (  '', '', ( #38 ) ) ;
#176 = FILL_AREA_STYLE ('',( #39 ) ) ;
#177 = DIRECTION ( 'NONE',  ( 0.000000000000000000, 0.000000000000000000, -1.000000000000000000 ) ) ;
#178 = CYLINDRICAL_SURFACE ( 'NONE', #297, 0.06250000000000001388 ) ;
#179 = LENGTH_MEASURE_WITH_UNIT ( LENGTH_MEASURE( 0.02539999999999999897 ), #306 );
#180 = PLANE ( 'NONE',  #279 ) ;
#181 = SURFACE_STYLE_FILL_AREA ( #288 ) ;
#182 =( GEOMETRIC_REPRESENTATION_CONTEXT ( 3 ) GLOBAL_UNCERTAINTY_ASSIGNED_CONTEXT ( ( #243 ) ) GLOBAL_UNIT_ASSIGNED_CONTEXT ( ( #271, #196, #122 ) ) REPRESENTATION_CONTEXT ( 'NONE', 'WORKASPACE' ) );
#183 = PRESENTATION_LAYER_ASSIGNMENT (  '', '', ( #52 ) ) ;
#184 = FILL_AREA_STYLE ('',( #217 ) ) ;
#185 = EDGE_CURVE ( 'NONE', #28, #31, #14, .T. ) ;
#186 = CARTESIAN_POINT ( 'NONE',  ( 5.510910596163089556E-16, 1.499999999999999778, 0.000000000000000000 ) ) ;
#187 = PRESENTATION_STYLE_ASSIGNMENT (( #92 ) ) ;
#188 = DIRECTION ( 'NONE',  ( 4.408728476930472631E-16, 1.000000000000000000, -0.000000000000000000 ) ) ;
#189 = CARTESIAN_POINT ( 'NONE',  ( 0.000000000000000000, 0.000000000000000000, -0.06250000000000001388 ) ) ;
#190 = PRESENTATION_STYLE_ASSIGNMENT (( #236 ) ) ;
#191 = ADVANCED_FACE ( 'NONE', ( #139 ), #72, .T. ) ;
#192 = ORIENTED_EDGE ( 'NONE', *, *, #263, .F. ) ;
#193 = ORIENTED_EDGE ( 'NONE', *, *, #185, .T. ) ;
#194 = DIMENSIONAL_EXPONENTS ( 1.000000000000000000, 0.000000000000000000, 0.000000000000000000, 0.000000000000000000, 0.000000000000000000, 0.000000000000000000, 0.000000000000000000 ) ;
#195 = SURFACE_STYLE_FILL_AREA ( #245 ) ;
#196 =( NAMED_UNIT ( * ) PLANE_ANGLE_UNIT ( ) SI_UNIT ( $, .RADIAN. ) );
#197 = AXIS2_PLACEMENT_3D ( 'NONE', #303, #127, #150 ) ;
#198 = CARTESIAN_POINT ( 'NONE',  ( 7.654042494670959086E-18, 0.2499999999999998057, 0.06250000000000001388 ) ) ;
#199 = DIMENSIONAL_EXPONENTS ( 1.000000000000000000, 0.000000000000000000, 0.000000000000000000, 0.000000000000000000, 0.000000000000000000, 0.000000000000000000, 0.000000000000000000 ) ;
#200 = PRESENTATION_LAYER_ASSIGNMENT (  '', '', ( #275 ) ) ;
#201 = COLOUR_RGB ( '',1.000000000000000000, 0.000000000000000000, 0.000000000000000000 ) ;
#202 = FILL_AREA_STYLE ('',( #125 ) ) ;
#203 = DIRECTION ( 'NONE',  ( 1.000000000000000000, 0.000000000000000000, 0.000000000000000000 ) ) ;
#204 = ADVANCED_FACE ( 'NONE', ( #89 ), #216, .T. ) ;
#205 =( NAMED_UNIT ( * ) PLANE_ANGLE_UNIT ( ) SI_UNIT ( $, .RADIAN. ) );
#206 = PRODUCT_CONTEXT ( 'NONE', #138, 'mechanical' ) ;
#207 = EDGE_CURVE ( 'NONE', #239, #70, #115, .T. ) ;
#208 = CIRCLE ( 'NONE', #104, 0.06250000000000001388 ) ;
#209 = DIRECTION ( 'NONE',  ( 0.000000000000000000, 0.000000000000000000, -1.000000000000000000 ) ) ;
#210 = FILL_AREA_STYLE_COLOUR ( '', #174 ) ;
#211 = CARTESIAN_POINT ( 'NONE',  ( 0.000000000000000000, 0.000000000000000000, 0.000000000000000000 ) ) ;
#212 =( NAMED_UNIT ( * ) SI_UNIT ( $, .STERADIAN. ) SOLID_ANGLE_UNIT ( ) );
#213 = ADVANCED_FACE ( 'NONE', ( #50 ), #23, .F. ) ;
#214 = EDGE_LOOP ( 'NONE', ( #262, #267 ) ) ;
#215 = EDGE_LOOP ( 'NONE', ( #5, #9 ) ) ;
#216 = CYLINDRICAL_SURFACE ( 'NONE', #142, 0.06249999999999974326 ) ;
#217 = FILL_AREA_STYLE_COLOUR ( '', #88 ) ;
#218 = UNCERTAINTY_MEASURE_WITH_UNIT (LENGTH_MEASURE( 1.000000000000000082E-05 ), #281, 'distance_accuracy_value', 'NONE');
#219 = ADVANCED_FACE ( 'NONE', ( #132 ), #24, .F. ) ;
#220 = ORIENTED_EDGE ( 'NONE', *, *, #225, .F. ) ;
#221 = PRESENTATION_LAYER_ASSIGNMENT (  '', '', ( #46 ) ) ;
#222 = CIRCLE ( 'NONE', #47, 0.06250000000000001388 ) ;
#223 = ORIENTED_EDGE ( 'NONE', *, *, #66, .F. ) ;
#224 =( GEOMETRIC_REPRESENTATION_CONTEXT ( 3 ) GLOBAL_UNCERTAINTY_ASSIGNED_CONTEXT ( ( #268 ) ) GLOBAL_UNIT_ASSIGNED_CONTEXT ( ( #53, #109, #212 ) ) REPRESENTATION_CONTEXT ( 'NONE', 'WORKASPACE' ) );
#225 = EDGE_CURVE ( 'NONE', #70, #239, #208, .T. ) ;
#226 = PRESENTATION_STYLE_ASSIGNMENT (( #19 ) ) ;
#227 = AXIS2_PLACEMENT_3D ( 'NONE', #155, #153, #151 ) ;
#228 = CARTESIAN_POINT ( 'NONE',  ( -0.06249999999999890365, 1.499999999999999778, 0.000000000000000000 ) ) ;
#229 = CARTESIAN_POINT ( 'NONE',  ( 0.000000000000000000, 0.000000000000000000, 0.000000000000000000 ) ) ;
#230 = SURFACE_SIDE_STYLE ('',( #254 ) ) ;
#231 = CARTESIAN_POINT ( 'NONE',  ( 0.000000000000000000, 0.2499999999999998057, 0.000000000000000000 ) ) ;
#232 =( GEOMETRIC_REPRESENTATION_CONTEXT ( 3 ) GLOBAL_UNCERTAINTY_ASSIGNED_CONTEXT ( ( #11 ) ) GLOBAL_UNIT_ASSIGNED_CONTEXT ( ( #246, #143, #40 ) ) REPRESENTATION_CONTEXT ( 'NONE', 'WORKASPACE' ) );
#233 = DIRECTION ( 'NONE',  ( 0.000000000000000000, 0.000000000000000000, -1.000000000000000000 ) ) ;
#234 = APPLICATION_PROTOCOL_DEFINITION ( 'draft international standard', 'automotive_design', 1998, #138 ) ;
#235 = ORIENTED_EDGE ( 'NONE', *, *, #74, .F. ) ;
#236 = SURFACE_STYLE_USAGE ( .BOTH. , #166 ) ;
#237 = COLOUR_RGB ( '',1.000000000000000000, 0.000000000000000000, 0.000000000000000000 ) ;
#238 = ORIENTED_EDGE ( 'NONE', *, *, #118, .F. ) ;
#239 = VERTEX_POINT ( 'NONE', #159 ) ;
#240 = ORIENTED_EDGE ( 'NONE', *, *, #185, .F. ) ;
#241 = VECTOR ( 'NONE', #188, 39.37007874015748143 ) ;
#242 = SURFACE_STYLE_FILL_AREA ( #176 ) ;
#243 = UNCERTAINTY_MEASURE_WITH_UNIT (LENGTH_MEASURE( 1.000000000000000082E-05 ), #271, 'distance_accuracy_value', 'NONE');
#244 = CARTESIAN_POINT ( 'NONE',  ( 0.06250000000000001388, 0.2499999999999997502, 7.654042494670943678E-18 ) ) ;
#245 = FILL_AREA_STYLE ('',( #277 ) ) ;
#246 =( CONVERSION_BASED_UNIT ( 'INCH', #121 ) LENGTH_UNIT ( ) NAMED_UNIT ( #119 ) );
#247 = CARTESIAN_POINT ( 'NONE',  ( 7.654042494670959086E-18, 0.000000000000000000, 0.06250000000000001388 ) ) ;
#248 = PRESENTATION_STYLE_ASSIGNMENT (( #157 ) ) ;
#249 = APPLICATION_PROTOCOL_DEFINITION ( 'draft international standard', 'automotive_design', 1998, #284 ) ;
#250 =( GEOMETRIC_REPRESENTATION_CONTEXT ( 3 ) GLOBAL_UNCERTAINTY_ASSIGNED_CONTEXT ( ( #218 ) ) GLOBAL_UNIT_ASSIGNED_CONTEXT ( ( #281, #64, #17 ) ) REPRESENTATION_CONTEXT ( 'NONE', 'WORKASPACE' ) );
#251 =( NAMED_UNIT ( * ) SI_UNIT ( $, .STERADIAN. ) SOLID_ANGLE_UNIT ( ) );
#252 = DIRECTION ( 'NONE',  ( -0.000000000000000000, -1.000000000000000000, -0.000000000000000000 ) ) ;
#253 = AXIS2_PLACEMENT_3D ( 'NONE', #111, #285, #113 ) ;
#254 = SURFACE_STYLE_FILL_AREA ( #202 ) ;
#255 = DIRECTION ( 'NONE',  ( 0.000000000000000000, -0.000000000000000000, 1.000000000000000000 ) ) ;
#256 = ORIENTED_EDGE ( 'NONE', *, *, #15, .F. ) ;
#257 = EDGE_CURVE ( 'NONE', #70, #265, #307, .T. ) ;
#258 = DIRECTION ( 'NONE',  ( 0.000000000000000000, 0.000000000000000000, -1.000000000000000000 ) ) ;
#259 = ORIENTED_EDGE ( 'NONE', *, *, #207, .F. ) ;
#260 = CARTESIAN_POINT ( 'NONE',  ( 0.000000000000000000, 0.2499999999999998057, 0.000000000000000000 ) ) ;
#261 = MECHANICAL_DESIGN_GEOMETRIC_PRESENTATION_REPRESENTATION (  '', ( #123 ), #276 ) ;
#262 = ORIENTED_EDGE ( 'NONE', *, *, #15, .T. ) ;
#263 = EDGE_CURVE ( 'NONE', #7, #56, #292, .T. ) ;
#264 = DIRECTION ( 'NONE',  ( 4.408728476930472137E-16, 1.000000000000000000, -0.000000000000000000 ) ) ;
#265 = VERTEX_POINT ( 'NONE', #22 ) ;
#266 = DIMENSIONAL_EXPONENTS ( 1.000000000000000000, 0.000000000000000000, 0.000000000000000000, 0.000000000000000000, 0.000000000000000000, 0.000000000000000000, 0.000000000000000000 ) ;
#267 = ORIENTED_EDGE ( 'NONE', *, *, #74, .T. ) ;
#268 = UNCERTAINTY_MEASURE_WITH_UNIT (LENGTH_MEASURE( 1.000000000000000082E-05 ), #53, 'distance_accuracy_value', 'NONE');
#269 = EDGE_CURVE ( 'NONE', #31, #28, #222, .T. ) ;
#270 = AXIS2_PLACEMENT_3D ( 'NONE', #136, #160, #255 ) ;
#271 =( CONVERSION_BASED_UNIT ( 'INCH', #173 ) LENGTH_UNIT ( ) NAMED_UNIT ( #10 ) );
#272 = SURFACE_SIDE_STYLE ('',( #195 ) ) ;
#273 = AXIS2_PLACEMENT_3D ( 'NONE', #295, #96, #36 ) ;
#274 = ADVANCED_FACE ( 'NONE', ( #278 ), #63, .T. ) ;
#275 = STYLED_ITEM ( 'NONE', ( #170 ), #30 ) ;
#276 =( GEOMETRIC_REPRESENTATION_CONTEXT ( 3 ) GLOBAL_UNCERTAINTY_ASSIGNED_CONTEXT ( ( #29 ) ) GLOBAL_UNIT_ASSIGNED_CONTEXT ( ( #81, #205, #251 ) ) REPRESENTATION_CONTEXT ( 'NONE', 'WORKASPACE' ) );
#277 = FILL_AREA_STYLE_COLOUR ( '', #1 ) ;
#278 = FACE_OUTER_BOUND ( 'NONE', #141, .T. ) ;
#279 = AXIS2_PLACEMENT_3D ( 'NONE', #301, #2, #4 ) ;
#280 =( NAMED_UNIT ( * ) SI_UNIT ( $, .STERADIAN. ) SOLID_ANGLE_UNIT ( ) );
#281 =( CONVERSION_BASED_UNIT ( 'INCH', #179 ) LENGTH_UNIT ( ) NAMED_UNIT ( #32 ) );
#282 = FACE_OUTER_BOUND ( 'NONE', #215, .T. ) ;
#283 = AXIS2_PLACEMENT_3D ( 'NONE', #68, #162, #134 ) ;
#284 = APPLICATION_CONTEXT ( 'automotive_design' ) ;
#285 = DIRECTION ( 'NONE',  ( 4.408728476930472137E-16, 1.000000000000000000, -0.000000000000000000 ) ) ;
#286 = DIRECTION ( 'NONE',  ( -1.000000000000000000, 4.408728476930472631E-16, 0.000000000000000000 ) ) ;
#287 = ORIENTED_EDGE ( 'NONE', *, *, #66, .T. ) ;
#288 = FILL_AREA_STYLE ('',( #112 ) ) ;
#289 = SURFACE_SIDE_STYLE ('',( #90 ) ) ;
#290 = CARTESIAN_POINT ( 'NONE',  ( 0.000000000000000000, 0.2499999999999998057, 0.000000000000000000 ) ) ;
#291 = AXIS2_PLACEMENT_3D ( 'NONE', #87, #73, #3 ) ;
#292 = CIRCLE ( 'NONE', #148, 0.06250000000000001388 ) ;
#293 = EDGE_LOOP ( 'NONE', ( #259, #220 ) ) ;
#294 = CARTESIAN_POINT ( 'NONE',  ( 0.000000000000000000, 0.2499999999999998057, -0.06250000000000001388 ) ) ;
#295 = CARTESIAN_POINT ( 'NONE',  ( 5.510910596163089556E-16, 1.499999999999999778, 0.000000000000000000 ) ) ;
#296 = CLOSED_SHELL ( 'NONE', ( #274, #213, #204, #219 ) ) ;
#297 = AXIS2_PLACEMENT_3D ( 'NONE', #18, #252, #233 ) ;
#298 = FACE_OUTER_BOUND ( 'NONE', #49, .T. ) ;
#299 = CYLINDRICAL_SURFACE ( 'NONE', #197, 0.06250000000000001388 ) ;
#300 = SURFACE_STYLE_USAGE ( .BOTH. , #272 ) ;
#301 = CARTESIAN_POINT ( 'NONE',  ( 0.000000000000000000, 0.000000000000000000, 0.000000000000000000 ) ) ;
#302 = FILL_AREA_STYLE ('',( #210 ) ) ;
#303 = CARTESIAN_POINT ( 'NONE',  ( 0.000000000000000000, 0.000000000000000000, 0.000000000000000000 ) ) ;
#304 =( NAMED_UNIT ( * ) SI_UNIT ( $, .STERADIAN. ) SOLID_ANGLE_UNIT ( ) );
#305 = PRODUCT_DEFINITION ( 'UNKNOWN', '', #76, #13 ) ;
#306 =( LENGTH_UNIT ( ) NAMED_UNIT ( * ) SI_UNIT ( $, .METRE. ) );
#307 = LINE ( 'NONE', #105, #57 ) ;
#308 = CARTESIAN_POINT ( 'NONE',  ( 7.654042494670959086E-18, 0.000000000000000000, 0.06250000000000001388 ) ) ;
#309 = DIRECTION ( 'NONE',  ( -0.000000000000000000, -1.000000000000000000, -0.000000000000000000 ) ) ;
ENDSEC;
END-ISO-10303-21;
