ISO-10303-21;
HEADER;
FILE_DESCRIPTION (( 'STEP AP214' ),
    '1' );
FILE_NAME ('Micro_RNC-125-1X.STEP',
    '2021-09-03T17:33:20',
    ( '' ),
    ( '' ),
    'SwSTEP 2.0',
    'SolidWorks 2020',
    '' );
FILE_SCHEMA (( 'AUTOMOTIVE_DESIGN' ));
ENDSEC;

DATA;
#1 = EDGE_CURVE ( 'NONE', #102, #168, #189, .T. ) ;
#2 =( LENGTH_UNIT ( ) NAMED_UNIT ( * ) SI_UNIT ( $, .METRE. ) );
#3 = ORIENTED_EDGE ( 'NONE', *, *, #73, .F. ) ;
#4 = DIMENSIONAL_EXPONENTS ( 1.000000000000000000, 0.0000000000000000000, 0.0000000000000000000, 0.0000000000000000000, 0.0000000000000000000, 0.0000000000000000000, 0.0000000000000000000 ) ;
#5 = ORIENTED_EDGE ( 'NONE', *, *, #172, .F. ) ;
#6 = DIRECTION ( 'NONE',  ( 0.0000000000000000000, 0.0000000000000000000, 1.000000000000000000 ) ) ;
#7 = ORIENTED_EDGE ( 'NONE', *, *, #134, .T. ) ;
#8 = ORIENTED_EDGE ( 'NONE', *, *, #192, .F. ) ;
#9 = CARTESIAN_POINT ( 'NONE',  ( 0.004000000000000000083, 0.0000000000000000000, 0.0000000000000000000 ) ) ;
#10 =( LENGTH_UNIT ( ) NAMED_UNIT ( * ) SI_UNIT ( $, .METRE. ) );
#11 = AXIS2_PLACEMENT_3D ( 'NONE', #173, #191, #75 ) ;
#12 = AXIS2_PLACEMENT_3D ( 'NONE', #177, #248, #37 ) ;
#13 =( CONVERSION_BASED_UNIT ( 'INCH', #244 ) LENGTH_UNIT ( ) NAMED_UNIT ( #4 ) );
#14 = CARTESIAN_POINT ( 'NONE',  ( 0.0000000000000000000, 0.0000000000000000000, 1.500000000000000222 ) ) ;
#15 = DIRECTION ( 'NONE',  ( 0.7071067811865487940, 0.0000000000000000000, 0.7071067811865462405 ) ) ;
#16 = STYLED_ITEM ( 'NONE', ( #230 ), #38 ) ;
#17 = FACE_OUTER_BOUND ( 'NONE', #144, .T. ) ;
#18 = EDGE_CURVE ( 'NONE', #217, #232, #158, .T. ) ;
#19 = VECTOR ( 'NONE', #139, 39.37007874015748143 ) ;
#20 = CARTESIAN_POINT ( 'NONE',  ( 0.0000000000000000000, 0.0000000000000000000, 0.0000000000000000000 ) ) ;
#21 = CARTESIAN_POINT ( 'NONE',  ( 0.004000000000000000083, 0.0000000000000000000, 0.0000000000000000000 ) ) ;
#22 =( GEOMETRIC_REPRESENTATION_CONTEXT ( 3 ) GLOBAL_UNCERTAINTY_ASSIGNED_CONTEXT ( ( #228 ) ) GLOBAL_UNIT_ASSIGNED_CONTEXT ( ( #13, #126, #55 ) ) REPRESENTATION_CONTEXT ( 'NONE', 'WORKASPACE' ) );
#23 = PRODUCT_DEFINITION_FORMATION_WITH_SPECIFIED_SOURCE ( 'ANY', '', #237, .NOT_KNOWN. ) ;
#24 = ORIENTED_EDGE ( 'NONE', *, *, #134, .F. ) ;
#25 = VERTEX_POINT ( 'NONE', #239 ) ;
#26 = ORIENTED_EDGE ( 'NONE', *, *, #153, .F. ) ;
#27 = AXIS2_PLACEMENT_3D ( 'NONE', #14, #129, #96 ) ;
#28 = DIRECTION ( 'NONE',  ( -1.000000000000000000, 0.0000000000000000000, 0.0000000000000000000 ) ) ;
#29 = CARTESIAN_POINT ( 'NONE',  ( -0.06250000000000000000, 0.0000000000000000000, 1.500000000000000222 ) ) ;
#30 = DIRECTION ( 'NONE',  ( 0.7071067811865456854, 8.659560562354911904E-17, -0.7071067811865493491 ) ) ;
#31 = SURFACE_STYLE_FILL_AREA ( #95 ) ;
#32 = AXIS2_PLACEMENT_3D ( 'NONE', #77, #225, #54 ) ;
#33 = LINE ( 'NONE', #246, #43 ) ;
#34 = CARTESIAN_POINT ( 'NONE',  ( -0.04750000000000064587, 0.0000000000000000000, 1.500000000000000222 ) ) ;
#35 = DIRECTION ( 'NONE',  ( -1.000000000000000000, 0.0000000000000000000, 0.0000000000000000000 ) ) ;
#36 = VECTOR ( 'NONE', #30, 39.37007874015748143 ) ;
#37 = DIRECTION ( 'NONE',  ( -1.000000000000000000, 0.0000000000000000000, 0.0000000000000000000 ) ) ;
#38 = ADVANCED_BREP_SHAPE_REPRESENTATION ( 'Micro_RNC-125-1X', ( #125, #50 ), #163 ) ;
#39 = APPLICATION_PROTOCOL_DEFINITION ( 'draft international standard', 'automotive_design', 1998, #47 ) ;
#40 = FILL_AREA_STYLE_COLOUR ( '', #133 ) ;
#41 = DIRECTION ( 'NONE',  ( 1.000000000000000000, 0.0000000000000000000, 0.0000000000000000000 ) ) ;
#42 = ORIENTED_EDGE ( 'NONE', *, *, #64, .T. ) ;
#43 = VECTOR ( 'NONE', #76, 39.37007874015748143 ) ;
#44 = ORIENTED_EDGE ( 'NONE', *, *, #142, .F. ) ;
#45 = PRODUCT_CONTEXT ( 'NONE', #47, 'mechanical' ) ;
#46 = ORIENTED_EDGE ( 'NONE', *, *, #69, .F. ) ;
#47 = APPLICATION_CONTEXT ( 'automotive_design' ) ;
#48 = CYLINDRICAL_SURFACE ( 'NONE', #147, 0.06250000000000000000 ) ;
#49 = ADVANCED_FACE ( 'NONE', ( #140 ), #48, .T. ) ;
#50 = AXIS2_PLACEMENT_3D ( 'NONE', #143, #6, #41 ) ;
#51 = VERTEX_POINT ( 'NONE', #105 ) ;
#52 = DIRECTION ( 'NONE',  ( -0.0000000000000000000, -0.0000000000000000000, -1.000000000000000000 ) ) ;
#53 = SURFACE_SIDE_STYLE ('',( #31 ) ) ;
#54 = DIRECTION ( 'NONE',  ( 1.000000000000000000, 0.0000000000000000000, 0.0000000000000000000 ) ) ;
#55 =( NAMED_UNIT ( * ) SI_UNIT ( $, .STERADIAN. ) SOLID_ANGLE_UNIT ( ) );
#56 = DIRECTION ( 'NONE',  ( 0.0000000000000000000, 0.0000000000000000000, -1.000000000000000000 ) ) ;
#57 = CIRCLE ( 'NONE', #93, 0.06250000000000000000 ) ;
#58 =( LENGTH_UNIT ( ) NAMED_UNIT ( * ) SI_UNIT ( $, .METRE. ) );
#59 = LENGTH_MEASURE_WITH_UNIT ( LENGTH_MEASURE( 0.02539999999999999897 ), #58 );
#60 = STYLED_ITEM ( 'NONE', ( #92 ), #125 ) ;
#61 = CONICAL_SURFACE ( 'NONE', #94, 0.04750000000000064587, 0.7853981633974457255 ) ;
#62 = SURFACE_STYLE_USAGE ( .BOTH. , #161 ) ;
#63 = ORIENTED_EDGE ( 'NONE', *, *, #73, .T. ) ;
#64 = EDGE_CURVE ( 'NONE', #25, #232, #70, .T. ) ;
#65 = EDGE_LOOP ( 'NONE', ( #215, #118 ) ) ;
#66 = AXIS2_PLACEMENT_3D ( 'NONE', #155, #206, #35 ) ;
#67 = EDGE_LOOP ( 'NONE', ( #152, #183 ) ) ;
#68 = ORIENTED_EDGE ( 'NONE', *, *, #209, .T. ) ;
#69 = EDGE_CURVE ( 'NONE', #182, #232, #186, .T. ) ;
#70 = LINE ( 'NONE', #214, #89 ) ;
#71 = COLOUR_RGB ( '',0.7921568627450980005, 0.8196078431372548767, 0.9333333333333333481 ) ;
#72 = PLANE ( 'NONE',  #207 ) ;
#73 = EDGE_CURVE ( 'NONE', #102, #51, #91, .T. ) ;
#74 = DIMENSIONAL_EXPONENTS ( 1.000000000000000000, 0.0000000000000000000, 0.0000000000000000000, 0.0000000000000000000, 0.0000000000000000000, 0.0000000000000000000, 0.0000000000000000000 ) ;
#75 = DIRECTION ( 'NONE',  ( 1.000000000000000000, 0.0000000000000000000, -0.0000000000000000000 ) ) ;
#76 = DIRECTION ( 'NONE',  ( -0.0000000000000000000, -0.0000000000000000000, -1.000000000000000000 ) ) ;
#77 = CARTESIAN_POINT ( 'NONE',  ( 0.0000000000000000000, 0.0000000000000000000, 1.485000000000000764 ) ) ;
#78 = DIRECTION ( 'NONE',  ( 0.0000000000000000000, 0.0000000000000000000, 1.000000000000000000 ) ) ;
#79 = DIRECTION ( 'NONE',  ( 0.0000000000000000000, 0.0000000000000000000, 1.000000000000000000 ) ) ;
#80 = AXIS2_PLACEMENT_3D ( 'NONE', #238, #145, #28 ) ;
#81 = VECTOR ( 'NONE', #162, 39.37007874015748143 ) ;
#82 = CARTESIAN_POINT ( 'NONE',  ( 0.0000000000000000000, 0.0000000000000000000, 1.500000000000000222 ) ) ;
#83 = CARTESIAN_POINT ( 'NONE',  ( -0.04750000000000064587, 0.0000000000000000000, 1.500000000000000222 ) ) ;
#84 = PRESENTATION_LAYER_ASSIGNMENT (  '', '', ( #16 ) ) ;
#85 = EDGE_LOOP ( 'NONE', ( #88, #42, #169, #196 ) ) ;
#86 = EDGE_LOOP ( 'NONE', ( #7, #184, #8, #46 ) ) ;
#87 =( NAMED_UNIT ( * ) SI_UNIT ( $, .STERADIAN. ) SOLID_ANGLE_UNIT ( ) );
#88 = ORIENTED_EDGE ( 'NONE', *, *, #97, .F. ) ;
#89 = VECTOR ( 'NONE', #200, 39.37007874015748143 ) ;
#90 = CARTESIAN_POINT ( 'NONE',  ( 0.0000000000000000000, 0.0000000000000000000, 1.500000000000000222 ) ) ;
#91 = LINE ( 'NONE', #106, #36 ) ;
#92 = PRESENTATION_STYLE_ASSIGNMENT (( #107 ) ) ;
#93 = AXIS2_PLACEMENT_3D ( 'NONE', #171, #203, #245 ) ;
#94 = AXIS2_PLACEMENT_3D ( 'NONE', #82, #56, #227 ) ;
#95 = FILL_AREA_STYLE ('',( #111 ) ) ;
#96 = DIRECTION ( 'NONE',  ( 1.000000000000000000, 0.0000000000000000000, 0.0000000000000000000 ) ) ;
#97 = EDGE_CURVE ( 'NONE', #25, #236, #222, .T. ) ;
#98 = CARTESIAN_POINT ( 'NONE',  ( 0.0000000000000000000, 0.0000000000000000000, 0.0000000000000000000 ) ) ;
#99 = ADVANCED_FACE ( 'NONE', ( #109 ), #185, .T. ) ;
#100 = AXIS2_PLACEMENT_3D ( 'NONE', #98, #110, #112 ) ;
#101 = ORIENTED_EDGE ( 'NONE', *, *, #64, .F. ) ;
#102 = VERTEX_POINT ( 'NONE', #221 ) ;
#103 = EDGE_CURVE ( 'NONE', #236, #217, #190, .T. ) ;
#104 = CLOSED_SHELL ( 'NONE', ( #99, #243, #115, #49, #136, #204, #181, #179 ) ) ;
#105 = CARTESIAN_POINT ( 'NONE',  ( 0.06250000000000000000, 7.654042494670956004E-18, 1.485000000000000764 ) ) ;
#106 = CARTESIAN_POINT ( 'NONE',  ( 0.04750000000000064587, 5.817072295950006528E-18, 1.500000000000000222 ) ) ;
#107 = SURFACE_STYLE_USAGE ( .BOTH. , #53 ) ;
#108 = AXIS2_PLACEMENT_3D ( 'NONE', #90, #187, #197 ) ;
#109 = FACE_OUTER_BOUND ( 'NONE', #85, .T. ) ;
#110 = DIRECTION ( 'NONE',  ( 0.0000000000000000000, 0.0000000000000000000, 1.000000000000000000 ) ) ;
#111 = FILL_AREA_STYLE_COLOUR ( '', #71 ) ;
#112 = DIRECTION ( 'NONE',  ( 1.000000000000000000, 0.0000000000000000000, 0.0000000000000000000 ) ) ;
#113 = FACE_OUTER_BOUND ( 'NONE', #224, .T. ) ;
#114 = DIRECTION ( 'NONE',  ( 1.000000000000000000, 0.0000000000000000000, 0.0000000000000000000 ) ) ;
#115 = ADVANCED_FACE ( 'NONE', ( #151 ), #154, .T. ) ;
#116 = AXIS2_PLACEMENT_3D ( 'NONE', #150, #188, #202 ) ;
#117 = EDGE_CURVE ( 'NONE', #168, #102, #167, .T. ) ;
#118 = ORIENTED_EDGE ( 'NONE', *, *, #97, .T. ) ;
#119 = MECHANICAL_DESIGN_GEOMETRIC_PRESENTATION_REPRESENTATION (  '', ( #16 ), #218 ) ;
#120 = EDGE_LOOP ( 'NONE', ( #3, #216, #68, #26 ) ) ;
#121 = ORIENTED_EDGE ( 'NONE', *, *, #103, .T. ) ;
#122 = DIRECTION ( 'NONE',  ( -1.000000000000000000, 0.0000000000000000000, 0.0000000000000000000 ) ) ;
#123 = DIRECTION ( 'NONE',  ( -0.0000000000000000000, -0.0000000000000000000, -1.000000000000000000 ) ) ;
#124 = FACE_OUTER_BOUND ( 'NONE', #67, .T. ) ;
#125 = MANIFOLD_SOLID_BREP ( 'Cut-Revolve1', #104 ) ;
#126 =( NAMED_UNIT ( * ) PLANE_ANGLE_UNIT ( ) SI_UNIT ( $, .RADIAN. ) );
#127 = ORIENTED_EDGE ( 'NONE', *, *, #18, .F. ) ;
#128 = PRODUCT_DEFINITION_SHAPE ( 'NONE', 'NONE',  #220 ) ;
#129 = DIRECTION ( 'NONE',  ( 0.0000000000000000000, 0.0000000000000000000, 1.000000000000000000 ) ) ;
#130 = PLANE ( 'NONE',  #11 ) ;
#131 = MECHANICAL_DESIGN_GEOMETRIC_PRESENTATION_REPRESENTATION (  '', ( #60 ), #22 ) ;
#132 = DIRECTION ( 'NONE',  ( -1.000000000000000000, 0.0000000000000000000, 0.0000000000000000000 ) ) ;
#133 = COLOUR_RGB ( '',0.7921568627450980005, 0.8196078431372548767, 0.9333333333333333481 ) ;
#134 = EDGE_CURVE ( 'NONE', #182, #51, #57, .T. ) ;
#135 =( NAMED_UNIT ( * ) PLANE_ANGLE_UNIT ( ) SI_UNIT ( $, .RADIAN. ) );
#136 = ADVANCED_FACE ( 'NONE', ( #124 ), #130, .T. ) ;
#137 = LENGTH_MEASURE_WITH_UNIT ( LENGTH_MEASURE( 0.02539999999999999897 ), #2 );
#138 = APPLICATION_PROTOCOL_DEFINITION ( 'draft international standard', 'automotive_design', 1998, #233 ) ;
#139 = DIRECTION ( 'NONE',  ( -0.0000000000000000000, -0.0000000000000000000, -1.000000000000000000 ) ) ;
#140 = FACE_OUTER_BOUND ( 'NONE', #195, .T. ) ;
#141 = CIRCLE ( 'NONE', #32, 0.06250000000000000000 ) ;
#142 = EDGE_CURVE ( 'NONE', #51, #217, #33, .T. ) ;
#143 = CARTESIAN_POINT ( 'NONE',  ( 0.0000000000000000000, 0.0000000000000000000, 0.0000000000000000000 ) ) ;
#144 = EDGE_LOOP ( 'NONE', ( #165, #63, #24, #146 ) ) ;
#145 = DIRECTION ( 'NONE',  ( -0.0000000000000000000, -0.0000000000000000000, -1.000000000000000000 ) ) ;
#146 = ORIENTED_EDGE ( 'NONE', *, *, #209, .F. ) ;
#147 = AXIS2_PLACEMENT_3D ( 'NONE', #164, #123, #122 ) ;
#148 = AXIS2_PLACEMENT_3D ( 'NONE', #20, #78, #114 ) ;
#149 = CARTESIAN_POINT ( 'NONE',  ( 0.0000000000000000000, 0.0000000000000000000, 1.500000000000000222 ) ) ;
#150 = CARTESIAN_POINT ( 'NONE',  ( 0.0000000000000000000, 0.0000000000000000000, 0.0000000000000000000 ) ) ;
#151 = FACE_OUTER_BOUND ( 'NONE', #86, .T. ) ;
#152 = ORIENTED_EDGE ( 'NONE', *, *, #117, .T. ) ;
#153 = EDGE_CURVE ( 'NONE', #51, #182, #141, .T. ) ;
#154 = CYLINDRICAL_SURFACE ( 'NONE', #213, 0.06250000000000000000 ) ;
#155 = CARTESIAN_POINT ( 'NONE',  ( 0.0000000000000000000, 0.0000000000000000000, 0.0000000000000000000 ) ) ;
#156 = LINE ( 'NONE', #83, #81 ) ;
#157 = PRODUCT_RELATED_PRODUCT_CATEGORY ( 'part', '', ( #237 ) ) ;
#158 = CIRCLE ( 'NONE', #80, 0.06250000000000000000 ) ;
#159 = CARTESIAN_POINT ( 'NONE',  ( -0.06250000000000000000, 0.0000000000000000000, 0.05849999999999978134 ) ) ;
#160 = CARTESIAN_POINT ( 'NONE',  ( -0.06250000000000000000, 0.0000000000000000000, 1.485000000000000764 ) ) ;
#161 = SURFACE_SIDE_STYLE ('',( #249 ) ) ;
#162 = DIRECTION ( 'NONE',  ( -0.7071067811865456854, 0.0000000000000000000, -0.7071067811865493491 ) ) ;
#163 =( GEOMETRIC_REPRESENTATION_CONTEXT ( 3 ) GLOBAL_UNCERTAINTY_ASSIGNED_CONTEXT ( ( #240 ) ) GLOBAL_UNIT_ASSIGNED_CONTEXT ( ( #175, #135, #208 ) ) REPRESENTATION_CONTEXT ( 'NONE', 'WORKASPACE' ) );
#164 = CARTESIAN_POINT ( 'NONE',  ( 0.0000000000000000000, 0.0000000000000000000, 1.500000000000000222 ) ) ;
#165 = ORIENTED_EDGE ( 'NONE', *, *, #1, .F. ) ;
#166 = ORIENTED_EDGE ( 'NONE', *, *, #69, .T. ) ;
#167 = CIRCLE ( 'NONE', #27, 0.04750000000000064587 ) ;
#168 = VERTEX_POINT ( 'NONE', #34 ) ;
#169 = ORIENTED_EDGE ( 'NONE', *, *, #192, .T. ) ;
#170 = PRODUCT_DEFINITION_CONTEXT ( 'detailed design', #233, 'design' ) ;
#171 = CARTESIAN_POINT ( 'NONE',  ( 0.0000000000000000000, 0.0000000000000000000, 1.485000000000000764 ) ) ;
#172 = EDGE_CURVE ( 'NONE', #236, #25, #176, .T. ) ;
#173 = CARTESIAN_POINT ( 'NONE',  ( 0.0000000000000000000, 0.0000000000000000000, 1.500000000000000222 ) ) ;
#174 =( NAMED_UNIT ( * ) PLANE_ANGLE_UNIT ( ) SI_UNIT ( $, .RADIAN. ) );
#175 =( CONVERSION_BASED_UNIT ( 'INCH', #59 ) LENGTH_UNIT ( ) NAMED_UNIT ( #198 ) );
#176 = CIRCLE ( 'NONE', #66, 0.004000000000000000083 ) ;
#177 = CARTESIAN_POINT ( 'NONE',  ( 0.0000000000000000000, 0.0000000000000000000, 0.05849999999999978134 ) ) ;
#178 = FILL_AREA_STYLE ('',( #40 ) ) ;
#179 = ADVANCED_FACE ( 'NONE', ( #241 ), #72, .F. ) ;
#180 = VECTOR ( 'NONE', #15, 39.37007874015748143 ) ;
#181 = ADVANCED_FACE ( 'NONE', ( #113 ), #242, .T. ) ;
#182 = VERTEX_POINT ( 'NONE', #160 ) ;
#183 = ORIENTED_EDGE ( 'NONE', *, *, #1, .T. ) ;
#184 = ORIENTED_EDGE ( 'NONE', *, *, #142, .T. ) ;
#185 = CONICAL_SURFACE ( 'NONE', #100, 0.004000000000000000083, 0.7853981633974501664 ) ;
#186 = LINE ( 'NONE', #29, #19 ) ;
#187 = DIRECTION ( 'NONE',  ( 0.0000000000000000000, 0.0000000000000000000, 1.000000000000000000 ) ) ;
#188 = DIRECTION ( 'NONE',  ( -0.0000000000000000000, -0.0000000000000000000, -1.000000000000000000 ) ) ;
#189 = CIRCLE ( 'NONE', #108, 0.04750000000000064587 ) ;
#190 = LINE ( 'NONE', #9, #180 ) ;
#191 = DIRECTION ( 'NONE',  ( 0.0000000000000000000, 0.0000000000000000000, 1.000000000000000000 ) ) ;
#192 = EDGE_CURVE ( 'NONE', #232, #217, #223, .T. ) ;
#193 = DIRECTION ( 'NONE',  ( 1.000000000000000000, 0.0000000000000000000, -0.0000000000000000000 ) ) ;
#194 = AXIS2_PLACEMENT_3D ( 'NONE', #226, #210, #132 ) ;
#195 = EDGE_LOOP ( 'NONE', ( #44, #212, #166, #127 ) ) ;
#196 = ORIENTED_EDGE ( 'NONE', *, *, #103, .F. ) ;
#197 = DIRECTION ( 'NONE',  ( 1.000000000000000000, 0.0000000000000000000, 0.0000000000000000000 ) ) ;
#198 = DIMENSIONAL_EXPONENTS ( 1.000000000000000000, 0.0000000000000000000, 0.0000000000000000000, 0.0000000000000000000, 0.0000000000000000000, 0.0000000000000000000, 0.0000000000000000000 ) ;
#199 = PRESENTATION_LAYER_ASSIGNMENT (  '', '', ( #60 ) ) ;
#200 = DIRECTION ( 'NONE',  ( -0.7071067811865487940, 8.659560562354948882E-17, 0.7071067811865462405 ) ) ;
#201 = DIRECTION ( 'NONE',  ( -1.000000000000000000, 0.0000000000000000000, 0.0000000000000000000 ) ) ;
#202 = DIRECTION ( 'NONE',  ( -1.000000000000000000, 0.0000000000000000000, 0.0000000000000000000 ) ) ;
#203 = DIRECTION ( 'NONE',  ( 0.0000000000000000000, 0.0000000000000000000, -1.000000000000000000 ) ) ;
#204 = ADVANCED_FACE ( 'NONE', ( #229 ), #235, .T. ) ;
#205 = UNCERTAINTY_MEASURE_WITH_UNIT (LENGTH_MEASURE( 1.000000000000000082E-05 ), #247, 'distance_accuracy_value', 'NONE');
#206 = DIRECTION ( 'NONE',  ( -0.0000000000000000000, -0.0000000000000000000, -1.000000000000000000 ) ) ;
#207 = AXIS2_PLACEMENT_3D ( 'NONE', #219, #79, #193 ) ;
#208 =( NAMED_UNIT ( * ) SI_UNIT ( $, .STERADIAN. ) SOLID_ANGLE_UNIT ( ) );
#209 = EDGE_CURVE ( 'NONE', #168, #182, #156, .T. ) ;
#210 = DIRECTION ( 'NONE',  ( 0.0000000000000000000, 0.0000000000000000000, -1.000000000000000000 ) ) ;
#211 = SHAPE_DEFINITION_REPRESENTATION ( #128, #38 ) ;
#212 = ORIENTED_EDGE ( 'NONE', *, *, #153, .T. ) ;
#213 = AXIS2_PLACEMENT_3D ( 'NONE', #149, #52, #201 ) ;
#214 = CARTESIAN_POINT ( 'NONE',  ( -0.004000000000000000083, 4.898587196589413537E-19, 0.0000000000000000000 ) ) ;
#215 = ORIENTED_EDGE ( 'NONE', *, *, #172, .T. ) ;
#216 = ORIENTED_EDGE ( 'NONE', *, *, #117, .F. ) ;
#217 = VERTEX_POINT ( 'NONE', #231 ) ;
#218 =( GEOMETRIC_REPRESENTATION_CONTEXT ( 3 ) GLOBAL_UNCERTAINTY_ASSIGNED_CONTEXT ( ( #205 ) ) GLOBAL_UNIT_ASSIGNED_CONTEXT ( ( #247, #174, #87 ) ) REPRESENTATION_CONTEXT ( 'NONE', 'WORKASPACE' ) );
#219 = CARTESIAN_POINT ( 'NONE',  ( 0.0000000000000000000, 0.0000000000000000000, 0.0000000000000000000 ) ) ;
#220 = PRODUCT_DEFINITION ( 'UNKNOWN', '', #23, #170 ) ;
#221 = CARTESIAN_POINT ( 'NONE',  ( 0.04750000000000064587, 6.735557395310482421E-18, 1.500000000000000222 ) ) ;
#222 = CIRCLE ( 'NONE', #116, 0.004000000000000000083 ) ;
#223 = CIRCLE ( 'NONE', #12, 0.06250000000000000000 ) ;
#224 = EDGE_LOOP ( 'NONE', ( #101, #5, #121, #234 ) ) ;
#225 = DIRECTION ( 'NONE',  ( 0.0000000000000000000, 0.0000000000000000000, -1.000000000000000000 ) ) ;
#226 = CARTESIAN_POINT ( 'NONE',  ( 0.0000000000000000000, 0.0000000000000000000, 1.500000000000000222 ) ) ;
#227 = DIRECTION ( 'NONE',  ( -1.000000000000000000, 0.0000000000000000000, 0.0000000000000000000 ) ) ;
#228 = UNCERTAINTY_MEASURE_WITH_UNIT (LENGTH_MEASURE( 1.000000000000000082E-05 ), #13, 'distance_accuracy_value', 'NONE');
#229 = FACE_OUTER_BOUND ( 'NONE', #120, .T. ) ;
#230 = PRESENTATION_STYLE_ASSIGNMENT (( #62 ) ) ;
#231 = CARTESIAN_POINT ( 'NONE',  ( 0.06250000000000000000, 7.654042494670956004E-18, 0.05849999999999978134 ) ) ;
#232 = VERTEX_POINT ( 'NONE', #159 ) ;
#233 = APPLICATION_CONTEXT ( 'automotive_design' ) ;
#234 = ORIENTED_EDGE ( 'NONE', *, *, #18, .T. ) ;
#235 = CONICAL_SURFACE ( 'NONE', #194, 0.04750000000000064587, 0.7853981633974457255 ) ;
#236 = VERTEX_POINT ( 'NONE', #21 ) ;
#237 = PRODUCT ( 'Micro_RNC-125-1X', 'Micro_RNC-125-1X', '', ( #45 ) ) ;
#238 = CARTESIAN_POINT ( 'NONE',  ( 0.0000000000000000000, 0.0000000000000000000, 0.05849999999999978134 ) ) ;
#239 = CARTESIAN_POINT ( 'NONE',  ( -0.004000000000000000083, 4.071950607164948872E-18, 0.0000000000000000000 ) ) ;
#240 = UNCERTAINTY_MEASURE_WITH_UNIT (LENGTH_MEASURE( 1.000000000000000082E-05 ), #175, 'distance_accuracy_value', 'NONE');
#241 = FACE_OUTER_BOUND ( 'NONE', #65, .T. ) ;
#242 = CONICAL_SURFACE ( 'NONE', #148, 0.004000000000000000083, 0.7853981633974501664 ) ;
#243 = ADVANCED_FACE ( 'NONE', ( #17 ), #61, .T. ) ;
#244 = LENGTH_MEASURE_WITH_UNIT ( LENGTH_MEASURE( 0.02539999999999999897 ), #10 );
#245 = DIRECTION ( 'NONE',  ( 1.000000000000000000, 0.0000000000000000000, 0.0000000000000000000 ) ) ;
#246 = CARTESIAN_POINT ( 'NONE',  ( 0.06250000000000000000, 7.654042494670956004E-18, 1.500000000000000222 ) ) ;
#247 =( CONVERSION_BASED_UNIT ( 'INCH', #137 ) LENGTH_UNIT ( ) NAMED_UNIT ( #74 ) );
#248 = DIRECTION ( 'NONE',  ( -0.0000000000000000000, -0.0000000000000000000, -1.000000000000000000 ) ) ;
#249 = SURFACE_STYLE_FILL_AREA ( #178 ) ;
ENDSEC;
END-ISO-10303-21;
