ISO-10303-21;
HEADER;
FILE_DESCRIPTION (( 'STEP AP214' ),
    '1' );
FILE_NAME ('Micro_AEMM-120-3.STEP',
    '2022-03-15T14:31:21',
    ( '' ),
    ( '' ),
    'SwSTEP 2.0',
    'SolidWorks 2022',
    '' );
FILE_SCHEMA (( 'AUTOMOTIVE_DESIGN' ));
ENDSEC;

DATA;
#1 = EDGE_LOOP ( 'NONE', ( #120, #174 ) ) ;
#2 = CARTESIAN_POINT ( 'NONE',  ( 0.000000000000000000, 0.000000000000000000, 3.267717000000000649 ) ) ;
#3 = EDGE_LOOP ( 'NONE', ( #28, #211, #100, #221 ) ) ;
#4 = ORIENTED_EDGE ( 'NONE', *, *, #76, .T. ) ;
#5 = CIRCLE ( 'NONE', #108, 0.2362204999999999999 ) ;
#6 = ORIENTED_EDGE ( 'NONE', *, *, #113, .T. ) ;
#7 = VECTOR ( 'NONE', #190, 39.37007874015748143 ) ;
#8 = ADVANCED_FACE ( 'NONE', ( #91 ), #250, .T. ) ;
#9 = DIRECTION ( 'NONE',  ( 0.000000000000000000, 0.000000000000000000, 1.000000000000000000 ) ) ;
#10 = UNCERTAINTY_MEASURE_WITH_UNIT (LENGTH_MEASURE( 1.000000000000000082E-05 ), #222, 'distance_accuracy_value', 'NONE');
#11 = CARTESIAN_POINT ( 'NONE',  ( -0.2359842794999998661, 2.891420358783783796E-17, 1.181102000000000096 ) ) ;
#12 = LINE ( 'NONE', #152, #17 ) ;
#13 = ORIENTED_EDGE ( 'NONE', *, *, #235, .T. ) ;
#14 = DIRECTION ( 'NONE',  ( 0.000000000000000000, 0.000000000000000000, -1.000000000000000000 ) ) ;
#15 = DIRECTION ( 'NONE',  ( 1.000000000000000000, 0.000000000000000000, 0.000000000000000000 ) ) ;
#16 = ORIENTED_EDGE ( 'NONE', *, *, #104, .F. ) ;
#17 = VECTOR ( 'NONE', #132, 39.37007874015748143 ) ;
#18 = VERTEX_POINT ( 'NONE', #226 ) ;
#19 = EDGE_LOOP ( 'NONE', ( #29, #4, #124, #232 ) ) ;
#20 = FACE_OUTER_BOUND ( 'NONE', #276, .T. ) ;
#21 = DIRECTION ( 'NONE',  ( -1.224646799147353454E-16, -0.000000000000000000, -1.000000000000000000 ) ) ;
#22 = CARTESIAN_POINT ( 'NONE',  ( -0.2212205000000019295, 0.000000000000000000, 3.267717000000000649 ) ) ;
#23 = VERTEX_POINT ( 'NONE', #95 ) ;
#24 = EDGE_CURVE ( 'NONE', #72, #23, #191, .T. ) ;
#25 = EDGE_CURVE ( 'NONE', #234, #18, #264, .T. ) ;
#26 = DIRECTION ( 'NONE',  ( -0.000000000000000000, -0.000000000000000000, -1.000000000000000000 ) ) ;
#27 =( NAMED_UNIT ( * ) PLANE_ANGLE_UNIT ( ) SI_UNIT ( $, .RADIAN. ) );
#28 = ORIENTED_EDGE ( 'NONE', *, *, #267, .F. ) ;
#29 = ORIENTED_EDGE ( 'NONE', *, *, #243, .T. ) ;
#30 =( LENGTH_UNIT ( ) NAMED_UNIT ( * ) SI_UNIT ( $, .METRE. ) );
#31 = PRODUCT_CONTEXT ( 'NONE', #298, 'mechanical' ) ;
#32 = VECTOR ( 'NONE', #225, 39.37007874015748854 ) ;
#33 = LENGTH_MEASURE_WITH_UNIT ( LENGTH_MEASURE( 0.02539999999999999897 ), #30 );
#34 =( GEOMETRIC_REPRESENTATION_CONTEXT ( 3 ) GLOBAL_UNCERTAINTY_ASSIGNED_CONTEXT ( ( #10 ) ) GLOBAL_UNIT_ASSIGNED_CONTEXT ( ( #222, #131, #291 ) ) REPRESENTATION_CONTEXT ( 'NONE', 'WORKASPACE' ) );
#35 = EDGE_CURVE ( 'NONE', #117, #72, #61, .T. ) ;
#36 = CYLINDRICAL_SURFACE ( 'NONE', #75, 0.2362204999999999999 ) ;
#37 = STYLED_ITEM ( 'NONE', ( #103 ), #155 ) ;
#38 = PRODUCT_RELATED_PRODUCT_CATEGORY ( 'part', '', ( #208 ) ) ;
#39 = CIRCLE ( 'NONE', #204, 0.2359842795000000049 ) ;
#40 = PRESENTATION_STYLE_ASSIGNMENT (( #175 ) ) ;
#41 = FILL_AREA_STYLE_COLOUR ( '', #241 ) ;
#42 = DIRECTION ( 'NONE',  ( -1.224646799147353454E-16, -0.000000000000000000, -1.000000000000000000 ) ) ;
#43 = DIRECTION ( 'NONE',  ( -0.000000000000000000, -0.000000000000000000, -1.000000000000000000 ) ) ;
#44 = DIRECTION ( 'NONE',  ( 1.224646799147353454E-16, 0.000000000000000000, 1.000000000000000000 ) ) ;
#45 = FACE_OUTER_BOUND ( 'NONE', #3, .T. ) ;
#46 = ORIENTED_EDGE ( 'NONE', *, *, #151, .F. ) ;
#47 = LINE ( 'NONE', #256, #60 ) ;
#48 = DIRECTION ( 'NONE',  ( -1.000000000000000000, 0.000000000000000000, 0.000000000000000000 ) ) ;
#49 = EDGE_CURVE ( 'NONE', #281, #220, #68, .T. ) ;
#50 = UNCERTAINTY_MEASURE_WITH_UNIT (LENGTH_MEASURE( 1.000000000000000082E-05 ), #123, 'distance_accuracy_value', 'NONE');
#51 = DIRECTION ( 'NONE',  ( 1.000000000000000000, 0.000000000000000000, 0.000000000000000000 ) ) ;
#52 = ORIENTED_EDGE ( 'NONE', *, *, #197, .F. ) ;
#53 = CARTESIAN_POINT ( 'NONE',  ( 0.2359842795000001436, 0.000000000000000000, 1.181102000000000096 ) ) ;
#54 = DIRECTION ( 'NONE',  ( -1.224646799147353454E-16, -0.000000000000000000, -1.000000000000000000 ) ) ;
#55 = ORIENTED_EDGE ( 'NONE', *, *, #228, .T. ) ;
#56 = AXIS2_PLACEMENT_3D ( 'NONE', #183, #141, #73 ) ;
#57 = APPLICATION_PROTOCOL_DEFINITION ( 'draft international standard', 'automotive_design', 1998, #262 ) ;
#58 = AXIS2_PLACEMENT_3D ( 'NONE', #200, #110, #272 ) ;
#59 =( NAMED_UNIT ( * ) SI_UNIT ( $, .STERADIAN. ) SOLID_ANGLE_UNIT ( ) );
#60 = VECTOR ( 'NONE', #275, 39.37007874015747433 ) ;
#61 = CIRCLE ( 'NONE', #171, 0.2359842795000000049 ) ;
#62 = ADVANCED_FACE ( 'NONE', ( #187 ), #203, .T. ) ;
#63 = ADVANCED_FACE ( 'NONE', ( #69 ), #229, .T. ) ;
#64 = CARTESIAN_POINT ( 'NONE',  ( 0.000000000000000000, 0.000000000000000000, 3.267717000000000649 ) ) ;
#65 = FILL_AREA_STYLE ('',( #41 ) ) ;
#66 = ADVANCED_FACE ( 'NONE', ( #45 ), #266, .T. ) ;
#67 = ORIENTED_EDGE ( 'NONE', *, *, #94, .T. ) ;
#68 = CIRCLE ( 'NONE', #223, 0.2359842795000000049 ) ;
#69 = FACE_OUTER_BOUND ( 'NONE', #166, .T. ) ;
#70 = ORIENTED_EDGE ( 'NONE', *, *, #24, .F. ) ;
#71 = LINE ( 'NONE', #115, #7 ) ;
#72 = VERTEX_POINT ( 'NONE', #165 ) ;
#73 = DIRECTION ( 'NONE',  ( 1.000000000000000000, 0.000000000000000000, 0.000000000000000000 ) ) ;
#74 = DIRECTION ( 'NONE',  ( -1.000000000000000000, 0.000000000000000000, 0.000000000000000000 ) ) ;
#75 = AXIS2_PLACEMENT_3D ( 'NONE', #196, #244, #109 ) ;
#76 = EDGE_CURVE ( 'NONE', #78, #23, #257, .T. ) ;
#77 = CARTESIAN_POINT ( 'NONE',  ( 0.000000000000000000, 0.000000000000000000, 0.000000000000000000 ) ) ;
#78 = VERTEX_POINT ( 'NONE', #122 ) ;
#79 =( CONVERSION_BASED_UNIT ( 'INCH', #33 ) LENGTH_UNIT ( ) NAMED_UNIT ( #105 ) );
#80 = ADVANCED_FACE ( 'NONE', ( #99 ), #284, .T. ) ;
#81 = SURFACE_SIDE_STYLE ('',( #285 ) ) ;
#82 = SURFACE_STYLE_USAGE ( .BOTH. , #81 ) ;
#83 =( GEOMETRIC_REPRESENTATION_CONTEXT ( 3 ) GLOBAL_UNCERTAINTY_ASSIGNED_CONTEXT ( ( #50 ) ) GLOBAL_UNIT_ASSIGNED_CONTEXT ( ( #123, #27, #263 ) ) REPRESENTATION_CONTEXT ( 'NONE', 'WORKASPACE' ) );
#84 = DIRECTION ( 'NONE',  ( 0.000000000000000000, 0.000000000000000000, -1.000000000000000000 ) ) ;
#85 = SURFACE_SIDE_STYLE ('',( #198 ) ) ;
#86 = CARTESIAN_POINT ( 'NONE',  ( 0.000000000000000000, 0.000000000000000000, 0.000000000000000000 ) ) ;
#87 = ORIENTED_EDGE ( 'NONE', *, *, #25, .T. ) ;
#88 = VERTEX_POINT ( 'NONE', #213 ) ;
#89 = LINE ( 'NONE', #278, #290 ) ;
#90 = PRESENTATION_LAYER_ASSIGNMENT (  '', '', ( #37 ) ) ;
#91 = FACE_OUTER_BOUND ( 'NONE', #19, .T. ) ;
#92 = ORIENTED_EDGE ( 'NONE', *, *, #35, .F. ) ;
#93 = AXIS2_PLACEMENT_3D ( 'NONE', #158, #43, #48 ) ;
#94 = EDGE_CURVE ( 'NONE', #78, #279, #5, .T. ) ;
#95 = CARTESIAN_POINT ( 'NONE',  ( 0.2362205000000001665, 2.892866792179874496E-17, 1.182441673027071039 ) ) ;
#96 = LINE ( 'NONE', #22, #32 ) ;
#97 = DIRECTION ( 'NONE',  ( -1.000000000000000000, 0.000000000000000000, 1.224646799147353454E-16 ) ) ;
#98 = CIRCLE ( 'NONE', #246, 0.2212205000000019295 ) ;
#99 = FACE_OUTER_BOUND ( 'NONE', #297, .T. ) ;
#100 = ORIENTED_EDGE ( 'NONE', *, *, #243, .F. ) ;
#101 = AXIS2_PLACEMENT_3D ( 'NONE', #160, #205, #253 ) ;
#102 = EDGE_CURVE ( 'NONE', #23, #88, #215, .T. ) ;
#103 = PRESENTATION_STYLE_ASSIGNMENT (( #82 ) ) ;
#104 = EDGE_CURVE ( 'NONE', #220, #281, #39, .T. ) ;
#105 = DIMENSIONAL_EXPONENTS ( 1.000000000000000000, 0.000000000000000000, 0.000000000000000000, 0.000000000000000000, 0.000000000000000000, 0.000000000000000000, 0.000000000000000000 ) ;
#106 = LENGTH_MEASURE_WITH_UNIT ( LENGTH_MEASURE( 0.02539999999999999897 ), #233 );
#107 = DIMENSIONAL_EXPONENTS ( 1.000000000000000000, 0.000000000000000000, 0.000000000000000000, 0.000000000000000000, 0.000000000000000000, 0.000000000000000000, 0.000000000000000000 ) ;
#108 = AXIS2_PLACEMENT_3D ( 'NONE', #287, #14, #15 ) ;
#109 = DIRECTION ( 'NONE',  ( -1.000000000000000000, 0.000000000000000000, 0.000000000000000000 ) ) ;
#110 = DIRECTION ( 'NONE',  ( -1.224646799147353454E-16, -0.000000000000000000, -1.000000000000000000 ) ) ;
#111 = PRODUCT_DEFINITION_FORMATION_WITH_SPECIFIED_SOURCE ( 'ANY', '', #208, .NOT_KNOWN. ) ;
#112 = ORIENTED_EDGE ( 'NONE', *, *, #269, .T. ) ;
#113 = EDGE_CURVE ( 'NONE', #72, #117, #219, .T. ) ;
#114 = AXIS2_PLACEMENT_3D ( 'NONE', #296, #184, #231 ) ;
#115 = CARTESIAN_POINT ( 'NONE',  ( 0.2359842795000000049, 2.889973925387693713E-17, -2.889973925387694330E-17 ) ) ;
#116 = DIRECTION ( 'NONE',  ( -1.000000000000000000, 0.000000000000000000, 0.000000000000000000 ) ) ;
#117 = VERTEX_POINT ( 'NONE', #11 ) ;
#118 = PRESENTATION_LAYER_ASSIGNMENT (  '', '', ( #255 ) ) ;
#119 = CARTESIAN_POINT ( 'NONE',  ( 0.2212205000000019295, 2.709169772307794108E-17, 3.267717000000000649 ) ) ;
#120 = ORIENTED_EDGE ( 'NONE', *, *, #49, .T. ) ;
#121 = CARTESIAN_POINT ( 'NONE',  ( -0.2359842795000000049, 0.000000000000000000, 5.779947850775388659E-17 ) ) ;
#122 = CARTESIAN_POINT ( 'NONE',  ( 0.2362204999999999999, 2.892866792179872647E-17, 3.252717000000002301 ) ) ;
#123 =( CONVERSION_BASED_UNIT ( 'INCH', #106 ) LENGTH_UNIT ( ) NAMED_UNIT ( #239 ) );
#124 = ORIENTED_EDGE ( 'NONE', *, *, #269, .F. ) ;
#125 = CLOSED_SHELL ( 'NONE', ( #80, #181, #66, #8, #129, #63, #133, #216, #62, #161 ) ) ;
#126 = ORIENTED_EDGE ( 'NONE', *, *, #24, .T. ) ;
#127 = FILL_AREA_STYLE_COLOUR ( '', #180 ) ;
#128 = CARTESIAN_POINT ( 'NONE',  ( 0.000000000000000000, 0.000000000000000000, 0.000000000000000000 ) ) ;
#129 = ADVANCED_FACE ( 'NONE', ( #195 ), #36, .T. ) ;
#130 = VECTOR ( 'NONE', #210, 39.37007874015748143 ) ;
#131 =( NAMED_UNIT ( * ) PLANE_ANGLE_UNIT ( ) SI_UNIT ( $, .RADIAN. ) );
#132 = DIRECTION ( 'NONE',  ( -1.224646799147353454E-16, -0.000000000000000000, -1.000000000000000000 ) ) ;
#133 = ADVANCED_FACE ( 'NONE', ( #238 ), #167, .T. ) ;
#134 = ORIENTED_EDGE ( 'NONE', *, *, #197, .T. ) ;
#135 = AXIS2_PLACEMENT_3D ( 'NONE', #128, #9, #170 ) ;
#136 = VECTOR ( 'NONE', #26, 39.37007874015748143 ) ;
#137 = MANIFOLD_SOLID_BREP ( 'Cut-Revolve1', #125 ) ;
#138 = ORIENTED_EDGE ( 'NONE', *, *, #102, .F. ) ;
#139 = DIRECTION ( 'NONE',  ( 1.000000000000000000, 0.000000000000000000, 0.000000000000000000 ) ) ;
#140 = ORIENTED_EDGE ( 'NONE', *, *, #235, .F. ) ;
#141 = DIRECTION ( 'NONE',  ( 0.000000000000000000, 0.000000000000000000, -1.000000000000000000 ) ) ;
#142 = CARTESIAN_POINT ( 'NONE',  ( 3.539197317345352573E-33, 0.000000000000000000, 2.889973925387694330E-17 ) ) ;
#143 = AXIS2_PLACEMENT_3D ( 'NONE', #64, #84, #288 ) ;
#144 = DIRECTION ( 'NONE',  ( 1.000000000000000000, 0.000000000000000000, 0.000000000000000000 ) ) ;
#145 = CARTESIAN_POINT ( 'NONE',  ( 0.2362204999999999999, 2.892866792179872647E-17, 3.267717000000000649 ) ) ;
#146 = ORIENTED_EDGE ( 'NONE', *, *, #267, .T. ) ;
#147 = DIRECTION ( 'NONE',  ( -1.224646799147353454E-16, -0.000000000000000000, -1.000000000000000000 ) ) ;
#148 = ORIENTED_EDGE ( 'NONE', *, *, #35, .T. ) ;
#149 = APPLICATION_PROTOCOL_DEFINITION ( 'draft international standard', 'automotive_design', 1998, #298 ) ;
#150 = MECHANICAL_DESIGN_GEOMETRIC_PRESENTATION_REPRESENTATION (  '', ( #255 ), #34 ) ;
#151 = EDGE_CURVE ( 'NONE', #117, #281, #12, .T. ) ;
#152 = CARTESIAN_POINT ( 'NONE',  ( -0.2359842795000000049, 0.000000000000000000, 2.889973925387694330E-17 ) ) ;
#153 = ORIENTED_EDGE ( 'NONE', *, *, #261, .F. ) ;
#154 = DIRECTION ( 'NONE',  ( 1.000000000000000000, 0.000000000000000000, -0.000000000000000000 ) ) ;
#155 = ADVANCED_BREP_SHAPE_REPRESENTATION ( 'Micro_AEMM-120-3', ( #137, #135 ), #83 ) ;
#156 = EDGE_LOOP ( 'NONE', ( #52, #6, #245, #16 ) ) ;
#157 = DIRECTION ( 'NONE',  ( 1.224646799147353454E-16, 0.000000000000000000, 1.000000000000000000 ) ) ;
#158 = CARTESIAN_POINT ( 'NONE',  ( 0.000000000000000000, 0.000000000000000000, 3.267717000000000649 ) ) ;
#159 = AXIS2_PLACEMENT_3D ( 'NONE', #206, #44, #139 ) ;
#160 = CARTESIAN_POINT ( 'NONE',  ( 0.000000000000000000, 0.000000000000000000, 3.267717000000000649 ) ) ;
#161 = ADVANCED_FACE ( 'NONE', ( #199 ), #293, .F. ) ;
#162 = CARTESIAN_POINT ( 'NONE',  ( -0.2212205000000019295, 0.000000000000000000, 3.267717000000000649 ) ) ;
#163 = ORIENTED_EDGE ( 'NONE', *, *, #251, .T. ) ;
#164 = DIRECTION ( 'NONE',  ( 0.7071067811865474617, 8.659560562354932858E-17, -0.7071067811865474617 ) ) ;
#165 = CARTESIAN_POINT ( 'NONE',  ( 0.2359842795000001436, 0.000000000000000000, 1.181102000000000096 ) ) ;
#166 = EDGE_LOOP ( 'NONE', ( #87, #146 ) ) ;
#167 = CONICAL_SURFACE ( 'NONE', #143, 0.2212205000000019295, 0.7853981633974482790 ) ;
#168 = DIRECTION ( 'NONE',  ( 0.000000000000000000, 0.000000000000000000, 1.000000000000000000 ) ) ;
#169 = CIRCLE ( 'NONE', #56, 0.2362204999999999999 ) ;
#170 = DIRECTION ( 'NONE',  ( 1.000000000000000000, 0.000000000000000000, 0.000000000000000000 ) ) ;
#171 = AXIS2_PLACEMENT_3D ( 'NONE', #227, #54, #116 ) ;
#172 = ORIENTED_EDGE ( 'NONE', *, *, #76, .F. ) ;
#173 = AXIS2_PLACEMENT_3D ( 'NONE', #86, #176, #154 ) ;
#174 = ORIENTED_EDGE ( 'NONE', *, *, #104, .T. ) ;
#175 = SURFACE_STYLE_USAGE ( .BOTH. , #85 ) ;
#176 = DIRECTION ( 'NONE',  ( 0.000000000000000000, 0.000000000000000000, 1.000000000000000000 ) ) ;
#177 = DIRECTION ( 'NONE',  ( -1.224646799147353454E-16, -0.000000000000000000, -1.000000000000000000 ) ) ;
#178 = VECTOR ( 'NONE', #164, 39.37007874015748854 ) ;
#179 = ORIENTED_EDGE ( 'NONE', *, *, #113, .F. ) ;
#180 = COLOUR_RGB ( '',0.7921568627450980005, 0.8196078431372548767, 0.9333333333333333481 ) ;
#181 = ADVANCED_FACE ( 'NONE', ( #188 ), #224, .T. ) ;
#182 = AXIS2_PLACEMENT_3D ( 'NONE', #77, #147, #212 ) ;
#183 = CARTESIAN_POINT ( 'NONE',  ( 0.000000000000000000, 0.000000000000000000, 3.252717000000002301 ) ) ;
#184 = DIRECTION ( 'NONE',  ( -1.224646799147353454E-16, -0.000000000000000000, -1.000000000000000000 ) ) ;
#185 = CARTESIAN_POINT ( 'NONE',  ( 0.2359842795000000049, 2.889973925387693713E-17, 0.000000000000000000 ) ) ;
#186 = ORIENTED_EDGE ( 'NONE', *, *, #102, .T. ) ;
#187 = FACE_OUTER_BOUND ( 'NONE', #156, .T. ) ;
#188 = FACE_OUTER_BOUND ( 'NONE', #295, .T. ) ;
#189 = CARTESIAN_POINT ( 'NONE',  ( 0.000000000000000000, 0.000000000000000000, 3.267717000000000649 ) ) ;
#190 = DIRECTION ( 'NONE',  ( -1.224646799147353454E-16, -0.000000000000000000, -1.000000000000000000 ) ) ;
#191 = LINE ( 'NONE', #53, #130 ) ;
#192 = EDGE_LOOP ( 'NONE', ( #172, #67, #55, #138 ) ) ;
#193 = FILL_AREA_STYLE ('',( #127 ) ) ;
#194 = PRODUCT_DEFINITION ( 'UNKNOWN', '', #111, #273 ) ;
#195 = FACE_OUTER_BOUND ( 'NONE', #192, .T. ) ;
#196 = CARTESIAN_POINT ( 'NONE',  ( 0.000000000000000000, 0.000000000000000000, 3.267717000000000649 ) ) ;
#197 = EDGE_CURVE ( 'NONE', #72, #220, #71, .T. ) ;
#198 = SURFACE_STYLE_FILL_AREA ( #65 ) ;
#199 = FACE_OUTER_BOUND ( 'NONE', #1, .T. ) ;
#200 = CARTESIAN_POINT ( 'NONE',  ( 1.448073410051043844E-16, 0.000000000000000000, 1.182441673027071039 ) ) ;
#201 = CARTESIAN_POINT ( 'NONE',  ( 1.446432783766537492E-16, 0.000000000000000000, 1.181102000000000096 ) ) ;
#202 = DIRECTION ( 'NONE',  ( -1.224646799147353454E-16, -0.000000000000000000, -1.000000000000000000 ) ) ;
#203 = CYLINDRICAL_SURFACE ( 'NONE', #114, 0.2359842795000000049 ) ;
#204 = AXIS2_PLACEMENT_3D ( 'NONE', #240, #177, #242 ) ;
#205 = DIRECTION ( 'NONE',  ( 0.000000000000000000, 0.000000000000000000, 1.000000000000000000 ) ) ;
#206 = CARTESIAN_POINT ( 'NONE',  ( 1.446432783766537492E-16, 0.000000000000000000, 1.181102000000000096 ) ) ;
#207 = CARTESIAN_POINT ( 'NONE',  ( 0.000000000000000000, 0.000000000000000000, 3.267717000000000649 ) ) ;
#208 = PRODUCT ( 'Micro_AEMM-120-3', 'Micro_AEMM-120-3', '', ( #31 ) ) ;
#209 = LINE ( 'NONE', #119, #178 ) ;
#210 = DIRECTION ( 'NONE',  ( 0.1736481776669313859, 0.000000000000000000, 0.9848077530122077983 ) ) ;
#211 = ORIENTED_EDGE ( 'NONE', *, *, #261, .T. ) ;
#212 = DIRECTION ( 'NONE',  ( -1.000000000000000000, 0.000000000000000000, 1.224646799147353454E-16 ) ) ;
#213 = CARTESIAN_POINT ( 'NONE',  ( -0.2362204999999998611, 0.000000000000000000, 1.182441673027071039 ) ) ;
#214 = SHAPE_DEFINITION_REPRESENTATION ( #265, #155 ) ;
#215 = CIRCLE ( 'NONE', #58, 0.2362204999999999999 ) ;
#216 = ADVANCED_FACE ( 'NONE', ( #20 ), #218, .T. ) ;
#217 =( NAMED_UNIT ( * ) PLANE_ANGLE_UNIT ( ) SI_UNIT ( $, .RADIAN. ) );
#218 = CONICAL_SURFACE ( 'NONE', #252, 0.2359842795000000049, 0.1745329251994338915 ) ;
#219 = CIRCLE ( 'NONE', #286, 0.2359842795000000049 ) ;
#220 = VERTEX_POINT ( 'NONE', #185 ) ;
#221 = ORIENTED_EDGE ( 'NONE', *, *, #251, .F. ) ;
#222 =( CONVERSION_BASED_UNIT ( 'INCH', #274 ) LENGTH_UNIT ( ) NAMED_UNIT ( #107 ) );
#223 = AXIS2_PLACEMENT_3D ( 'NONE', #142, #21, #97 ) ;
#224 = CONICAL_SURFACE ( 'NONE', #159, 0.2359842795000000049, 0.1745329251994338915 ) ;
#225 = DIRECTION ( 'NONE',  ( -0.7071067811865474617, 0.000000000000000000, -0.7071067811865474617 ) ) ;
#226 = CARTESIAN_POINT ( 'NONE',  ( 0.2212205000000019295, 2.801018282243833685E-17, 3.267717000000000649 ) ) ;
#227 = CARTESIAN_POINT ( 'NONE',  ( 1.446432783766537492E-16, 0.000000000000000000, 1.181102000000000096 ) ) ;
#228 = EDGE_CURVE ( 'NONE', #279, #88, #89, .T. ) ;
#229 = PLANE ( 'NONE',  #101 ) ;
#230 = CARTESIAN_POINT ( 'NONE',  ( -0.2362204999999999999, 0.000000000000000000, 3.252717000000002301 ) ) ;
#231 = DIRECTION ( 'NONE',  ( -1.000000000000000000, 0.000000000000000000, 1.224646799147353454E-16 ) ) ;
#232 = ORIENTED_EDGE ( 'NONE', *, *, #228, .F. ) ;
#233 =( LENGTH_UNIT ( ) NAMED_UNIT ( * ) SI_UNIT ( $, .METRE. ) );
#234 = VERTEX_POINT ( 'NONE', #162 ) ;
#235 = EDGE_CURVE ( 'NONE', #117, #88, #47, .T. ) ;
#236 = AXIS2_PLACEMENT_3D ( 'NONE', #189, #282, #74 ) ;
#237 = MECHANICAL_DESIGN_GEOMETRIC_PRESENTATION_REPRESENTATION (  '', ( #37 ), #268 ) ;
#238 = FACE_OUTER_BOUND ( 'NONE', #254, .T. ) ;
#239 = DIMENSIONAL_EXPONENTS ( 1.000000000000000000, 0.000000000000000000, 0.000000000000000000, 0.000000000000000000, 0.000000000000000000, 0.000000000000000000, 0.000000000000000000 ) ;
#240 = CARTESIAN_POINT ( 'NONE',  ( 3.539197317345352573E-33, 0.000000000000000000, 2.889973925387694330E-17 ) ) ;
#241 = COLOUR_RGB ( '',0.7921568627450980005, 0.8196078431372548767, 0.9333333333333333481 ) ;
#242 = DIRECTION ( 'NONE',  ( -1.000000000000000000, 0.000000000000000000, 1.224646799147353454E-16 ) ) ;
#243 = EDGE_CURVE ( 'NONE', #279, #78, #169, .T. ) ;
#244 = DIRECTION ( 'NONE',  ( -0.000000000000000000, -0.000000000000000000, -1.000000000000000000 ) ) ;
#245 = ORIENTED_EDGE ( 'NONE', *, *, #151, .T. ) ;
#246 = AXIS2_PLACEMENT_3D ( 'NONE', #2, #283, #51 ) ;
#247 = AXIS2_PLACEMENT_3D ( 'NONE', #249, #202, #144 ) ;
#248 = AXIS2_PLACEMENT_3D ( 'NONE', #207, #168, #259 ) ;
#249 = CARTESIAN_POINT ( 'NONE',  ( 1.448073410051043844E-16, 0.000000000000000000, 1.182441673027071039 ) ) ;
#250 = CYLINDRICAL_SURFACE ( 'NONE', #93, 0.2362204999999999999 ) ;
#251 = EDGE_CURVE ( 'NONE', #234, #279, #96, .T. ) ;
#252 = AXIS2_PLACEMENT_3D ( 'NONE', #201, #157, #299 ) ;
#253 = DIRECTION ( 'NONE',  ( 1.000000000000000000, 0.000000000000000000, -0.000000000000000000 ) ) ;
#254 = EDGE_LOOP ( 'NONE', ( #153, #258, #163, #260 ) ) ;
#255 = STYLED_ITEM ( 'NONE', ( #40 ), #137 ) ;
#256 = CARTESIAN_POINT ( 'NONE',  ( -0.2359842794999998661, 2.889973925387693713E-17, 1.181102000000000096 ) ) ;
#257 = LINE ( 'NONE', #145, #136 ) ;
#258 = ORIENTED_EDGE ( 'NONE', *, *, #25, .F. ) ;
#259 = DIRECTION ( 'NONE',  ( 1.000000000000000000, 0.000000000000000000, 0.000000000000000000 ) ) ;
#260 = ORIENTED_EDGE ( 'NONE', *, *, #94, .F. ) ;
#261 = EDGE_CURVE ( 'NONE', #18, #78, #209, .T. ) ;
#262 = APPLICATION_CONTEXT ( 'automotive_design' ) ;
#263 =( NAMED_UNIT ( * ) SI_UNIT ( $, .STERADIAN. ) SOLID_ANGLE_UNIT ( ) );
#264 = CIRCLE ( 'NONE', #248, 0.2212205000000019295 ) ;
#265 = PRODUCT_DEFINITION_SHAPE ( 'NONE', 'NONE',  #194 ) ;
#266 = CONICAL_SURFACE ( 'NONE', #236, 0.2212205000000019295, 0.7853981633974482790 ) ;
#267 = EDGE_CURVE ( 'NONE', #18, #234, #98, .T. ) ;
#268 =( GEOMETRIC_REPRESENTATION_CONTEXT ( 3 ) GLOBAL_UNCERTAINTY_ASSIGNED_CONTEXT ( ( #270 ) ) GLOBAL_UNIT_ASSIGNED_CONTEXT ( ( #79, #217, #59 ) ) REPRESENTATION_CONTEXT ( 'NONE', 'WORKASPACE' ) );
#269 = EDGE_CURVE ( 'NONE', #88, #23, #292, .T. ) ;
#270 = UNCERTAINTY_MEASURE_WITH_UNIT (LENGTH_MEASURE( 1.000000000000000082E-05 ), #79, 'distance_accuracy_value', 'NONE');
#271 =( LENGTH_UNIT ( ) NAMED_UNIT ( * ) SI_UNIT ( $, .METRE. ) );
#272 = DIRECTION ( 'NONE',  ( 1.000000000000000000, 0.000000000000000000, 0.000000000000000000 ) ) ;
#273 = PRODUCT_DEFINITION_CONTEXT ( 'detailed design', #262, 'design' ) ;
#274 = LENGTH_MEASURE_WITH_UNIT ( LENGTH_MEASURE( 0.02539999999999999897 ), #271 );
#275 = DIRECTION ( 'NONE',  ( -0.1736481776669311916, 2.126576849575783316E-17, 0.9848077530122080203 ) ) ;
#276 = EDGE_LOOP ( 'NONE', ( #140, #179, #126, #186 ) ) ;
#277 = ORIENTED_EDGE ( 'NONE', *, *, #49, .F. ) ;
#278 = CARTESIAN_POINT ( 'NONE',  ( -0.2362204999999999999, 0.000000000000000000, 3.267717000000000649 ) ) ;
#279 = VERTEX_POINT ( 'NONE', #230 ) ;
#280 = DIRECTION ( 'NONE',  ( -0.000000000000000000, -0.000000000000000000, -1.000000000000000000 ) ) ;
#281 = VERTEX_POINT ( 'NONE', #121 ) ;
#282 = DIRECTION ( 'NONE',  ( 0.000000000000000000, 0.000000000000000000, -1.000000000000000000 ) ) ;
#283 = DIRECTION ( 'NONE',  ( 0.000000000000000000, 0.000000000000000000, 1.000000000000000000 ) ) ;
#284 = CYLINDRICAL_SURFACE ( 'NONE', #182, 0.2359842795000000049 ) ;
#285 = SURFACE_STYLE_FILL_AREA ( #193 ) ;
#286 = AXIS2_PLACEMENT_3D ( 'NONE', #294, #42, #289 ) ;
#287 = CARTESIAN_POINT ( 'NONE',  ( 0.000000000000000000, 0.000000000000000000, 3.252717000000002301 ) ) ;
#288 = DIRECTION ( 'NONE',  ( -1.000000000000000000, 0.000000000000000000, 0.000000000000000000 ) ) ;
#289 = DIRECTION ( 'NONE',  ( -1.000000000000000000, 0.000000000000000000, 0.000000000000000000 ) ) ;
#290 = VECTOR ( 'NONE', #280, 39.37007874015748143 ) ;
#291 =( NAMED_UNIT ( * ) SI_UNIT ( $, .STERADIAN. ) SOLID_ANGLE_UNIT ( ) );
#292 = CIRCLE ( 'NONE', #247, 0.2362204999999999999 ) ;
#293 = PLANE ( 'NONE',  #173 ) ;
#294 = CARTESIAN_POINT ( 'NONE',  ( 1.446432783766537492E-16, 0.000000000000000000, 1.181102000000000096 ) ) ;
#295 = EDGE_LOOP ( 'NONE', ( #92, #13, #112, #70 ) ) ;
#296 = CARTESIAN_POINT ( 'NONE',  ( 0.000000000000000000, 0.000000000000000000, 0.000000000000000000 ) ) ;
#297 = EDGE_LOOP ( 'NONE', ( #148, #134, #277, #46 ) ) ;
#298 = APPLICATION_CONTEXT ( 'automotive_design' ) ;
#299 = DIRECTION ( 'NONE',  ( 1.000000000000000000, 0.000000000000000000, 0.000000000000000000 ) ) ;
ENDSEC;
END-ISO-10303-21;
