ISO-10303-21;
HEADER;
FILE_DESCRIPTION (( 'STEP AP214' ),
    '1' );
FILE_NAME ('59945.STEP',
    '2023-06-23T00:14:05',
    ( '' ),
    ( '' ),
    'SwSTEP 2.0',
    'SolidWorks 2023',
    '' );
FILE_SCHEMA (( 'AUTOMOTIVE_DESIGN' ));
ENDSEC;

DATA;
#1 = SURFACE_SIDE_STYLE ('',( #157 ) ) ;
#2 = DIRECTION ( 'NONE',  ( -3.265724797726275178E-17, 1.000000000000000000, -0.000000000000000000 ) ) ;
#3 = PRESENTATION_LAYER_ASSIGNMENT (  '', '', ( #201 ) ) ;
#4 = ORIENTED_EDGE ( 'NONE', *, *, #206, .F. ) ;
#5 = DIMENSIONAL_EXPONENTS ( 1.000000000000000000, 0.000000000000000000, 0.000000000000000000, 0.000000000000000000, 0.000000000000000000, 0.000000000000000000, 0.000000000000000000 ) ;
#6 =( NAMED_UNIT ( * ) SI_UNIT ( $, .STERADIAN. ) SOLID_ANGLE_UNIT ( ) );
#7 = VERTEX_POINT ( 'NONE', #59 ) ;
#8 = EDGE_CURVE ( 'NONE', #115, #225, #50, .T. ) ;
#9 = CARTESIAN_POINT ( 'NONE',  ( 0.000000000000000000, 0.000000000000000000, -0.2500000000000000000 ) ) ;
#10 = PRESENTATION_STYLE_ASSIGNMENT (( #238 ) ) ;
#11 = FACE_OUTER_BOUND ( 'NONE', #308, .T. ) ;
#12 =( LENGTH_UNIT ( ) NAMED_UNIT ( * ) SI_UNIT ( $, .METRE. ) );
#13 = ADVANCED_FACE ( 'NONE', ( #256 ), #66, .T. ) ;
#14 = FACE_OUTER_BOUND ( 'NONE', #279, .T. ) ;
#15 = COLOUR_RGB ( '',0.7921568627450980005, 0.8196078431372548767, 0.9333333333333333481 ) ;
#16 = SURFACE_STYLE_FILL_AREA ( #197 ) ;
#17 = LINE ( 'NONE', #300, #194 ) ;
#18 = UNCERTAINTY_MEASURE_WITH_UNIT (LENGTH_MEASURE( 1.000000000000000082E-05 ), #160, 'distance_accuracy_value', 'NONE');
#19 = LENGTH_MEASURE_WITH_UNIT ( LENGTH_MEASURE( 0.02539999999999999897 ), #12 );
#20 = ADVANCED_FACE ( 'NONE', ( #14 ), #70, .F. ) ;
#21 = AXIS2_PLACEMENT_3D ( 'NONE', #30, #133, #180 ) ;
#22 = PRODUCT_CONTEXT ( 'NONE', #270, 'mechanical' ) ;
#23 = DIRECTION ( 'NONE',  ( 0.000000000000000000, 0.000000000000000000, -1.000000000000000000 ) ) ;
#24 = DIRECTION ( 'NONE',  ( 0.000000000000000000, -1.000000000000000000, -0.000000000000000000 ) ) ;
#25 = CARTESIAN_POINT ( 'NONE',  ( 0.000000000000000000, 0.000000000000000000, 0.000000000000000000 ) ) ;
#26 = UNCERTAINTY_MEASURE_WITH_UNIT (LENGTH_MEASURE( 1.000000000000000082E-05 ), #190, 'distance_accuracy_value', 'NONE');
#27 = ORIENTED_EDGE ( 'NONE', *, *, #8, .F. ) ;
#28 =( NAMED_UNIT ( * ) SI_UNIT ( $, .STERADIAN. ) SOLID_ANGLE_UNIT ( ) );
#29 = COLOUR_RGB ( '',0.7921568627450980005, 0.8196078431372548767, 0.9333333333333333481 ) ;
#30 = CARTESIAN_POINT ( 'NONE',  ( 0.000000000000000000, 0.6250000000000000000, 0.000000000000000000 ) ) ;
#31 = VERTEX_POINT ( 'NONE', #106 ) ;
#32 = UNCERTAINTY_MEASURE_WITH_UNIT (LENGTH_MEASURE( 1.000000000000000082E-05 ), #42, 'distance_accuracy_value', 'NONE');
#33 = LENGTH_MEASURE_WITH_UNIT ( LENGTH_MEASURE( 0.02539999999999999897 ), #255 );
#34 = AXIS2_PLACEMENT_3D ( 'NONE', #90, #94, #189 ) ;
#35 = STYLED_ITEM ( 'NONE', ( #275 ), #239 ) ;
#36 = CARTESIAN_POINT ( 'NONE',  ( 0.000000000000000000, 0.000000000000000000, 0.000000000000000000 ) ) ;
#37 = SURFACE_STYLE_USAGE ( .BOTH. , #119 ) ;
#38 = SURFACE_STYLE_FILL_AREA ( #64 ) ;
#39 = SURFACE_STYLE_FILL_AREA ( #258 ) ;
#40 =( LENGTH_UNIT ( ) NAMED_UNIT ( * ) SI_UNIT ( $, .METRE. ) );
#41 = CARTESIAN_POINT ( 'NONE',  ( 0.2500000000000000000, 0.6250000000000000000, 3.061616997868383634E-17 ) ) ;
#42 =( CONVERSION_BASED_UNIT ( 'INCH', #260 ) LENGTH_UNIT ( ) NAMED_UNIT ( #185 ) );
#43 =( NAMED_UNIT ( * ) SI_UNIT ( $, .STERADIAN. ) SOLID_ANGLE_UNIT ( ) );
#44 = CARTESIAN_POINT ( 'NONE',  ( 0.000000000000000000, 0.000000000000000000, 0.000000000000000000 ) ) ;
#45 = AXIS2_PLACEMENT_3D ( 'NONE', #264, #193, #104 ) ;
#46 = MECHANICAL_DESIGN_GEOMETRIC_PRESENTATION_REPRESENTATION (  '', ( #259 ), #195 ) ;
#47 = PLANE ( 'NONE',  #54 ) ;
#48 = DIRECTION ( 'NONE',  ( 0.000000000000000000, 0.000000000000000000, -1.000000000000000000 ) ) ;
#49 = SURFACE_SIDE_STYLE ('',( #120 ) ) ;
#50 = CIRCLE ( 'NONE', #34, 0.2500000000000000555 ) ;
#51 = APPLICATION_PROTOCOL_DEFINITION ( 'draft international standard', 'automotive_design', 1998, #293 ) ;
#52 = PRODUCT_RELATED_PRODUCT_CATEGORY ( 'part', '', ( #65 ) ) ;
#53 = ORIENTED_EDGE ( 'NONE', *, *, #154, .T. ) ;
#54 = AXIS2_PLACEMENT_3D ( 'NONE', #96, #174, #172 ) ;
#55 = VERTEX_POINT ( 'NONE', #41 ) ;
#56 = PRESENTATION_STYLE_ASSIGNMENT (( #116 ) ) ;
#57 = ADVANCED_FACE ( 'NONE', ( #196 ), #128, .T. ) ;
#58 = DIMENSIONAL_EXPONENTS ( 1.000000000000000000, 0.000000000000000000, 0.000000000000000000, 0.000000000000000000, 0.000000000000000000, 0.000000000000000000, 0.000000000000000000 ) ;
#59 = CARTESIAN_POINT ( 'NONE',  ( 0.000000000000000000, 0.6250000000000000000, -0.2500000000000000000 ) ) ;
#60 = CYLINDRICAL_SURFACE ( 'NONE', #100, 0.2500000000000000555 ) ;
#61 =( GEOMETRIC_REPRESENTATION_CONTEXT ( 3 ) GLOBAL_UNCERTAINTY_ASSIGNED_CONTEXT ( ( #18 ) ) GLOBAL_UNIT_ASSIGNED_CONTEXT ( ( #160, #304, #77 ) ) REPRESENTATION_CONTEXT ( 'NONE', 'WORKASPACE' ) );
#62 = FILL_AREA_STYLE_COLOUR ( '', #230 ) ;
#63 = EDGE_CURVE ( 'NONE', #31, #108, #17, .T. ) ;
#64 = FILL_AREA_STYLE ('',( #251 ) ) ;
#65 = PRODUCT ( '59945', '59945', '', ( #22 ) ) ;
#66 = CYLINDRICAL_SURFACE ( 'NONE', #297, 0.2500000000000000000 ) ;
#67 = DIMENSIONAL_EXPONENTS ( 1.000000000000000000, 0.000000000000000000, 0.000000000000000000, 0.000000000000000000, 0.000000000000000000, 0.000000000000000000, 0.000000000000000000 ) ;
#68 = DIRECTION ( 'NONE',  ( -0.000000000000000000, -1.000000000000000000, -0.000000000000000000 ) ) ;
#69 =( NAMED_UNIT ( * ) PLANE_ANGLE_UNIT ( ) SI_UNIT ( $, .RADIAN. ) );
#70 = PLANE ( 'NONE',  #45 ) ;
#71 = PRESENTATION_LAYER_ASSIGNMENT (  '', '', ( #35 ) ) ;
#72 =( NAMED_UNIT ( * ) PLANE_ANGLE_UNIT ( ) SI_UNIT ( $, .RADIAN. ) );
#73 =( NAMED_UNIT ( * ) SI_UNIT ( $, .STERADIAN. ) SOLID_ANGLE_UNIT ( ) );
#74 = PRESENTATION_LAYER_ASSIGNMENT (  '', '', ( #253 ) ) ;
#75 = AXIS2_PLACEMENT_3D ( 'NONE', #25, #24, #247 ) ;
#76 = DIRECTION ( 'NONE',  ( -0.000000000000000000, -1.000000000000000000, -0.000000000000000000 ) ) ;
#77 =( NAMED_UNIT ( * ) SI_UNIT ( $, .STERADIAN. ) SOLID_ANGLE_UNIT ( ) );
#78 = ADVANCED_BREP_SHAPE_REPRESENTATION ( '59945', ( #282, #266, #145 ), #235 ) ;
#79 = PRODUCT_DEFINITION_CONTEXT ( 'detailed design', #293, 'design' ) ;
#80 = ORIENTED_EDGE ( 'NONE', *, *, #215, .F. ) ;
#81 = ADVANCED_FACE ( 'NONE', ( #103 ), #219, .T. ) ;
#82 = CIRCLE ( 'NONE', #21, 0.2500000000000000000 ) ;
#83 = LINE ( 'NONE', #199, #151 ) ;
#84 = SHAPE_DEFINITION_REPRESENTATION ( #152, #78 ) ;
#85 = ORIENTED_EDGE ( 'NONE', *, *, #139, .F. ) ;
#86 = ORIENTED_EDGE ( 'NONE', *, *, #173, .F. ) ;
#87 = FILL_AREA_STYLE_COLOUR ( '', #211 ) ;
#88 = ORIENTED_EDGE ( 'NONE', *, *, #241, .T. ) ;
#89 =( NAMED_UNIT ( * ) PLANE_ANGLE_UNIT ( ) SI_UNIT ( $, .RADIAN. ) );
#90 = CARTESIAN_POINT ( 'NONE',  ( -6.123233995736766036E-17, 2.500000000000000000, 0.000000000000000000 ) ) ;
#91 = CIRCLE ( 'NONE', #254, 0.2500000000000000000 ) ;
#92 = DIRECTION ( 'NONE',  ( 0.000000000000000000, 0.000000000000000000, -1.000000000000000000 ) ) ;
#93 = CIRCLE ( 'NONE', #138, 0.2500000000000000000 ) ;
#94 = DIRECTION ( 'NONE',  ( -3.265724797726275178E-17, 1.000000000000000000, -0.000000000000000000 ) ) ;
#95 = CARTESIAN_POINT ( 'NONE',  ( -6.123233995736766036E-17, 2.500000000000000000, 0.000000000000000000 ) ) ;
#96 = CARTESIAN_POINT ( 'NONE',  ( 1.333119806810540253E-34, 0.6250000000000000000, 0.000000000000000000 ) ) ;
#97 = DIRECTION ( 'NONE',  ( -3.265724797726275178E-17, 1.000000000000000000, -0.000000000000000000 ) ) ;
#98 = PRESENTATION_LAYER_ASSIGNMENT (  '', '', ( #210 ) ) ;
#99 = SURFACE_SIDE_STYLE ('',( #16 ) ) ;
#100 = AXIS2_PLACEMENT_3D ( 'NONE', #114, #169, #294 ) ;
#101 =( NAMED_UNIT ( * ) PLANE_ANGLE_UNIT ( ) SI_UNIT ( $, .RADIAN. ) );
#102 = DIRECTION ( 'NONE',  ( 0.000000000000000000, -0.000000000000000000, 1.000000000000000000 ) ) ;
#103 = FACE_OUTER_BOUND ( 'NONE', #306, .T. ) ;
#104 = DIRECTION ( 'NONE',  ( 1.000000000000000000, 3.265724797726275178E-17, 0.000000000000000000 ) ) ;
#105 = UNCERTAINTY_MEASURE_WITH_UNIT (LENGTH_MEASURE( 1.000000000000000082E-05 ), #123, 'distance_accuracy_value', 'NONE');
#106 = CARTESIAN_POINT ( 'NONE',  ( 3.061616997868383018E-17, 0.6250000000000000000, 0.2500000000000000000 ) ) ;
#107 = DIRECTION ( 'NONE',  ( -1.000000000000000000, 0.000000000000000000, 0.000000000000000000 ) ) ;
#108 = VERTEX_POINT ( 'NONE', #130 ) ;
#109 = ORIENTED_EDGE ( 'NONE', *, *, #134, .T. ) ;
#110 = CLOSED_SHELL ( 'NONE', ( #13, #57, #239, #81 ) ) ;
#111 =( GEOMETRIC_REPRESENTATION_CONTEXT ( 3 ) GLOBAL_UNCERTAINTY_ASSIGNED_CONTEXT ( ( #112 ) ) GLOBAL_UNIT_ASSIGNED_CONTEXT ( ( #168, #72, #43 ) ) REPRESENTATION_CONTEXT ( 'NONE', 'WORKASPACE' ) );
#112 = UNCERTAINTY_MEASURE_WITH_UNIT (LENGTH_MEASURE( 1.000000000000000082E-05 ), #168, 'distance_accuracy_value', 'NONE');
#113 = ORIENTED_EDGE ( 'NONE', *, *, #159, .F. ) ;
#114 = CARTESIAN_POINT ( 'NONE',  ( -6.123233995736766036E-17, 2.500000000000000000, 0.000000000000000000 ) ) ;
#115 = VERTEX_POINT ( 'NONE', #203 ) ;
#116 = SURFACE_STYLE_USAGE ( .BOTH. , #140 ) ;
#117 = EDGE_CURVE ( 'NONE', #108, #249, #298, .T. ) ;
#118 = DIRECTION ( 'NONE',  ( -1.000000000000000000, 0.000000000000000000, 0.000000000000000000 ) ) ;
#119 = SURFACE_SIDE_STYLE ('',( #144 ) ) ;
#120 = SURFACE_STYLE_FILL_AREA ( #149 ) ;
#121 = EDGE_CURVE ( 'NONE', #55, #222, #82, .T. ) ;
#122 = FILL_AREA_STYLE_COLOUR ( '', #29 ) ;
#123 =( CONVERSION_BASED_UNIT ( 'INCH', #19 ) LENGTH_UNIT ( ) NAMED_UNIT ( #67 ) );
#124 = CARTESIAN_POINT ( 'NONE',  ( 0.000000000000000000, 0.6250000000000000000, 0.000000000000000000 ) ) ;
#125 = AXIS2_PLACEMENT_3D ( 'NONE', #36, #68, #257 ) ;
#126 = SURFACE_STYLE_USAGE ( .BOTH. , #49 ) ;
#127 = SURFACE_STYLE_USAGE ( .BOTH. , #99 ) ;
#128 = PLANE ( 'NONE',  #162 ) ;
#129 = EDGE_LOOP ( 'NONE', ( #245, #290, #252, #204 ) ) ;
#130 = CARTESIAN_POINT ( 'NONE',  ( 3.061616997868383018E-17, 0.000000000000000000, 0.2500000000000000000 ) ) ;
#131 = CIRCLE ( 'NONE', #248, 0.2500000000000000000 ) ;
#132 = DIRECTION ( 'NONE',  ( 1.000000000000000000, 0.000000000000000000, 0.000000000000000000 ) ) ;
#133 = DIRECTION ( 'NONE',  ( -3.265724797726275178E-17, 1.000000000000000000, -0.000000000000000000 ) ) ;
#134 = EDGE_CURVE ( 'NONE', #249, #108, #91, .T. ) ;
#135 = DIMENSIONAL_EXPONENTS ( 1.000000000000000000, 0.000000000000000000, 0.000000000000000000, 0.000000000000000000, 0.000000000000000000, 0.000000000000000000, 0.000000000000000000 ) ;
#136 = ORIENTED_EDGE ( 'NONE', *, *, #139, .T. ) ;
#137 =( GEOMETRIC_REPRESENTATION_CONTEXT ( 3 ) GLOBAL_UNCERTAINTY_ASSIGNED_CONTEXT ( ( #198 ) ) GLOBAL_UNIT_ASSIGNED_CONTEXT ( ( #176, #261, #73 ) ) REPRESENTATION_CONTEXT ( 'NONE', 'WORKASPACE' ) );
#138 = AXIS2_PLACEMENT_3D ( 'NONE', #250, #146, #228 ) ;
#139 = EDGE_CURVE ( 'NONE', #222, #55, #131, .T. ) ;
#140 = SURFACE_SIDE_STYLE ('',( #38 ) ) ;
#141 = SURFACE_SIDE_STYLE ('',( #39 ) ) ;
#142 = LINE ( 'NONE', #188, #307 ) ;
#143 =( LENGTH_UNIT ( ) NAMED_UNIT ( * ) SI_UNIT ( $, .METRE. ) );
#144 = SURFACE_STYLE_FILL_AREA ( #207 ) ;
#145 = AXIS2_PLACEMENT_3D ( 'NONE', #202, #242, #132 ) ;
#146 = DIRECTION ( 'NONE',  ( -0.000000000000000000, -1.000000000000000000, -0.000000000000000000 ) ) ;
#147 =( NAMED_UNIT ( * ) SI_UNIT ( $, .STERADIAN. ) SOLID_ANGLE_UNIT ( ) );
#148 = PRESENTATION_STYLE_ASSIGNMENT (( #127 ) ) ;
#149 = FILL_AREA_STYLE ('',( #122 ) ) ;
#150 =( NAMED_UNIT ( * ) SI_UNIT ( $, .STERADIAN. ) SOLID_ANGLE_UNIT ( ) );
#151 = VECTOR ( 'NONE', #305, 39.37007874015748143 ) ;
#152 = PRODUCT_DEFINITION_SHAPE ( 'NONE', 'NONE',  #271 ) ;
#153 = CARTESIAN_POINT ( 'NONE',  ( 0.000000000000000000, 0.000000000000000000, 0.000000000000000000 ) ) ;
#154 = EDGE_CURVE ( 'NONE', #7, #249, #83, .T. ) ;
#155 = DIRECTION ( 'NONE',  ( 0.000000000000000000, 0.000000000000000000, -1.000000000000000000 ) ) ;
#156 = ORIENTED_EDGE ( 'NONE', *, *, #117, .T. ) ;
#157 = SURFACE_STYLE_FILL_AREA ( #181 ) ;
#158 = EDGE_LOOP ( 'NONE', ( #164, #88, #53, #183 ) ) ;
#159 = EDGE_CURVE ( 'NONE', #55, #115, #286, .T. ) ;
#160 =( CONVERSION_BASED_UNIT ( 'INCH', #163 ) LENGTH_UNIT ( ) NAMED_UNIT ( #58 ) );
#161 = ORIENTED_EDGE ( 'NONE', *, *, #215, .T. ) ;
#162 = AXIS2_PLACEMENT_3D ( 'NONE', #124, #299, #102 ) ;
#163 = LENGTH_MEASURE_WITH_UNIT ( LENGTH_MEASURE( 0.02539999999999999897 ), #273 );
#164 = ORIENTED_EDGE ( 'NONE', *, *, #63, .F. ) ;
#165 = CARTESIAN_POINT ( 'NONE',  ( 0.2499999999999999722, 2.500000000000000000, 3.061616997868383634E-17 ) ) ;
#166 = DIRECTION ( 'NONE',  ( -0.000000000000000000, -1.000000000000000000, -0.000000000000000000 ) ) ;
#167 = AXIS2_PLACEMENT_3D ( 'NONE', #276, #166, #92 ) ;
#168 =( CONVERSION_BASED_UNIT ( 'INCH', #278 ) LENGTH_UNIT ( ) NAMED_UNIT ( #135 ) );
#169 = DIRECTION ( 'NONE',  ( -3.265724797726275178E-17, 1.000000000000000000, -0.000000000000000000 ) ) ;
#170 = FACE_OUTER_BOUND ( 'NONE', #158, .T. ) ;
#171 = EDGE_LOOP ( 'NONE', ( #85, #288 ) ) ;
#172 = DIRECTION ( 'NONE',  ( -1.000000000000000000, -3.265724797726275178E-17, 0.000000000000000000 ) ) ;
#173 = EDGE_CURVE ( 'NONE', #222, #225, #142, .T. ) ;
#174 = DIRECTION ( 'NONE',  ( -3.265724797726275178E-17, 1.000000000000000000, 0.000000000000000000 ) ) ;
#175 =( GEOMETRIC_REPRESENTATION_CONTEXT ( 3 ) GLOBAL_UNCERTAINTY_ASSIGNED_CONTEXT ( ( #26 ) ) GLOBAL_UNIT_ASSIGNED_CONTEXT ( ( #190, #89, #6 ) ) REPRESENTATION_CONTEXT ( 'NONE', 'WORKASPACE' ) );
#176 =( CONVERSION_BASED_UNIT ( 'INCH', #233 ) LENGTH_UNIT ( ) NAMED_UNIT ( #186 ) );
#177 = CYLINDRICAL_SURFACE ( 'NONE', #274, 0.2500000000000000555 ) ;
#178 = EDGE_LOOP ( 'NONE', ( #136, #200, #80, #86 ) ) ;
#179 = MECHANICAL_DESIGN_GEOMETRIC_PRESENTATION_REPRESENTATION (  '', ( #35 ), #175 ) ;
#180 = DIRECTION ( 'NONE',  ( -1.000000000000000000, 0.000000000000000000, 0.000000000000000000 ) ) ;
#181 = FILL_AREA_STYLE ('',( #301 ) ) ;
#182 = CARTESIAN_POINT ( 'NONE',  ( 0.000000000000000000, 0.000000000000000000, 0.000000000000000000 ) ) ;
#183 = ORIENTED_EDGE ( 'NONE', *, *, #117, .F. ) ;
#184 = CARTESIAN_POINT ( 'NONE',  ( -0.2500000000000000000, 0.6250000000000000000, 0.000000000000000000 ) ) ;
#185 = DIMENSIONAL_EXPONENTS ( 1.000000000000000000, 0.000000000000000000, 0.000000000000000000, 0.000000000000000000, 0.000000000000000000, 0.000000000000000000, 0.000000000000000000 ) ;
#186 = DIMENSIONAL_EXPONENTS ( 1.000000000000000000, 0.000000000000000000, 0.000000000000000000, 0.000000000000000000, 0.000000000000000000, 0.000000000000000000, 0.000000000000000000 ) ;
#187 = CIRCLE ( 'NONE', #167, 0.2500000000000000000 ) ;
#188 = CARTESIAN_POINT ( 'NONE',  ( -0.2500000000000001110, 2.500000000000000000, 0.000000000000000000 ) ) ;
#189 = DIRECTION ( 'NONE',  ( -1.000000000000000000, 0.000000000000000000, 0.000000000000000000 ) ) ;
#190 =( CONVERSION_BASED_UNIT ( 'INCH', #33 ) LENGTH_UNIT ( ) NAMED_UNIT ( #277 ) );
#191 = DIRECTION ( 'NONE',  ( -1.000000000000000000, 0.000000000000000000, 0.000000000000000000 ) ) ;
#192 = FILL_AREA_STYLE_COLOUR ( '', #280 ) ;
#193 = DIRECTION ( 'NONE',  ( 3.265724797726275178E-17, -1.000000000000000000, 0.000000000000000000 ) ) ;
#194 = VECTOR ( 'NONE', #76, 39.37007874015748143 ) ;
#195 =( GEOMETRIC_REPRESENTATION_CONTEXT ( 3 ) GLOBAL_UNCERTAINTY_ASSIGNED_CONTEXT ( ( #236 ) ) GLOBAL_UNIT_ASSIGNED_CONTEXT ( ( #213, #69, #147 ) ) REPRESENTATION_CONTEXT ( 'NONE', 'WORKASPACE' ) );
#196 = FACE_OUTER_BOUND ( 'NONE', #268, .T. ) ;
#197 = FILL_AREA_STYLE ('',( #192 ) ) ;
#198 = UNCERTAINTY_MEASURE_WITH_UNIT (LENGTH_MEASURE( 1.000000000000000082E-05 ), #176, 'distance_accuracy_value', 'NONE');
#199 = CARTESIAN_POINT ( 'NONE',  ( 0.000000000000000000, 0.000000000000000000, -0.2500000000000000000 ) ) ;
#200 = ORIENTED_EDGE ( 'NONE', *, *, #159, .T. ) ;
#201 = STYLED_ITEM ( 'NONE', ( #56 ), #266 ) ;
#202 = CARTESIAN_POINT ( 'NONE',  ( 0.000000000000000000, 0.000000000000000000, 0.000000000000000000 ) ) ;
#203 = CARTESIAN_POINT ( 'NONE',  ( 0.2500000000000000000, 2.500000000000000000, 3.061616997868383634E-17 ) ) ;
#204 = ORIENTED_EDGE ( 'NONE', *, *, #154, .F. ) ;
#205 = CIRCLE ( 'NONE', #263, 0.2500000000000000555 ) ;
#206 = EDGE_CURVE ( 'NONE', #7, #31, #93, .T. ) ;
#207 = FILL_AREA_STYLE ('',( #87 ) ) ;
#208 = ORIENTED_EDGE ( 'NONE', *, *, #173, .T. ) ;
#209 = ADVANCED_FACE ( 'NONE', ( #237 ), #60, .T. ) ;
#210 = STYLED_ITEM ( 'NONE', ( #10 ), #13 ) ;
#211 = COLOUR_RGB ( '',1.000000000000000000, 0.000000000000000000, 0.000000000000000000 ) ;
#212 = DIRECTION ( 'NONE',  ( -3.265724797726275178E-17, 1.000000000000000000, -0.000000000000000000 ) ) ;
#213 =( CONVERSION_BASED_UNIT ( 'INCH', #214 ) LENGTH_UNIT ( ) NAMED_UNIT ( #5 ) );
#214 = LENGTH_MEASURE_WITH_UNIT ( LENGTH_MEASURE( 0.02539999999999999897 ), #40 );
#215 = EDGE_CURVE ( 'NONE', #225, #115, #205, .T. ) ;
#216 = DIRECTION ( 'NONE',  ( -0.000000000000000000, -1.000000000000000000, -0.000000000000000000 ) ) ;
#217 = FACE_OUTER_BOUND ( 'NONE', #171, .T. ) ;
#218 =( NAMED_UNIT ( * ) PLANE_ANGLE_UNIT ( ) SI_UNIT ( $, .RADIAN. ) );
#219 = PLANE ( 'NONE',  #75 ) ;
#220 = DIRECTION ( 'NONE',  ( -3.265724797726275178E-17, 1.000000000000000000, -0.000000000000000000 ) ) ;
#221 = CARTESIAN_POINT ( 'NONE',  ( 0.000000000000000000, 0.6250000000000000000, 0.000000000000000000 ) ) ;
#222 = VERTEX_POINT ( 'NONE', #184 ) ;
#223 = APPLICATION_PROTOCOL_DEFINITION ( 'draft international standard', 'automotive_design', 1998, #270 ) ;
#224 = SURFACE_STYLE_USAGE ( .BOTH. , #1 ) ;
#225 = VERTEX_POINT ( 'NONE', #232 ) ;
#226 = VECTOR ( 'NONE', #212, 39.37007874015748143 ) ;
#227 = DIRECTION ( 'NONE',  ( -0.000000000000000000, -1.000000000000000000, -0.000000000000000000 ) ) ;
#228 = DIRECTION ( 'NONE',  ( 0.000000000000000000, 0.000000000000000000, -1.000000000000000000 ) ) ;
#229 = ORIENTED_EDGE ( 'NONE', *, *, #8, .T. ) ;
#230 = COLOUR_RGB ( '',1.000000000000000000, 0.000000000000000000, 0.000000000000000000 ) ;
#231 =( LENGTH_UNIT ( ) NAMED_UNIT ( * ) SI_UNIT ( $, .METRE. ) );
#232 = CARTESIAN_POINT ( 'NONE',  ( -0.2500000000000001110, 2.500000000000000000, 0.000000000000000000 ) ) ;
#233 = LENGTH_MEASURE_WITH_UNIT ( LENGTH_MEASURE( 0.02539999999999999897 ), #143 );
#234 = STYLED_ITEM ( 'NONE', ( #269 ), #81 ) ;
#235 =( GEOMETRIC_REPRESENTATION_CONTEXT ( 3 ) GLOBAL_UNCERTAINTY_ASSIGNED_CONTEXT ( ( #32 ) ) GLOBAL_UNIT_ASSIGNED_CONTEXT ( ( #42, #101, #28 ) ) REPRESENTATION_CONTEXT ( 'NONE', 'WORKASPACE' ) );
#236 = UNCERTAINTY_MEASURE_WITH_UNIT (LENGTH_MEASURE( 1.000000000000000082E-05 ), #213, 'distance_accuracy_value', 'NONE');
#237 = FACE_OUTER_BOUND ( 'NONE', #178, .T. ) ;
#238 = SURFACE_STYLE_USAGE ( .BOTH. , #141 ) ;
#239 = ADVANCED_FACE ( 'NONE', ( #170 ), #283, .T. ) ;
#240 = PRESENTATION_STYLE_ASSIGNMENT (( #126 ) ) ;
#241 = EDGE_CURVE ( 'NONE', #31, #7, #187, .T. ) ;
#242 = DIRECTION ( 'NONE',  ( 0.000000000000000000, 0.000000000000000000, 1.000000000000000000 ) ) ;
#243 = CLOSED_SHELL ( 'NONE', ( #209, #295, #309, #20 ) ) ;
#244 = MECHANICAL_DESIGN_GEOMETRIC_PRESENTATION_REPRESENTATION (  '', ( #201 ), #111 ) ;
#245 = ORIENTED_EDGE ( 'NONE', *, *, #206, .T. ) ;
#246 = MECHANICAL_DESIGN_GEOMETRIC_PRESENTATION_REPRESENTATION (  '', ( #253 ), #285 ) ;
#247 = DIRECTION ( 'NONE',  ( 0.000000000000000000, 0.000000000000000000, -1.000000000000000000 ) ) ;
#248 = AXIS2_PLACEMENT_3D ( 'NONE', #221, #220, #107 ) ;
#249 = VERTEX_POINT ( 'NONE', #9 ) ;
#250 = CARTESIAN_POINT ( 'NONE',  ( 0.000000000000000000, 0.6250000000000000000, 0.000000000000000000 ) ) ;
#251 = FILL_AREA_STYLE_COLOUR ( '', #15 ) ;
#252 = ORIENTED_EDGE ( 'NONE', *, *, #134, .F. ) ;
#253 = STYLED_ITEM ( 'NONE', ( #148 ), #57 ) ;
#254 = AXIS2_PLACEMENT_3D ( 'NONE', #153, #227, #23 ) ;
#255 =( LENGTH_UNIT ( ) NAMED_UNIT ( * ) SI_UNIT ( $, .METRE. ) );
#256 = FACE_OUTER_BOUND ( 'NONE', #129, .T. ) ;
#257 = DIRECTION ( 'NONE',  ( 0.000000000000000000, 0.000000000000000000, -1.000000000000000000 ) ) ;
#258 = FILL_AREA_STYLE ('',( #62 ) ) ;
#259 = STYLED_ITEM ( 'NONE', ( #240 ), #282 ) ;
#260 = LENGTH_MEASURE_WITH_UNIT ( LENGTH_MEASURE( 0.02539999999999999897 ), #284 );
#261 =( NAMED_UNIT ( * ) PLANE_ANGLE_UNIT ( ) SI_UNIT ( $, .RADIAN. ) );
#262 = MECHANICAL_DESIGN_GEOMETRIC_PRESENTATION_REPRESENTATION (  '', ( #210 ), #137 ) ;
#263 = AXIS2_PLACEMENT_3D ( 'NONE', #95, #2, #118 ) ;
#264 = CARTESIAN_POINT ( 'NONE',  ( 0.2500000000000000000, 2.500000000000000000, 0.000000000000000000 ) ) ;
#265 = DIRECTION ( 'NONE',  ( -0.000000000000000000, -1.000000000000000000, -0.000000000000000000 ) ) ;
#266 = MANIFOLD_SOLID_BREP ( 'Revolve - Tool Body (Straight Shanked)', #243 ) ;
#267 = MECHANICAL_DESIGN_GEOMETRIC_PRESENTATION_REPRESENTATION (  '', ( #234 ), #61 ) ;
#268 = EDGE_LOOP ( 'NONE', ( #4, #292 ) ) ;
#269 = PRESENTATION_STYLE_ASSIGNMENT (( #224 ) ) ;
#270 = APPLICATION_CONTEXT ( 'automotive_design' ) ;
#271 = PRODUCT_DEFINITION ( 'UNKNOWN', '', #303, #79 ) ;
#272 = COLOUR_RGB ( '',1.000000000000000000, 0.000000000000000000, 0.000000000000000000 ) ;
#273 =( LENGTH_UNIT ( ) NAMED_UNIT ( * ) SI_UNIT ( $, .METRE. ) );
#274 = AXIS2_PLACEMENT_3D ( 'NONE', #296, #97, #191 ) ;
#275 = PRESENTATION_STYLE_ASSIGNMENT (( #37 ) ) ;
#276 = CARTESIAN_POINT ( 'NONE',  ( 0.000000000000000000, 0.6250000000000000000, 0.000000000000000000 ) ) ;
#277 = DIMENSIONAL_EXPONENTS ( 1.000000000000000000, 0.000000000000000000, 0.000000000000000000, 0.000000000000000000, 0.000000000000000000, 0.000000000000000000, 0.000000000000000000 ) ;
#278 = LENGTH_MEASURE_WITH_UNIT ( LENGTH_MEASURE( 0.02539999999999999897 ), #231 );
#279 = EDGE_LOOP ( 'NONE', ( #161, #229 ) ) ;
#280 = COLOUR_RGB ( '',1.000000000000000000, 0.000000000000000000, 0.000000000000000000 ) ;
#281 = PRESENTATION_LAYER_ASSIGNMENT (  '', '', ( #259 ) ) ;
#282 = MANIFOLD_SOLID_BREP ( 'Revolve - Cutting Edge', #110 ) ;
#283 = CYLINDRICAL_SURFACE ( 'NONE', #125, 0.2500000000000000000 ) ;
#284 =( LENGTH_UNIT ( ) NAMED_UNIT ( * ) SI_UNIT ( $, .METRE. ) );
#285 =( GEOMETRIC_REPRESENTATION_CONTEXT ( 3 ) GLOBAL_UNCERTAINTY_ASSIGNED_CONTEXT ( ( #105 ) ) GLOBAL_UNIT_ASSIGNED_CONTEXT ( ( #123, #218, #150 ) ) REPRESENTATION_CONTEXT ( 'NONE', 'WORKASPACE' ) );
#286 = LINE ( 'NONE', #165, #226 ) ;
#287 = ORIENTED_EDGE ( 'NONE', *, *, #121, .T. ) ;
#288 = ORIENTED_EDGE ( 'NONE', *, *, #121, .F. ) ;
#289 = AXIS2_PLACEMENT_3D ( 'NONE', #182, #265, #155 ) ;
#290 = ORIENTED_EDGE ( 'NONE', *, *, #63, .T. ) ;
#291 = DIRECTION ( 'NONE',  ( -3.265724797726275178E-17, 1.000000000000000000, -0.000000000000000000 ) ) ;
#292 = ORIENTED_EDGE ( 'NONE', *, *, #241, .F. ) ;
#293 = APPLICATION_CONTEXT ( 'automotive_design' ) ;
#294 = DIRECTION ( 'NONE',  ( -1.000000000000000000, 0.000000000000000000, 0.000000000000000000 ) ) ;
#295 = ADVANCED_FACE ( 'NONE', ( #217 ), #47, .F. ) ;
#296 = CARTESIAN_POINT ( 'NONE',  ( -6.123233995736766036E-17, 2.500000000000000000, 0.000000000000000000 ) ) ;
#297 = AXIS2_PLACEMENT_3D ( 'NONE', #44, #216, #48 ) ;
#298 = CIRCLE ( 'NONE', #289, 0.2500000000000000000 ) ;
#299 = DIRECTION ( 'NONE',  ( 0.000000000000000000, 1.000000000000000000, 0.000000000000000000 ) ) ;
#300 = CARTESIAN_POINT ( 'NONE',  ( 3.061616997868383018E-17, 0.000000000000000000, 0.2500000000000000000 ) ) ;
#301 = FILL_AREA_STYLE_COLOUR ( '', #272 ) ;
#302 = PRESENTATION_LAYER_ASSIGNMENT (  '', '', ( #234 ) ) ;
#303 = PRODUCT_DEFINITION_FORMATION_WITH_SPECIFIED_SOURCE ( 'ANY', '', #65, .NOT_KNOWN. ) ;
#304 =( NAMED_UNIT ( * ) PLANE_ANGLE_UNIT ( ) SI_UNIT ( $, .RADIAN. ) );
#305 = DIRECTION ( 'NONE',  ( -0.000000000000000000, -1.000000000000000000, -0.000000000000000000 ) ) ;
#306 = EDGE_LOOP ( 'NONE', ( #109, #156 ) ) ;
#307 = VECTOR ( 'NONE', #291, 39.37007874015748143 ) ;
#308 = EDGE_LOOP ( 'NONE', ( #113, #287, #208, #27 ) ) ;
#309 = ADVANCED_FACE ( 'NONE', ( #11 ), #177, .T. ) ;
ENDSEC;
END-ISO-10303-21;
